ISO-10303-21;
HEADER;
FILE_DESCRIPTION (( 'STEP AP214' ),
    '1' );
FILE_NAME ('83424.STEP',
    '2023-06-30T23:17:52',
    ( '' ),
    ( '' ),
    'SwSTEP 2.0',
    'SolidWorks 2023',
    '' );
FILE_SCHEMA (( 'AUTOMOTIVE_DESIGN' ));
ENDSEC;

DATA;
#1 = CARTESIAN_POINT ( 'NONE',  ( 0.000000000000000000, 1.625000000000000000, 0.000000000000000000 ) ) ;
#2 = DIRECTION ( 'NONE',  ( -0.000000000000000000, -1.000000000000000000, -0.000000000000000000 ) ) ;
#3 = CARTESIAN_POINT ( 'NONE',  ( 0.000000000000000000, 0.2500000000000000555, -0.2499999999999999722 ) ) ;
#4 = CARTESIAN_POINT ( 'NONE',  ( -0.2499999999999993616, 1.625000000000000000, 0.000000000000000000 ) ) ;
#5 = CYLINDRICAL_SURFACE ( 'NONE', #185, 0.2499999999999997224 ) ;
#6 = CIRCLE ( 'NONE', #322, 0.2499999999999999722 ) ;
#7 = SURFACE_SIDE_STYLE ('',( #95 ) ) ;
#8 = PRESENTATION_STYLE_ASSIGNMENT (( #363 ) ) ;
#9 =( NAMED_UNIT ( * ) PLANE_ANGLE_UNIT ( ) SI_UNIT ( $, .RADIAN. ) );
#10 = SHAPE_DEFINITION_REPRESENTATION ( #94, #96 ) ;
#11 = CARTESIAN_POINT ( 'NONE',  ( 2.299140747152265662E-16, 1.625000000000000000, 0.000000000000000000 ) ) ;
#12 = MECHANICAL_DESIGN_GEOMETRIC_PRESENTATION_REPRESENTATION (  '', ( #282 ), #47 ) ;
#13 = PRODUCT_DEFINITION_CONTEXT ( 'detailed design', #230, 'design' ) ;
#14 = CARTESIAN_POINT ( 'NONE',  ( -3.061616997868383018E-17, 0.2500000000000000000, 0.000000000000000000 ) ) ;
#15 = DIRECTION ( 'NONE',  ( -1.000000000000000000, 0.000000000000000000, 0.000000000000000000 ) ) ;
#16 = DIMENSIONAL_EXPONENTS ( 1.000000000000000000, 0.000000000000000000, 0.000000000000000000, 0.000000000000000000, 0.000000000000000000, 0.000000000000000000, 0.000000000000000000 ) ;
#17 =( CONVERSION_BASED_UNIT ( 'INCH', #107 ) LENGTH_UNIT ( ) NAMED_UNIT ( #135 ) );
#18 = CARTESIAN_POINT ( 'NONE',  ( 0.000000000000000000, 0.000000000000000000, 0.000000000000000000 ) ) ;
#19 = EDGE_CURVE ( 'NONE', #189, #171, #174, .T. ) ;
#20 = SURFACE_SIDE_STYLE ('',( #126 ) ) ;
#21 = DIRECTION ( 'NONE',  ( 0.000000000000000000, 0.000000000000000000, 1.000000000000000000 ) ) ;
#22 = DIRECTION ( 'NONE',  ( 0.000000000000000000, 0.000000000000000000, -1.000000000000000000 ) ) ;
#23 = AXIS2_PLACEMENT_3D ( 'NONE', #1, #315, #63 ) ;
#24 = DIRECTION ( 'NONE',  ( -1.225879640726712598E-16, 1.000000000000000000, 0.000000000000000000 ) ) ;
#25 = AXIS2_PLACEMENT_3D ( 'NONE', #352, #24, #355 ) ;
#26 = VERTEX_POINT ( 'NONE', #111 ) ;
#27 = PRESENTATION_LAYER_ASSIGNMENT (  '', '', ( #146 ) ) ;
#28 =( GEOMETRIC_REPRESENTATION_CONTEXT ( 3 ) GLOBAL_UNCERTAINTY_ASSIGNED_CONTEXT ( ( #83 ) ) GLOBAL_UNIT_ASSIGNED_CONTEXT ( ( #57, #69, #213 ) ) REPRESENTATION_CONTEXT ( 'NONE', 'WORKASPACE' ) );
#29 = EDGE_LOOP ( 'NONE', ( #38, #254, #34, #53 ) ) ;
#30 = ADVANCED_FACE ( 'NONE', ( #339 ), #93, .F. ) ;
#31 = CARTESIAN_POINT ( 'NONE',  ( 0.000000000000000000, 0.2500000000000000555, 0.000000000000000000 ) ) ;
#32 = LENGTH_MEASURE_WITH_UNIT ( LENGTH_MEASURE( 0.02539999999999999897 ), #140 );
#33 = STYLED_ITEM ( 'NONE', ( #245 ), #133 ) ;
#34 = ORIENTED_EDGE ( 'NONE', *, *, #243, .F. ) ;
#35 = COLOUR_RGB ( '',1.000000000000000000, 0.000000000000000000, 0.000000000000000000 ) ;
#36 = PRODUCT_DEFINITION ( 'UNKNOWN', '', #332, #13 ) ;
#37 = SURFACE_STYLE_USAGE ( .BOTH. , #281 ) ;
#38 = ORIENTED_EDGE ( 'NONE', *, *, #284, .T. ) ;
#39 = AXIS2_PLACEMENT_3D ( 'NONE', #333, #338, #272 ) ;
#40 = LINE ( 'NONE', #100, #117 ) ;
#41 = PLANE ( 'NONE',  #25 ) ;
#42 = SURFACE_SIDE_STYLE ('',( #167 ) ) ;
#43 = SURFACE_SIDE_STYLE ('',( #293 ) ) ;
#44 = LENGTH_MEASURE_WITH_UNIT ( LENGTH_MEASURE( 0.02539999999999999897 ), #193 );
#45 = ORIENTED_EDGE ( 'NONE', *, *, #369, .T. ) ;
#46 = CARTESIAN_POINT ( 'NONE',  ( 0.000000000000000000, 0.000000000000000000, -0.2499999999999998890 ) ) ;
#47 =( GEOMETRIC_REPRESENTATION_CONTEXT ( 3 ) GLOBAL_UNCERTAINTY_ASSIGNED_CONTEXT ( ( #347 ) ) GLOBAL_UNIT_ASSIGNED_CONTEXT ( ( #154, #9, #290 ) ) REPRESENTATION_CONTEXT ( 'NONE', 'WORKASPACE' ) );
#48 = STYLED_ITEM ( 'NONE', ( #362 ), #308 ) ;
#49 = ORIENTED_EDGE ( 'NONE', *, *, #197, .T. ) ;
#50 = SURFACE_STYLE_USAGE ( .BOTH. , #42 ) ;
#51 = DIMENSIONAL_EXPONENTS ( 1.000000000000000000, 0.000000000000000000, 0.000000000000000000, 0.000000000000000000, 0.000000000000000000, 0.000000000000000000, 0.000000000000000000 ) ;
#52 = CARTESIAN_POINT ( 'NONE',  ( -6.123233995736766036E-17, 4.000000000000000000, 0.000000000000000000 ) ) ;
#53 = ORIENTED_EDGE ( 'NONE', *, *, #256, .F. ) ;
#54 = PRESENTATION_LAYER_ASSIGNMENT (  '', '', ( #269 ) ) ;
#55 = DIRECTION ( 'NONE',  ( -0.000000000000000000, -1.000000000000000000, -0.000000000000000000 ) ) ;
#56 = EDGE_CURVE ( 'NONE', #26, #176, #283, .T. ) ;
#57 =( CONVERSION_BASED_UNIT ( 'INCH', #32 ) LENGTH_UNIT ( ) NAMED_UNIT ( #51 ) );
#58 = PRESENTATION_LAYER_ASSIGNMENT (  '', '', ( #168 ) ) ;
#59 = FILL_AREA_STYLE_COLOUR ( '', #304 ) ;
#60 = FILL_AREA_STYLE ('',( #74 ) ) ;
#61 = AXIS2_PLACEMENT_3D ( 'NONE', #14, #21, #240 ) ;
#62 = PLANE ( 'NONE',  #350 ) ;
#63 = DIRECTION ( 'NONE',  ( 0.000000000000000000, 0.000000000000000000, -1.000000000000000000 ) ) ;
#64 = ORIENTED_EDGE ( 'NONE', *, *, #361, .F. ) ;
#65 = DIRECTION ( 'NONE',  ( -1.000000000000000000, 0.000000000000000000, 0.000000000000000000 ) ) ;
#66 = AXIS2_PLACEMENT_3D ( 'NONE', #92, #307, #172 ) ;
#67 = FILL_AREA_STYLE ('',( #178 ) ) ;
#68 = LENGTH_MEASURE_WITH_UNIT ( LENGTH_MEASURE( 0.02539999999999999897 ), #312 );
#69 =( NAMED_UNIT ( * ) PLANE_ANGLE_UNIT ( ) SI_UNIT ( $, .RADIAN. ) );
#70 = EDGE_CURVE ( 'NONE', #143, #189, #128, .T. ) ;
#71 = EDGE_LOOP ( 'NONE', ( #211, #295, #130, #45 ) ) ;
#72 = SPHERICAL_SURFACE ( 'NONE', #61, 0.2500000000000000000 ) ;
#73 = DIRECTION ( 'NONE',  ( -1.225879640726712598E-16, 1.000000000000000000, -0.000000000000000000 ) ) ;
#74 = FILL_AREA_STYLE_COLOUR ( '', #279 ) ;
#75 = FACE_OUTER_BOUND ( 'NONE', #328, .T. ) ;
#76 = LENGTH_MEASURE_WITH_UNIT ( LENGTH_MEASURE( 0.02539999999999999897 ), #222 );
#77 = FILL_AREA_STYLE_COLOUR ( '', #239 ) ;
#78 = PRESENTATION_LAYER_ASSIGNMENT (  '', '', ( #237 ) ) ;
#79 = SURFACE_STYLE_USAGE ( .BOTH. , #296 ) ;
#80 = DIRECTION ( 'NONE',  ( 0.000000000000000000, 0.000000000000000000, 1.000000000000000000 ) ) ;
#81 =( NAMED_UNIT ( * ) PLANE_ANGLE_UNIT ( ) SI_UNIT ( $, .RADIAN. ) );
#82 = DIRECTION ( 'NONE',  ( -1.225879640726712598E-16, 1.000000000000000000, -0.000000000000000000 ) ) ;
#83 = UNCERTAINTY_MEASURE_WITH_UNIT (LENGTH_MEASURE( 1.000000000000000082E-05 ), #57, 'distance_accuracy_value', 'NONE');
#84 = DIRECTION ( 'NONE',  ( -0.000000000000000000, -1.000000000000000000, -0.000000000000000000 ) ) ;
#85 = MECHANICAL_DESIGN_GEOMETRIC_PRESENTATION_REPRESENTATION (  '', ( #48 ), #28 ) ;
#86 =( GEOMETRIC_REPRESENTATION_CONTEXT ( 3 ) GLOBAL_UNCERTAINTY_ASSIGNED_CONTEXT ( ( #303 ) ) GLOBAL_UNIT_ASSIGNED_CONTEXT ( ( #17, #81, #218 ) ) REPRESENTATION_CONTEXT ( 'NONE', 'WORKASPACE' ) );
#87 = EDGE_CURVE ( 'NONE', #116, #160, #335, .T. ) ;
#88 = VERTEX_POINT ( 'NONE', #141 ) ;
#89 = EDGE_CURVE ( 'NONE', #189, #275, #341, .T. ) ;
#90 = EDGE_LOOP ( 'NONE', ( #115, #145 ) ) ;
#91 = MECHANICAL_DESIGN_GEOMETRIC_PRESENTATION_REPRESENTATION (  '', ( #237 ), #86 ) ;
#92 = CARTESIAN_POINT ( 'NONE',  ( 0.2499999999999998335, 4.000000000000000000, 0.000000000000000000 ) ) ;
#93 = PLANE ( 'NONE',  #66 ) ;
#94 = PRODUCT_DEFINITION_SHAPE ( 'NONE', 'NONE',  #36 ) ;
#95 = SURFACE_STYLE_FILL_AREA ( #323 ) ;
#96 = ADVANCED_BREP_SHAPE_REPRESENTATION ( '83424', ( #263, #133, #306 ), #195 ) ;
#97 =( NAMED_UNIT ( * ) PLANE_ANGLE_UNIT ( ) SI_UNIT ( $, .RADIAN. ) );
#98 = EDGE_CURVE ( 'NONE', #88, #143, #6, .T. ) ;
#99 = ORIENTED_EDGE ( 'NONE', *, *, #89, .F. ) ;
#100 = CARTESIAN_POINT ( 'NONE',  ( 3.061616997868381785E-17, 0.000000000000000000, 0.2499999999999998890 ) ) ;
#101 = ADVANCED_FACE ( 'NONE', ( #317 ), #62, .T. ) ;
#102 = ORIENTED_EDGE ( 'NONE', *, *, #56, .T. ) ;
#103 = FACE_OUTER_BOUND ( 'NONE', #120, .T. ) ;
#104 = APPLICATION_PROTOCOL_DEFINITION ( 'draft international standard', 'automotive_design', 1998, #230 ) ;
#105 = PRESENTATION_STYLE_ASSIGNMENT (( #271 ) ) ;
#106 = MECHANICAL_DESIGN_GEOMETRIC_PRESENTATION_REPRESENTATION (  '', ( #269 ), #310 ) ;
#107 = LENGTH_MEASURE_WITH_UNIT ( LENGTH_MEASURE( 0.02539999999999999897 ), #267 );
#108 = FILL_AREA_STYLE_COLOUR ( '', #336 ) ;
#109 = CARTESIAN_POINT ( 'NONE',  ( -0.2499999999999998057, 4.000000000000000000, 0.000000000000000000 ) ) ;
#110 = DIMENSIONAL_EXPONENTS ( 1.000000000000000000, 0.000000000000000000, 0.000000000000000000, 0.000000000000000000, 0.000000000000000000, 0.000000000000000000, 0.000000000000000000 ) ;
#111 = CARTESIAN_POINT ( 'NONE',  ( 0.2499999999999998335, 4.000000000000000000, 3.061616997868381169E-17 ) ) ;
#112 = ORIENTED_EDGE ( 'NONE', *, *, #56, .F. ) ;
#113 = AXIS2_PLACEMENT_3D ( 'NONE', #169, #343, #22 ) ;
#114 = ORIENTED_EDGE ( 'NONE', *, *, #243, .T. ) ;
#115 = ORIENTED_EDGE ( 'NONE', *, *, #340, .F. ) ;
#116 = VERTEX_POINT ( 'NONE', #280 ) ;
#117 = VECTOR ( 'NONE', #127, 39.37007874015748143 ) ;
#118 = EDGE_CURVE ( 'NONE', #275, #88, #119, .T. ) ;
#119 = CIRCLE ( 'NONE', #113, 0.2499999999999999722 ) ;
#120 = EDGE_LOOP ( 'NONE', ( #316, #342, #277, #161, #337 ) ) ;
#121 = AXIS2_PLACEMENT_3D ( 'NONE', #318, #260, #148 ) ;
#122 = ORIENTED_EDGE ( 'NONE', *, *, #87, .T. ) ;
#123 = DIRECTION ( 'NONE',  ( -1.000000000000000000, 0.000000000000000000, 0.000000000000000000 ) ) ;
#124 = PRODUCT_RELATED_PRODUCT_CATEGORY ( 'part', '', ( #276 ) ) ;
#125 = FACE_OUTER_BOUND ( 'NONE', #29, .T. ) ;
#126 = SURFACE_STYLE_FILL_AREA ( #60 ) ;
#127 = DIRECTION ( 'NONE',  ( -0.000000000000000000, -1.000000000000000000, -0.000000000000000000 ) ) ;
#128 = CIRCLE ( 'NONE', #235, 0.2499999999999999722 ) ;
#129 = PRESENTATION_LAYER_ASSIGNMENT (  '', '', ( #282 ) ) ;
#130 = ORIENTED_EDGE ( 'NONE', *, *, #118, .T. ) ;
#131 = DIRECTION ( 'NONE',  ( -0.000000000000000000, -1.000000000000000000, -0.000000000000000000 ) ) ;
#132 = FACE_OUTER_BOUND ( 'NONE', #229, .T. ) ;
#133 = MANIFOLD_SOLID_BREP ( 'Revolve - Tool Body (Straight Shanked)', #151 ) ;
#134 = PRODUCT_CONTEXT ( 'NONE', #137, 'mechanical' ) ;
#135 = DIMENSIONAL_EXPONENTS ( 1.000000000000000000, 0.000000000000000000, 0.000000000000000000, 0.000000000000000000, 0.000000000000000000, 0.000000000000000000, 0.000000000000000000 ) ;
#136 =( GEOMETRIC_REPRESENTATION_CONTEXT ( 3 ) GLOBAL_UNCERTAINTY_ASSIGNED_CONTEXT ( ( #199 ) ) GLOBAL_UNIT_ASSIGNED_CONTEXT ( ( #159, #97, #314 ) ) REPRESENTATION_CONTEXT ( 'NONE', 'WORKASPACE' ) );
#137 = APPLICATION_CONTEXT ( 'automotive_design' ) ;
#138 = SURFACE_SIDE_STYLE ('',( #331 ) ) ;
#139 = DIRECTION ( 'NONE',  ( -1.000000000000000000, 0.000000000000000000, 0.000000000000000000 ) ) ;
#140 =( LENGTH_UNIT ( ) NAMED_UNIT ( * ) SI_UNIT ( $, .METRE. ) );
#141 = CARTESIAN_POINT ( 'NONE',  ( 0.2499999999999999722, 0.2500000000000000555, 0.000000000000000000 ) ) ;
#142 = ORIENTED_EDGE ( 'NONE', *, *, #70, .T. ) ;
#143 = VERTEX_POINT ( 'NONE', #298 ) ;
#144 = CIRCLE ( 'NONE', #249, 0.2500000000000000000 ) ;
#145 = ORIENTED_EDGE ( 'NONE', *, *, #87, .F. ) ;
#146 = STYLED_ITEM ( 'NONE', ( #348 ), #263 ) ;
#147 = CARTESIAN_POINT ( 'NONE',  ( 0.000000000000000000, 0.000000000000000000, 0.000000000000000000 ) ) ;
#148 = DIRECTION ( 'NONE',  ( 0.000000000000000000, 0.000000000000000000, -1.000000000000000000 ) ) ;
#149 = PRESENTATION_STYLE_ASSIGNMENT (( #37 ) ) ;
#150 = DIRECTION ( 'NONE',  ( -1.225879640726712598E-16, 1.000000000000000000, -0.000000000000000000 ) ) ;
#151 = CLOSED_SHELL ( 'NONE', ( #357, #301, #365, #30 ) ) ;
#152 =( CONVERSION_BASED_UNIT ( 'INCH', #320 ) LENGTH_UNIT ( ) NAMED_UNIT ( #16 ) );
#153 = CIRCLE ( 'NONE', #23, 0.2499999999999998335 ) ;
#154 =( CONVERSION_BASED_UNIT ( 'INCH', #44 ) LENGTH_UNIT ( ) NAMED_UNIT ( #170 ) );
#155 = CARTESIAN_POINT ( 'NONE',  ( -0.2499999999999999722, 4.000000000000000000, 0.000000000000000000 ) ) ;
#156 = DIRECTION ( 'NONE',  ( 0.000000000000000000, 0.000000000000000000, 1.000000000000000000 ) ) ;
#157 = VECTOR ( 'NONE', #82, 39.37007874015748143 ) ;
#158 =( CONVERSION_BASED_UNIT ( 'INCH', #219 ) LENGTH_UNIT ( ) NAMED_UNIT ( #110 ) );
#159 =( CONVERSION_BASED_UNIT ( 'INCH', #209 ) LENGTH_UNIT ( ) NAMED_UNIT ( #175 ) );
#160 = VERTEX_POINT ( 'NONE', #353 ) ;
#161 = ORIENTED_EDGE ( 'NONE', *, *, #118, .F. ) ;
#162 = ORIENTED_EDGE ( 'NONE', *, *, #369, .F. ) ;
#163 = ADVANCED_FACE ( 'NONE', ( #132 ), #329, .T. ) ;
#164 = AXIS2_PLACEMENT_3D ( 'NONE', #52, #207, #139 ) ;
#165 = FILL_AREA_STYLE_COLOUR ( '', #191 ) ;
#166 = VERTEX_POINT ( 'NONE', #210 ) ;
#167 = SURFACE_STYLE_FILL_AREA ( #305 ) ;
#168 = STYLED_ITEM ( 'NONE', ( #149 ), #101 ) ;
#169 = CARTESIAN_POINT ( 'NONE',  ( 0.000000000000000000, 0.2500000000000000555, 0.000000000000000000 ) ) ;
#170 = DIMENSIONAL_EXPONENTS ( 1.000000000000000000, 0.000000000000000000, 0.000000000000000000, 0.000000000000000000, 0.000000000000000000, 0.000000000000000000, 0.000000000000000000 ) ;
#171 = VERTEX_POINT ( 'NONE', #358 ) ;
#172 = DIRECTION ( 'NONE',  ( 1.000000000000000000, 1.225879640726712598E-16, 0.000000000000000000 ) ) ;
#173 = EDGE_LOOP ( 'NONE', ( #64, #49, #226, #112 ) ) ;
#174 = CIRCLE ( 'NONE', #292, 0.2500000000000000000 ) ;
#175 = DIMENSIONAL_EXPONENTS ( 1.000000000000000000, 0.000000000000000000, 0.000000000000000000, 0.000000000000000000, 0.000000000000000000, 0.000000000000000000, 0.000000000000000000 ) ;
#176 = VERTEX_POINT ( 'NONE', #155 ) ;
#177 = DIRECTION ( 'NONE',  ( 0.000000000000000000, 0.000000000000000000, -1.000000000000000000 ) ) ;
#178 = FILL_AREA_STYLE_COLOUR ( '', #231 ) ;
#179 = CYLINDRICAL_SURFACE ( 'NONE', #121, 0.2499999999999998890 ) ;
#180 = ADVANCED_FACE ( 'NONE', ( #299 ), #217, .T. ) ;
#181 = AXIS2_PLACEMENT_3D ( 'NONE', #147, #2, #234 ) ;
#182 =( NAMED_UNIT ( * ) PLANE_ANGLE_UNIT ( ) SI_UNIT ( $, .RADIAN. ) );
#183 = CARTESIAN_POINT ( 'NONE',  ( 0.2499999999999996669, 4.000000000000000000, 3.061616997868379320E-17 ) ) ;
#184 = CARTESIAN_POINT ( 'NONE',  ( -6.123233995736766036E-17, 4.000000000000000000, 0.000000000000000000 ) ) ;
#185 = AXIS2_PLACEMENT_3D ( 'NONE', #184, #262, #123 ) ;
#186 =( CONVERSION_BASED_UNIT ( 'INCH', #76 ) LENGTH_UNIT ( ) NAMED_UNIT ( #203 ) );
#187 = DIRECTION ( 'NONE',  ( 0.000000000000000000, 0.000000000000000000, -1.000000000000000000 ) ) ;
#188 = DIRECTION ( 'NONE',  ( -1.225879640726712598E-16, 1.000000000000000000, -0.000000000000000000 ) ) ;
#189 = VERTEX_POINT ( 'NONE', #266 ) ;
#190 = FILL_AREA_STYLE_COLOUR ( '', #35 ) ;
#191 = COLOUR_RGB ( '',1.000000000000000000, 0.000000000000000000, 0.000000000000000000 ) ;
#192 = FILL_AREA_STYLE ('',( #77 ) ) ;
#193 =( LENGTH_UNIT ( ) NAMED_UNIT ( * ) SI_UNIT ( $, .METRE. ) );
#194 = DIMENSIONAL_EXPONENTS ( 1.000000000000000000, 0.000000000000000000, 0.000000000000000000, 0.000000000000000000, 0.000000000000000000, 0.000000000000000000, 0.000000000000000000 ) ;
#195 =( GEOMETRIC_REPRESENTATION_CONTEXT ( 3 ) GLOBAL_UNCERTAINTY_ASSIGNED_CONTEXT ( ( #214 ) ) GLOBAL_UNIT_ASSIGNED_CONTEXT ( ( #186, #289, #326 ) ) REPRESENTATION_CONTEXT ( 'NONE', 'WORKASPACE' ) );
#196 = FILL_AREA_STYLE ('',( #165 ) ) ;
#197 = EDGE_CURVE ( 'NONE', #166, #354, #345, .T. ) ;
#198 =( NAMED_UNIT ( * ) SI_UNIT ( $, .STERADIAN. ) SOLID_ANGLE_UNIT ( ) );
#199 = UNCERTAINTY_MEASURE_WITH_UNIT (LENGTH_MEASURE( 1.000000000000000082E-05 ), #159, 'distance_accuracy_value', 'NONE');
#200 = FILL_AREA_STYLE ('',( #190 ) ) ;
#201 =( NAMED_UNIT ( * ) PLANE_ANGLE_UNIT ( ) SI_UNIT ( $, .RADIAN. ) );
#202 = EDGE_CURVE ( 'NONE', #116, #143, #40, .T. ) ;
#203 = DIMENSIONAL_EXPONENTS ( 1.000000000000000000, 0.000000000000000000, 0.000000000000000000, 0.000000000000000000, 0.000000000000000000, 0.000000000000000000, 0.000000000000000000 ) ;
#204 =( GEOMETRIC_REPRESENTATION_CONTEXT ( 3 ) GLOBAL_UNCERTAINTY_ASSIGNED_CONTEXT ( ( #220 ) ) GLOBAL_UNIT_ASSIGNED_CONTEXT ( ( #158, #201, #198 ) ) REPRESENTATION_CONTEXT ( 'NONE', 'WORKASPACE' ) );
#205 = ORIENTED_EDGE ( 'NONE', *, *, #291, .T. ) ;
#206 = AXIS2_PLACEMENT_3D ( 'NONE', #324, #156, #268 ) ;
#207 = DIRECTION ( 'NONE',  ( -1.225879640726712598E-16, 1.000000000000000000, -0.000000000000000000 ) ) ;
#208 = PRESENTATION_LAYER_ASSIGNMENT (  '', '', ( #48 ) ) ;
#209 = LENGTH_MEASURE_WITH_UNIT ( LENGTH_MEASURE( 0.02539999999999999897 ), #373 );
#210 = CARTESIAN_POINT ( 'NONE',  ( 0.2499999999999998335, 1.625000000000000000, 3.061616997868381169E-17 ) ) ;
#211 = ORIENTED_EDGE ( 'NONE', *, *, #19, .F. ) ;
#212 =( LENGTH_UNIT ( ) NAMED_UNIT ( * ) SI_UNIT ( $, .METRE. ) );
#213 =( NAMED_UNIT ( * ) SI_UNIT ( $, .STERADIAN. ) SOLID_ANGLE_UNIT ( ) );
#214 = UNCERTAINTY_MEASURE_WITH_UNIT (LENGTH_MEASURE( 1.000000000000000082E-05 ), #186, 'distance_accuracy_value', 'NONE');
#215 = CYLINDRICAL_SURFACE ( 'NONE', #273, 0.2499999999999997224 ) ;
#216 = PRESENTATION_LAYER_ASSIGNMENT (  '', '', ( #33 ) ) ;
#217 = SPHERICAL_SURFACE ( 'NONE', #206, 0.2500000000000000000 ) ;
#218 =( NAMED_UNIT ( * ) SI_UNIT ( $, .STERADIAN. ) SOLID_ANGLE_UNIT ( ) );
#219 = LENGTH_MEASURE_WITH_UNIT ( LENGTH_MEASURE( 0.02539999999999999897 ), #356 );
#220 = UNCERTAINTY_MEASURE_WITH_UNIT (LENGTH_MEASURE( 1.000000000000000082E-05 ), #158, 'distance_accuracy_value', 'NONE');
#221 = MECHANICAL_DESIGN_GEOMETRIC_PRESENTATION_REPRESENTATION (  '', ( #33 ), #204 ) ;
#222 =( LENGTH_UNIT ( ) NAMED_UNIT ( * ) SI_UNIT ( $, .METRE. ) );
#223 = DIRECTION ( 'NONE',  ( -1.225879640726712598E-16, 1.000000000000000000, -0.000000000000000000 ) ) ;
#224 = APPLICATION_PROTOCOL_DEFINITION ( 'draft international standard', 'automotive_design', 1998, #137 ) ;
#225 = CARTESIAN_POINT ( 'NONE',  ( 0.000000000000000000, 1.625000000000000000, 0.000000000000000000 ) ) ;
#226 = ORIENTED_EDGE ( 'NONE', *, *, #256, .T. ) ;
#227 = DIRECTION ( 'NONE',  ( 0.000000000000000000, -0.000000000000000000, 1.000000000000000000 ) ) ;
#228 = CLOSED_SHELL ( 'NONE', ( #278, #308, #101, #163, #180 ) ) ;
#229 = EDGE_LOOP ( 'NONE', ( #351, #122, #205, #99, #344 ) ) ;
#230 = APPLICATION_CONTEXT ( 'automotive_design' ) ;
#231 = COLOUR_RGB ( '',1.000000000000000000, 0.000000000000000000, 0.000000000000000000 ) ;
#232 = ORIENTED_EDGE ( 'NONE', *, *, #284, .F. ) ;
#233 =( NAMED_UNIT ( * ) PLANE_ANGLE_UNIT ( ) SI_UNIT ( $, .RADIAN. ) );
#234 = DIRECTION ( 'NONE',  ( 0.000000000000000000, 0.000000000000000000, -1.000000000000000000 ) ) ;
#235 = AXIS2_PLACEMENT_3D ( 'NONE', #371, #251, #364 ) ;
#236 = LINE ( 'NONE', #183, #294 ) ;
#237 = STYLED_ITEM ( 'NONE', ( #300 ), #278 ) ;
#238 = FACE_OUTER_BOUND ( 'NONE', #173, .T. ) ;
#239 = COLOUR_RGB ( '',1.000000000000000000, 0.000000000000000000, 0.000000000000000000 ) ;
#240 = DIRECTION ( 'NONE',  ( 1.000000000000000000, 0.000000000000000000, 0.000000000000000000 ) ) ;
#241 = FACE_OUTER_BOUND ( 'NONE', #257, .T. ) ;
#242 = DIRECTION ( 'NONE',  ( -1.000000000000000000, 0.000000000000000000, 0.000000000000000000 ) ) ;
#243 = EDGE_CURVE ( 'NONE', #176, #26, #258, .T. ) ;
#244 = DIRECTION ( 'NONE',  ( -1.000000000000000000, 0.000000000000000000, 0.000000000000000000 ) ) ;
#245 = PRESENTATION_STYLE_ASSIGNMENT (( #50 ) ) ;
#246 =( GEOMETRIC_REPRESENTATION_CONTEXT ( 3 ) GLOBAL_UNCERTAINTY_ASSIGNED_CONTEXT ( ( #261 ) ) GLOBAL_UNIT_ASSIGNED_CONTEXT ( ( #152, #233, #287 ) ) REPRESENTATION_CONTEXT ( 'NONE', 'WORKASPACE' ) );
#247 = DIRECTION ( 'NONE',  ( 1.000000000000000000, 0.000000000000000000, 0.000000000000000000 ) ) ;
#248 = DIRECTION ( 'NONE',  ( 0.000000000000000000, 1.000000000000000000, 0.000000000000000000 ) ) ;
#249 = AXIS2_PLACEMENT_3D ( 'NONE', #270, #187, #242 ) ;
#250 = SURFACE_STYLE_USAGE ( .BOTH. , #138 ) ;
#251 = DIRECTION ( 'NONE',  ( -0.000000000000000000, -1.000000000000000000, -0.000000000000000000 ) ) ;
#252 = DIRECTION ( 'NONE',  ( 0.000000000000000000, 0.000000000000000000, -1.000000000000000000 ) ) ;
#253 = AXIS2_PLACEMENT_3D ( 'NONE', #11, #188, #65 ) ;
#254 = ORIENTED_EDGE ( 'NONE', *, *, #361, .T. ) ;
#255 = DIRECTION ( 'NONE',  ( 1.224646799147353207E-16, -0.000000000000000000, 1.000000000000000000 ) ) ;
#256 = EDGE_CURVE ( 'NONE', #354, #176, #359, .T. ) ;
#257 = EDGE_LOOP ( 'NONE', ( #232, #368 ) ) ;
#258 = CIRCLE ( 'NONE', #39, 0.2499999999999998890 ) ;
#259 = SURFACE_STYLE_USAGE ( .BOTH. , #7 ) ;
#260 = DIRECTION ( 'NONE',  ( -0.000000000000000000, -1.000000000000000000, -0.000000000000000000 ) ) ;
#261 = UNCERTAINTY_MEASURE_WITH_UNIT (LENGTH_MEASURE( 1.000000000000000082E-05 ), #152, 'distance_accuracy_value', 'NONE');
#262 = DIRECTION ( 'NONE',  ( -1.225879640726712598E-16, 1.000000000000000000, -0.000000000000000000 ) ) ;
#263 = MANIFOLD_SOLID_BREP ( 'Revolve - Cutting Edge', #228 ) ;
#264 = AXIS2_PLACEMENT_3D ( 'NONE', #31, #84, #252 ) ;
#265 =( NAMED_UNIT ( * ) SI_UNIT ( $, .STERADIAN. ) SOLID_ANGLE_UNIT ( ) );
#266 = CARTESIAN_POINT ( 'NONE',  ( -0.2500000000000000000, 0.2500000000000000555, 3.061616997868382402E-17 ) ) ;
#267 =( LENGTH_UNIT ( ) NAMED_UNIT ( * ) SI_UNIT ( $, .METRE. ) );
#268 = DIRECTION ( 'NONE',  ( 1.000000000000000000, 0.000000000000000000, 0.000000000000000000 ) ) ;
#269 = STYLED_ITEM ( 'NONE', ( #105 ), #163 ) ;
#270 = CARTESIAN_POINT ( 'NONE',  ( -3.061616997868383018E-17, 0.2500000000000000000, 0.000000000000000000 ) ) ;
#271 = SURFACE_STYLE_USAGE ( .BOTH. , #43 ) ;
#272 = DIRECTION ( 'NONE',  ( -1.000000000000000000, 0.000000000000000000, 0.000000000000000000 ) ) ;
#273 = AXIS2_PLACEMENT_3D ( 'NONE', #297, #73, #15 ) ;
#274 = ORIENTED_EDGE ( 'NONE', *, *, #98, .T. ) ;
#275 = VERTEX_POINT ( 'NONE', #3 ) ;
#276 = PRODUCT ( '83424', '83424', '', ( #134 ) ) ;
#277 = ORIENTED_EDGE ( 'NONE', *, *, #98, .F. ) ;
#278 = ADVANCED_FACE ( 'NONE', ( #75 ), #72, .T. ) ;
#279 = COLOUR_RGB ( '',1.000000000000000000, 0.000000000000000000, 0.000000000000000000 ) ;
#280 = CARTESIAN_POINT ( 'NONE',  ( 3.061616997868381785E-17, 1.625000000000000000, 0.2499999999999998335 ) ) ;
#281 = SURFACE_SIDE_STYLE ('',( #313 ) ) ;
#282 = STYLED_ITEM ( 'NONE', ( #8 ), #180 ) ;
#283 = CIRCLE ( 'NONE', #164, 0.2499999999999998890 ) ;
#284 = EDGE_CURVE ( 'NONE', #354, #166, #367, .T. ) ;
#285 = ORIENTED_EDGE ( 'NONE', *, *, #19, .T. ) ;
#286 =( CONVERSION_BASED_UNIT ( 'INCH', #68 ) LENGTH_UNIT ( ) NAMED_UNIT ( #194 ) );
#287 =( NAMED_UNIT ( * ) SI_UNIT ( $, .STERADIAN. ) SOLID_ANGLE_UNIT ( ) );
#288 = SURFACE_STYLE_FILL_AREA ( #196 ) ;
#289 =( NAMED_UNIT ( * ) PLANE_ANGLE_UNIT ( ) SI_UNIT ( $, .RADIAN. ) );
#290 =( NAMED_UNIT ( * ) SI_UNIT ( $, .STERADIAN. ) SOLID_ANGLE_UNIT ( ) );
#291 = EDGE_CURVE ( 'NONE', #160, #275, #334, .T. ) ;
#292 = AXIS2_PLACEMENT_3D ( 'NONE', #309, #255, #370 ) ;
#293 = SURFACE_STYLE_FILL_AREA ( #192 ) ;
#294 = VECTOR ( 'NONE', #150, 39.37007874015748143 ) ;
#295 = ORIENTED_EDGE ( 'NONE', *, *, #89, .T. ) ;
#296 = SURFACE_SIDE_STYLE ('',( #288 ) ) ;
#297 = CARTESIAN_POINT ( 'NONE',  ( -6.123233995736766036E-17, 4.000000000000000000, 0.000000000000000000 ) ) ;
#298 = CARTESIAN_POINT ( 'NONE',  ( 3.061616997868382402E-17, 0.2500000000000000555, 0.2499999999999999722 ) ) ;
#299 = FACE_OUTER_BOUND ( 'NONE', #71, .T. ) ;
#300 = PRESENTATION_STYLE_ASSIGNMENT (( #79 ) ) ;
#301 = ADVANCED_FACE ( 'NONE', ( #241 ), #41, .F. ) ;
#302 = CARTESIAN_POINT ( 'NONE',  ( 2.299140747152265662E-16, 1.625000000000000000, 0.000000000000000000 ) ) ;
#303 = UNCERTAINTY_MEASURE_WITH_UNIT (LENGTH_MEASURE( 1.000000000000000082E-05 ), #17, 'distance_accuracy_value', 'NONE');
#304 = COLOUR_RGB ( '',0.7921568627450980005, 0.8196078431372548767, 0.9333333333333333481 ) ;
#305 = FILL_AREA_STYLE ('',( #108 ) ) ;
#306 = AXIS2_PLACEMENT_3D ( 'NONE', #18, #80, #247 ) ;
#307 = DIRECTION ( 'NONE',  ( 1.225879640726712598E-16, -1.000000000000000000, 0.000000000000000000 ) ) ;
#308 = ADVANCED_FACE ( 'NONE', ( #103 ), #179, .T. ) ;
#309 = CARTESIAN_POINT ( 'NONE',  ( -3.061616997868383018E-17, 0.2500000000000000000, 0.000000000000000000 ) ) ;
#310 =( GEOMETRIC_REPRESENTATION_CONTEXT ( 3 ) GLOBAL_UNCERTAINTY_ASSIGNED_CONTEXT ( ( #360 ) ) GLOBAL_UNIT_ASSIGNED_CONTEXT ( ( #286, #182, #265 ) ) REPRESENTATION_CONTEXT ( 'NONE', 'WORKASPACE' ) );
#311 = CARTESIAN_POINT ( 'NONE',  ( 0.000000000000000000, 1.625000000000000000, 0.000000000000000000 ) ) ;
#312 =( LENGTH_UNIT ( ) NAMED_UNIT ( * ) SI_UNIT ( $, .METRE. ) );
#313 = SURFACE_STYLE_FILL_AREA ( #67 ) ;
#314 =( NAMED_UNIT ( * ) SI_UNIT ( $, .STERADIAN. ) SOLID_ANGLE_UNIT ( ) );
#315 = DIRECTION ( 'NONE',  ( -0.000000000000000000, -1.000000000000000000, -0.000000000000000000 ) ) ;
#316 = ORIENTED_EDGE ( 'NONE', *, *, #340, .T. ) ;
#317 = FACE_OUTER_BOUND ( 'NONE', #90, .T. ) ;
#318 = CARTESIAN_POINT ( 'NONE',  ( 0.000000000000000000, 0.000000000000000000, 0.000000000000000000 ) ) ;
#319 = DIRECTION ( 'NONE',  ( -0.000000000000000000, -1.000000000000000000, -0.000000000000000000 ) ) ;
#320 = LENGTH_MEASURE_WITH_UNIT ( LENGTH_MEASURE( 0.02539999999999999897 ), #212 );
#321 = CARTESIAN_POINT ( 'NONE',  ( 0.000000000000000000, 0.2500000000000000555, 0.000000000000000000 ) ) ;
#322 = AXIS2_PLACEMENT_3D ( 'NONE', #321, #319, #349 ) ;
#323 = FILL_AREA_STYLE ('',( #59 ) ) ;
#324 = CARTESIAN_POINT ( 'NONE',  ( -3.061616997868383018E-17, 0.2500000000000000000, 0.000000000000000000 ) ) ;
#325 = VECTOR ( 'NONE', #131, 39.37007874015748143 ) ;
#326 =( NAMED_UNIT ( * ) SI_UNIT ( $, .STERADIAN. ) SOLID_ANGLE_UNIT ( ) );
#327 = AXIS2_PLACEMENT_3D ( 'NONE', #302, #223, #244 ) ;
#328 = EDGE_LOOP ( 'NONE', ( #142, #285, #162, #274 ) ) ;
#329 = CYLINDRICAL_SURFACE ( 'NONE', #181, 0.2499999999999998890 ) ;
#330 = AXIS2_PLACEMENT_3D ( 'NONE', #311, #55, #177 ) ;
#331 = SURFACE_STYLE_FILL_AREA ( #200 ) ;
#332 = PRODUCT_DEFINITION_FORMATION_WITH_SPECIFIED_SOURCE ( 'ANY', '', #276, .NOT_KNOWN. ) ;
#333 = CARTESIAN_POINT ( 'NONE',  ( -6.123233995736766036E-17, 4.000000000000000000, 0.000000000000000000 ) ) ;
#334 = LINE ( 'NONE', #46, #325 ) ;
#335 = CIRCLE ( 'NONE', #330, 0.2499999999999998335 ) ;
#336 = COLOUR_RGB ( '',0.7921568627450980005, 0.8196078431372548767, 0.9333333333333333481 ) ;
#337 = ORIENTED_EDGE ( 'NONE', *, *, #291, .F. ) ;
#338 = DIRECTION ( 'NONE',  ( -1.225879640726712598E-16, 1.000000000000000000, -0.000000000000000000 ) ) ;
#339 = FACE_OUTER_BOUND ( 'NONE', #346, .T. ) ;
#340 = EDGE_CURVE ( 'NONE', #160, #116, #153, .T. ) ;
#341 = CIRCLE ( 'NONE', #264, 0.2499999999999999722 ) ;
#342 = ORIENTED_EDGE ( 'NONE', *, *, #202, .T. ) ;
#343 = DIRECTION ( 'NONE',  ( -0.000000000000000000, -1.000000000000000000, -0.000000000000000000 ) ) ;
#344 = ORIENTED_EDGE ( 'NONE', *, *, #70, .F. ) ;
#345 = CIRCLE ( 'NONE', #253, 0.2499999999999995837 ) ;
#346 = EDGE_LOOP ( 'NONE', ( #114, #102 ) ) ;
#347 = UNCERTAINTY_MEASURE_WITH_UNIT (LENGTH_MEASURE( 1.000000000000000082E-05 ), #154, 'distance_accuracy_value', 'NONE');
#348 = PRESENTATION_STYLE_ASSIGNMENT (( #259 ) ) ;
#349 = DIRECTION ( 'NONE',  ( 0.000000000000000000, 0.000000000000000000, -1.000000000000000000 ) ) ;
#350 = AXIS2_PLACEMENT_3D ( 'NONE', #225, #248, #227 ) ;
#351 = ORIENTED_EDGE ( 'NONE', *, *, #202, .F. ) ;
#352 = CARTESIAN_POINT ( 'NONE',  ( 2.299140747152265662E-16, 1.625000000000000000, 0.000000000000000000 ) ) ;
#353 = CARTESIAN_POINT ( 'NONE',  ( 0.000000000000000000, 1.625000000000000000, -0.2499999999999998335 ) ) ;
#354 = VERTEX_POINT ( 'NONE', #4 ) ;
#355 = DIRECTION ( 'NONE',  ( -1.000000000000000000, -1.225879640726712598E-16, 0.000000000000000000 ) ) ;
#356 =( LENGTH_UNIT ( ) NAMED_UNIT ( * ) SI_UNIT ( $, .METRE. ) );
#357 = ADVANCED_FACE ( 'NONE', ( #125 ), #5, .T. ) ;
#358 = CARTESIAN_POINT ( 'NONE',  ( -1.530808498934191509E-17, 0.000000000000000000, 0.000000000000000000 ) ) ;
#359 = LINE ( 'NONE', #109, #157 ) ;
#360 = UNCERTAINTY_MEASURE_WITH_UNIT (LENGTH_MEASURE( 1.000000000000000082E-05 ), #286, 'distance_accuracy_value', 'NONE');
#361 = EDGE_CURVE ( 'NONE', #166, #26, #236, .T. ) ;
#362 = PRESENTATION_STYLE_ASSIGNMENT (( #250 ) ) ;
#363 = SURFACE_STYLE_USAGE ( .BOTH. , #20 ) ;
#364 = DIRECTION ( 'NONE',  ( 0.000000000000000000, 0.000000000000000000, -1.000000000000000000 ) ) ;
#365 = ADVANCED_FACE ( 'NONE', ( #238 ), #215, .T. ) ;
#366 = MECHANICAL_DESIGN_GEOMETRIC_PRESENTATION_REPRESENTATION (  '', ( #146 ), #246 ) ;
#367 = CIRCLE ( 'NONE', #327, 0.2499999999999995837 ) ;
#368 = ORIENTED_EDGE ( 'NONE', *, *, #197, .F. ) ;
#369 = EDGE_CURVE ( 'NONE', #88, #171, #144, .T. ) ;
#370 = DIRECTION ( 'NONE',  ( 1.000000000000000000, 0.000000000000000000, -1.224646799147353207E-16 ) ) ;
#371 = CARTESIAN_POINT ( 'NONE',  ( 0.000000000000000000, 0.2500000000000000555, 0.000000000000000000 ) ) ;
#372 = MECHANICAL_DESIGN_GEOMETRIC_PRESENTATION_REPRESENTATION (  '', ( #168 ), #136 ) ;
#373 =( LENGTH_UNIT ( ) NAMED_UNIT ( * ) SI_UNIT ( $, .METRE. ) );
ENDSEC;
END-ISO-10303-21;
