ISO-10303-21;
HEADER;
FILE_DESCRIPTION (( 'STEP AP214' ),
    '1' );
FILE_NAME ('Micro_RDE-110.STEP',
    '2021-08-31T17:01:51',
    ( '' ),
    ( '' ),
    'SwSTEP 2.0',
    'SolidWorks 2020',
    '' );
FILE_SCHEMA (( 'AUTOMOTIVE_DESIGN' ));
ENDSEC;

DATA;
#1 = ORIENTED_EDGE ( 'NONE', *, *, #294, .F. ) ;
#2 = CONICAL_SURFACE ( 'NONE', #115, 0.2497499999999999998, 0.1745329251994339192 ) ;
#3 = CARTESIAN_POINT ( 'NONE',  ( -0.2497499999999999998, 0.0000000000000000000, 3.058555380870515566E-17 ) ) ;
#4 = CARTESIAN_POINT ( 'NONE',  ( 1.226383128429217700E-16, 0.0000000000000000000, 1.001417820454904462 ) ) ;
#5 = DIRECTION ( 'NONE',  ( 1.224646799147353454E-16, 0.0000000000000000000, 1.000000000000000000 ) ) ;
#6 = DIRECTION ( 'NONE',  ( 0.0000000000000000000, 0.0000000000000000000, -1.000000000000000000 ) ) ;
#7 = DIRECTION ( 'NONE',  ( -1.224646799147353454E-16, -0.0000000000000000000, -1.000000000000000000 ) ) ;
#8 = EDGE_CURVE ( 'NONE', #253, #217, #102, .T. ) ;
#9 = SURFACE_SIDE_STYLE ('',( #283 ) ) ;
#10 = AXIS2_PLACEMENT_3D ( 'NONE', #202, #138, #228 ) ;
#11 = DIRECTION ( 'NONE',  ( -1.224646799147353454E-16, -0.0000000000000000000, -1.000000000000000000 ) ) ;
#12 = CARTESIAN_POINT ( 'NONE',  ( 1.224646799147353454E-16, 0.0000000000000000000, 1.000000000000000000 ) ) ;
#13 = CARTESIAN_POINT ( 'NONE',  ( -0.2500000000000000000, 0.0000000000000000000, 3.000000000000000444 ) ) ;
#14 = ORIENTED_EDGE ( 'NONE', *, *, #275, .F. ) ;
#15 = EDGE_CURVE ( 'NONE', #171, #226, #81, .T. ) ;
#16 = AXIS2_PLACEMENT_3D ( 'NONE', #190, #5, #74 ) ;
#17 = CARTESIAN_POINT ( 'NONE',  ( 0.2497500000000001386, 0.0000000000000000000, 1.000000000000000000 ) ) ;
#18 =( LENGTH_UNIT ( ) NAMED_UNIT ( * ) SI_UNIT ( $, .METRE. ) );
#19 = ORIENTED_EDGE ( 'NONE', *, *, #42, .T. ) ;
#20 = PRODUCT_RELATED_PRODUCT_CATEGORY ( 'part', '', ( #176 ) ) ;
#21 = AXIS2_PLACEMENT_3D ( 'NONE', #91, #117, #181 ) ;
#22 = EDGE_LOOP ( 'NONE', ( #193, #37, #244, #191 ) ) ;
#23 = ORIENTED_EDGE ( 'NONE', *, *, #258, .F. ) ;
#24 = ORIENTED_EDGE ( 'NONE', *, *, #275, .T. ) ;
#25 = ADVANCED_FACE ( 'NONE', ( #107 ), #36, .T. ) ;
#26 = CARTESIAN_POINT ( 'NONE',  ( -0.2350000000000011524, 0.0000000000000000000, 3.000000000000000444 ) ) ;
#27 = ORIENTED_EDGE ( 'NONE', *, *, #8, .F. ) ;
#28 = CARTESIAN_POINT ( 'NONE',  ( -0.2500000000000000000, 0.0000000000000000000, 2.985000000000001208 ) ) ;
#29 = CIRCLE ( 'NONE', #143, 0.2350000000000011524 ) ;
#30 = FACE_OUTER_BOUND ( 'NONE', #59, .T. ) ;
#31 = DIRECTION ( 'NONE',  ( 1.000000000000000000, 0.0000000000000000000, 0.0000000000000000000 ) ) ;
#32 = DIRECTION ( 'NONE',  ( -1.224646799147353454E-16, -0.0000000000000000000, -1.000000000000000000 ) ) ;
#33 = CARTESIAN_POINT ( 'NONE',  ( -0.2497499999999999998, 0.0000000000000000000, 6.117110761741031132E-17 ) ) ;
#34 = DIRECTION ( 'NONE',  ( -0.7071067811865402453, 0.0000000000000000000, -0.7071067811865546782 ) ) ;
#35 = FACE_OUTER_BOUND ( 'NONE', #89, .T. ) ;
#36 = CONICAL_SURFACE ( 'NONE', #231, 0.2350000000000011524, 0.7853981633974380649 ) ;
#37 = ORIENTED_EDGE ( 'NONE', *, *, #111, .T. ) ;
#38 = EDGE_LOOP ( 'NONE', ( #227, #224, #80, #1 ) ) ;
#39 = AXIS2_PLACEMENT_3D ( 'NONE', #70, #254, #234 ) ;
#40 = DIRECTION ( 'NONE',  ( -1.224646799147353454E-16, -0.0000000000000000000, -1.000000000000000000 ) ) ;
#41 = PRODUCT_DEFINITION_SHAPE ( 'NONE', 'NONE',  #88 ) ;
#42 = EDGE_CURVE ( 'NONE', #253, #171, #248, .T. ) ;
#43 = COLOUR_RGB ( '',0.7921568627450980005, 0.8196078431372548767, 0.9333333333333333481 ) ;
#44 = EDGE_LOOP ( 'NONE', ( #133, #170 ) ) ;
#45 = ADVANCED_FACE ( 'NONE', ( #127 ), #136, .T. ) ;
#46 = CARTESIAN_POINT ( 'NONE',  ( -0.2499999999999998612, 0.0000000000000000000, 1.001417820454904462 ) ) ;
#47 = PRESENTATION_STYLE_ASSIGNMENT (( #158 ) ) ;
#48 = CARTESIAN_POINT ( 'NONE',  ( 0.2350000000000011524, 2.969768487932338510E-17, 3.000000000000000444 ) ) ;
#49 = CARTESIAN_POINT ( 'NONE',  ( 0.2350000000000011524, 2.877919977996294002E-17, 3.000000000000000444 ) ) ;
#50 = VECTOR ( 'NONE', #83, 39.37007874015748143 ) ;
#51 = CARTESIAN_POINT ( 'NONE',  ( 0.2497500000000001386, 0.0000000000000000000, 1.000000000000000000 ) ) ;
#52 = DIRECTION ( 'NONE',  ( 0.7071067811865402453, 8.659560562354845344E-17, -0.7071067811865546782 ) ) ;
#53 = DIRECTION ( 'NONE',  ( 1.000000000000000000, 0.0000000000000000000, 0.0000000000000000000 ) ) ;
#54 = CARTESIAN_POINT ( 'NONE',  ( 0.0000000000000000000, 0.0000000000000000000, 3.000000000000000444 ) ) ;
#55 = LINE ( 'NONE', #49, #152 ) ;
#56 = VECTOR ( 'NONE', #34, 39.37007874015748854 ) ;
#57 = ORIENTED_EDGE ( 'NONE', *, *, #77, .T. ) ;
#58 = CARTESIAN_POINT ( 'NONE',  ( 0.0000000000000000000, 0.0000000000000000000, 0.0000000000000000000 ) ) ;
#59 = EDGE_LOOP ( 'NONE', ( #23, #200, #255, #27 ) ) ;
#60 = EDGE_CURVE ( 'NONE', #90, #226, #62, .T. ) ;
#61 = CIRCLE ( 'NONE', #225, 0.2497499999999999998 ) ;
#62 = LINE ( 'NONE', #13, #84 ) ;
#63 = CONICAL_SURFACE ( 'NONE', #16, 0.2497499999999999998, 0.1745329251994339192 ) ;
#64 = EDGE_LOOP ( 'NONE', ( #146, #24, #66, #131 ) ) ;
#65 = AXIS2_PLACEMENT_3D ( 'NONE', #4, #11, #284 ) ;
#66 = ORIENTED_EDGE ( 'NONE', *, *, #60, .T. ) ;
#67 = FACE_OUTER_BOUND ( 'NONE', #38, .T. ) ;
#68 = CARTESIAN_POINT ( 'NONE',  ( 0.0000000000000000000, 0.0000000000000000000, 0.0000000000000000000 ) ) ;
#69 =( LENGTH_UNIT ( ) NAMED_UNIT ( * ) SI_UNIT ( $, .METRE. ) );
#70 = CARTESIAN_POINT ( 'NONE',  ( 0.0000000000000000000, 0.0000000000000000000, 3.000000000000000444 ) ) ;
#71 = CARTESIAN_POINT ( 'NONE',  ( 0.0000000000000000000, 0.0000000000000000000, 3.000000000000000444 ) ) ;
#72 = LENGTH_MEASURE_WITH_UNIT ( LENGTH_MEASURE( 0.02539999999999999897 ), #238 );
#73 = DIRECTION ( 'NONE',  ( 0.0000000000000000000, 0.0000000000000000000, 1.000000000000000000 ) ) ;
#74 = DIRECTION ( 'NONE',  ( 1.000000000000000000, 0.0000000000000000000, 0.0000000000000000000 ) ) ;
#75 =( NAMED_UNIT ( * ) PLANE_ANGLE_UNIT ( ) SI_UNIT ( $, .RADIAN. ) );
#76 =( NAMED_UNIT ( * ) SI_UNIT ( $, .STERADIAN. ) SOLID_ANGLE_UNIT ( ) );
#77 = EDGE_CURVE ( 'NONE', #217, #226, #220, .T. ) ;
#78 = EDGE_LOOP ( 'NONE', ( #241, #105, #114, #14 ) ) ;
#79 = MECHANICAL_DESIGN_GEOMETRIC_PRESENTATION_REPRESENTATION (  '', ( #269 ), #179 ) ;
#80 = ORIENTED_EDGE ( 'NONE', *, *, #250, .F. ) ;
#81 = LINE ( 'NONE', #168, #240 ) ;
#82 = ADVANCED_FACE ( 'NONE', ( #67 ), #282, .T. ) ;
#83 = DIRECTION ( 'NONE',  ( 0.1736481776669314137, 0.0000000000000000000, 0.9848077530122077983 ) ) ;
#84 = VECTOR ( 'NONE', #237, 39.37007874015748143 ) ;
#85 = UNCERTAINTY_MEASURE_WITH_UNIT (LENGTH_MEASURE( 1.000000000000000082E-05 ), #160, 'distance_accuracy_value', 'NONE');
#86 = MANIFOLD_SOLID_BREP ( 'Cut-Revolve1', #274 ) ;
#87 = ORIENTED_EDGE ( 'NONE', *, *, #169, .F. ) ;
#88 = PRODUCT_DEFINITION ( 'UNKNOWN', '', #126, #223 ) ;
#89 = EDGE_LOOP ( 'NONE', ( #87, #19, #157, #145 ) ) ;
#90 = VERTEX_POINT ( 'NONE', #28 ) ;
#91 = CARTESIAN_POINT ( 'NONE',  ( 0.0000000000000000000, 0.0000000000000000000, 0.0000000000000000000 ) ) ;
#92 = CIRCLE ( 'NONE', #280, 0.2500000000000000000 ) ;
#93 = CARTESIAN_POINT ( 'NONE',  ( 0.0000000000000000000, 0.0000000000000000000, 0.0000000000000000000 ) ) ;
#94 = DIRECTION ( 'NONE',  ( -0.0000000000000000000, -0.0000000000000000000, -1.000000000000000000 ) ) ;
#95 = DIRECTION ( 'NONE',  ( 1.000000000000000000, 0.0000000000000000000, 0.0000000000000000000 ) ) ;
#96 = FACE_OUTER_BOUND ( 'NONE', #154, .T. ) ;
#97 = CIRCLE ( 'NONE', #273, 0.2497499999999999998 ) ;
#98 =( NAMED_UNIT ( * ) PLANE_ANGLE_UNIT ( ) SI_UNIT ( $, .RADIAN. ) );
#99 = DIRECTION ( 'NONE',  ( -0.0000000000000000000, -0.0000000000000000000, -1.000000000000000000 ) ) ;
#100 = ORIENTED_EDGE ( 'NONE', *, *, #42, .F. ) ;
#101 = PRESENTATION_STYLE_ASSIGNMENT (( #196 ) ) ;
#102 = LINE ( 'NONE', #17, #50 ) ;
#103 = SURFACE_SIDE_STYLE ('',( #266 ) ) ;
#104 = CIRCLE ( 'NONE', #39, 0.2350000000000011524 ) ;
#105 = ORIENTED_EDGE ( 'NONE', *, *, #130, .F. ) ;
#106 = LENGTH_MEASURE_WITH_UNIT ( LENGTH_MEASURE( 0.02539999999999999897 ), #18 );
#107 = FACE_OUTER_BOUND ( 'NONE', #78, .T. ) ;
#108 = STYLED_ITEM ( 'NONE', ( #47 ), #86 ) ;
#109 =( GEOMETRIC_REPRESENTATION_CONTEXT ( 3 ) GLOBAL_UNCERTAINTY_ASSIGNED_CONTEXT ( ( #276 ) ) GLOBAL_UNIT_ASSIGNED_CONTEXT ( ( #261, #98, #272 ) ) REPRESENTATION_CONTEXT ( 'NONE', 'WORKASPACE' ) );
#110 = DIMENSIONAL_EXPONENTS ( 1.000000000000000000, 0.0000000000000000000, 0.0000000000000000000, 0.0000000000000000000, 0.0000000000000000000, 0.0000000000000000000, 0.0000000000000000000 ) ;
#111 = EDGE_CURVE ( 'NONE', #293, #295, #55, .T. ) ;
#112 = AXIS2_PLACEMENT_3D ( 'NONE', #54, #94, #182 ) ;
#113 = CYLINDRICAL_SURFACE ( 'NONE', #112, 0.2500000000000000000 ) ;
#114 = ORIENTED_EDGE ( 'NONE', *, *, #149, .T. ) ;
#115 = AXIS2_PLACEMENT_3D ( 'NONE', #12, #213, #53 ) ;
#116 = LINE ( 'NONE', #207, #56 ) ;
#117 = DIRECTION ( 'NONE',  ( -1.224646799147353454E-16, -0.0000000000000000000, -1.000000000000000000 ) ) ;
#118 = CARTESIAN_POINT ( 'NONE',  ( 0.0000000000000000000, 0.0000000000000000000, 2.985000000000001208 ) ) ;
#119 = CARTESIAN_POINT ( 'NONE',  ( 0.2500000000000000000, 3.061616997868382402E-17, 3.000000000000000444 ) ) ;
#120 = ORIENTED_EDGE ( 'NONE', *, *, #60, .F. ) ;
#121 =( CONVERSION_BASED_UNIT ( 'INCH', #106 ) LENGTH_UNIT ( ) NAMED_UNIT ( #129 ) );
#122 = ADVANCED_BREP_SHAPE_REPRESENTATION ( 'Micro_RDE-110', ( #86, #278 ), #109 ) ;
#123 = CARTESIAN_POINT ( 'NONE',  ( 1.224646799147353454E-16, 0.0000000000000000000, 1.000000000000000000 ) ) ;
#124 = AXIS2_PLACEMENT_3D ( 'NONE', #197, #247, #297 ) ;
#125 = EDGE_CURVE ( 'NONE', #251, #281, #277, .T. ) ;
#126 = PRODUCT_DEFINITION_FORMATION_WITH_SPECIFIED_SOURCE ( 'ANY', '', #176, .NOT_KNOWN. ) ;
#127 = FACE_OUTER_BOUND ( 'NONE', #22, .T. ) ;
#128 = AXIS2_PLACEMENT_3D ( 'NONE', #212, #99, #167 ) ;
#129 = DIMENSIONAL_EXPONENTS ( 1.000000000000000000, 0.0000000000000000000, 0.0000000000000000000, 0.0000000000000000000, 0.0000000000000000000, 0.0000000000000000000, 0.0000000000000000000 ) ;
#130 = EDGE_CURVE ( 'NONE', #291, #293, #29, .T. ) ;
#131 = ORIENTED_EDGE ( 'NONE', *, *, #77, .F. ) ;
#132 = CIRCLE ( 'NONE', #10, 0.2500000000000000000 ) ;
#133 = ORIENTED_EDGE ( 'NONE', *, *, #130, .T. ) ;
#134 = DIRECTION ( 'NONE',  ( 0.0000000000000000000, 0.0000000000000000000, -1.000000000000000000 ) ) ;
#135 = CARTESIAN_POINT ( 'NONE',  ( 3.745650057197990990E-33, 0.0000000000000000000, 3.058555380870515566E-17 ) ) ;
#136 = CONICAL_SURFACE ( 'NONE', #124, 0.2350000000000011524, 0.7853981633974380649 ) ;
#137 = CIRCLE ( 'NONE', #211, 0.2500000000000000000 ) ;
#138 = DIRECTION ( 'NONE',  ( -1.224646799147353454E-16, -0.0000000000000000000, -1.000000000000000000 ) ) ;
#139 = LINE ( 'NONE', #235, #142 ) ;
#140 = CYLINDRICAL_SURFACE ( 'NONE', #128, 0.2500000000000000000 ) ;
#141 = DIRECTION ( 'NONE',  ( -1.224646799147353454E-16, -0.0000000000000000000, -1.000000000000000000 ) ) ;
#142 = VECTOR ( 'NONE', #32, 39.37007874015748143 ) ;
#143 = AXIS2_PLACEMENT_3D ( 'NONE', #214, #232, #31 ) ;
#144 = FILL_AREA_STYLE ('',( #246 ) ) ;
#145 = ORIENTED_EDGE ( 'NONE', *, *, #125, .F. ) ;
#146 = ORIENTED_EDGE ( 'NONE', *, *, #183, .F. ) ;
#147 = DIRECTION ( 'NONE',  ( -1.000000000000000000, 0.0000000000000000000, 0.0000000000000000000 ) ) ;
#148 = ORIENTED_EDGE ( 'NONE', *, *, #183, .T. ) ;
#149 = EDGE_CURVE ( 'NONE', #291, #90, #116, .T. ) ;
#150 = APPLICATION_CONTEXT ( 'automotive_design' ) ;
#151 = UNCERTAINTY_MEASURE_WITH_UNIT (LENGTH_MEASURE( 1.000000000000000082E-05 ), #121, 'distance_accuracy_value', 'NONE');
#152 = VECTOR ( 'NONE', #52, 39.37007874015748854 ) ;
#153 = EDGE_CURVE ( 'NONE', #90, #295, #92, .T. ) ;
#154 = EDGE_LOOP ( 'NONE', ( #195, #148, #222, #120 ) ) ;
#155 = EDGE_LOOP ( 'NONE', ( #173, #100, #279, #57 ) ) ;
#156 = DIRECTION ( 'NONE',  ( 1.000000000000000000, 0.0000000000000000000, -0.0000000000000000000 ) ) ;
#157 = ORIENTED_EDGE ( 'NONE', *, *, #294, .T. ) ;
#158 = SURFACE_STYLE_USAGE ( .BOTH. , #9 ) ;
#159 = CARTESIAN_POINT ( 'NONE',  ( 0.2497499999999999998, 3.058555380870514950E-17, 0.0000000000000000000 ) ) ;
#160 =( CONVERSION_BASED_UNIT ( 'INCH', #209 ) LENGTH_UNIT ( ) NAMED_UNIT ( #174 ) );
#161 = DIRECTION ( 'NONE',  ( -1.000000000000000000, 0.0000000000000000000, 0.0000000000000000000 ) ) ;
#162 = DIRECTION ( 'NONE',  ( 1.000000000000000000, 0.0000000000000000000, -0.0000000000000000000 ) ) ;
#163 = AXIS2_PLACEMENT_3D ( 'NONE', #186, #204, #189 ) ;
#164 = ADVANCED_FACE ( 'NONE', ( #184 ), #260, .T. ) ;
#165 = CARTESIAN_POINT ( 'NONE',  ( -0.2497499999999998888, 3.060086189369449292E-17, 1.000000000000000000 ) ) ;
#166 = DIRECTION ( 'NONE',  ( -1.224646799147353454E-16, -0.0000000000000000000, -1.000000000000000000 ) ) ;
#167 = DIRECTION ( 'NONE',  ( -1.000000000000000000, 0.0000000000000000000, 0.0000000000000000000 ) ) ;
#168 = CARTESIAN_POINT ( 'NONE',  ( -0.2497499999999998888, 3.058555380870514950E-17, 1.000000000000000000 ) ) ;
#169 = EDGE_CURVE ( 'NONE', #253, #251, #139, .T. ) ;
#170 = ORIENTED_EDGE ( 'NONE', *, *, #221, .T. ) ;
#171 = VERTEX_POINT ( 'NONE', #165 ) ;
#172 = DIRECTION ( 'NONE',  ( 1.000000000000000000, 0.0000000000000000000, 0.0000000000000000000 ) ) ;
#173 = ORIENTED_EDGE ( 'NONE', *, *, #15, .F. ) ;
#174 = DIMENSIONAL_EXPONENTS ( 1.000000000000000000, 0.0000000000000000000, 0.0000000000000000000, 0.0000000000000000000, 0.0000000000000000000, 0.0000000000000000000, 0.0000000000000000000 ) ;
#175 = APPLICATION_CONTEXT ( 'automotive_design' ) ;
#176 = PRODUCT ( 'Micro_RDE-110', 'Micro_RDE-110', '', ( #292 ) ) ;
#177 = ADVANCED_FACE ( 'NONE', ( #262 ), #140, .T. ) ;
#178 = ORIENTED_EDGE ( 'NONE', *, *, #125, .T. ) ;
#179 =( GEOMETRIC_REPRESENTATION_CONTEXT ( 3 ) GLOBAL_UNCERTAINTY_ASSIGNED_CONTEXT ( ( #151 ) ) GLOBAL_UNIT_ASSIGNED_CONTEXT ( ( #121, #192, #76 ) ) REPRESENTATION_CONTEXT ( 'NONE', 'WORKASPACE' ) );
#180 = CARTESIAN_POINT ( 'NONE',  ( 0.2500000000000000000, 3.061616997868382402E-17, 2.985000000000001208 ) ) ;
#181 = DIRECTION ( 'NONE',  ( -1.000000000000000000, 0.0000000000000000000, 1.224646799147353700E-16 ) ) ;
#182 = DIRECTION ( 'NONE',  ( -1.000000000000000000, 0.0000000000000000000, 0.0000000000000000000 ) ) ;
#183 = EDGE_CURVE ( 'NONE', #295, #217, #265, .T. ) ;
#184 = FACE_OUTER_BOUND ( 'NONE', #44, .T. ) ;
#185 = LINE ( 'NONE', #3, #285 ) ;
#186 = CARTESIAN_POINT ( 'NONE',  ( 3.745650057197990990E-33, 0.0000000000000000000, 3.058555380870515566E-17 ) ) ;
#187 = AXIS2_PLACEMENT_3D ( 'NONE', #68, #259, #156 ) ;
#188 = FACE_OUTER_BOUND ( 'NONE', #270, .T. ) ;
#189 = DIRECTION ( 'NONE',  ( -1.000000000000000000, 0.0000000000000000000, 1.224646799147353700E-16 ) ) ;
#190 = CARTESIAN_POINT ( 'NONE',  ( 1.224646799147353454E-16, 0.0000000000000000000, 1.000000000000000000 ) ) ;
#191 = ORIENTED_EDGE ( 'NONE', *, *, #149, .F. ) ;
#192 =( NAMED_UNIT ( * ) PLANE_ANGLE_UNIT ( ) SI_UNIT ( $, .RADIAN. ) );
#193 = ORIENTED_EDGE ( 'NONE', *, *, #221, .F. ) ;
#194 = AXIS2_PLACEMENT_3D ( 'NONE', #93, #166, #286 ) ;
#195 = ORIENTED_EDGE ( 'NONE', *, *, #153, .T. ) ;
#196 = SURFACE_STYLE_USAGE ( .BOTH. , #103 ) ;
#197 = CARTESIAN_POINT ( 'NONE',  ( 0.0000000000000000000, 0.0000000000000000000, 3.000000000000000444 ) ) ;
#198 = AXIS2_PLACEMENT_3D ( 'NONE', #71, #73, #162 ) ;
#199 = ADVANCED_FACE ( 'NONE', ( #210 ), #2, .T. ) ;
#200 = ORIENTED_EDGE ( 'NONE', *, *, #15, .T. ) ;
#201 = ADVANCED_FACE ( 'NONE', ( #35 ), #289, .T. ) ;
#202 = CARTESIAN_POINT ( 'NONE',  ( 1.226383128429217700E-16, 0.0000000000000000000, 1.001417820454904462 ) ) ;
#203 = MECHANICAL_DESIGN_GEOMETRIC_PRESENTATION_REPRESENTATION (  '', ( #108 ), #298 ) ;
#204 = DIRECTION ( 'NONE',  ( -1.224646799147353454E-16, -0.0000000000000000000, -1.000000000000000000 ) ) ;
#205 = DIRECTION ( 'NONE',  ( -0.0000000000000000000, -0.0000000000000000000, -1.000000000000000000 ) ) ;
#206 = ADVANCED_FACE ( 'NONE', ( #30 ), #63, .T. ) ;
#207 = CARTESIAN_POINT ( 'NONE',  ( -0.2350000000000011524, 0.0000000000000000000, 3.000000000000000444 ) ) ;
#208 = CARTESIAN_POINT ( 'NONE',  ( 0.2500000000000001110, 3.061616997868383634E-17, 1.001417820454904462 ) ) ;
#209 = LENGTH_MEASURE_WITH_UNIT ( LENGTH_MEASURE( 0.02539999999999999897 ), #69 );
#210 = FACE_OUTER_BOUND ( 'NONE', #155, .T. ) ;
#211 = AXIS2_PLACEMENT_3D ( 'NONE', #118, #134, #257 ) ;
#212 = CARTESIAN_POINT ( 'NONE',  ( 0.0000000000000000000, 0.0000000000000000000, 3.000000000000000444 ) ) ;
#213 = DIRECTION ( 'NONE',  ( 1.224646799147353454E-16, 0.0000000000000000000, 1.000000000000000000 ) ) ;
#214 = CARTESIAN_POINT ( 'NONE',  ( 0.0000000000000000000, 0.0000000000000000000, 3.000000000000000444 ) ) ;
#215 = ADVANCED_FACE ( 'NONE', ( #188 ), #290, .F. ) ;
#216 = DIRECTION ( 'NONE',  ( 0.0000000000000000000, 0.0000000000000000000, 1.000000000000000000 ) ) ;
#217 = VERTEX_POINT ( 'NONE', #208 ) ;
#218 = SHAPE_DEFINITION_REPRESENTATION ( #41, #122 ) ;
#219 = DIRECTION ( 'NONE',  ( -1.000000000000000000, 0.0000000000000000000, 0.0000000000000000000 ) ) ;
#220 = CIRCLE ( 'NONE', #65, 0.2500000000000000000 ) ;
#221 = EDGE_CURVE ( 'NONE', #293, #291, #104, .T. ) ;
#222 = ORIENTED_EDGE ( 'NONE', *, *, #264, .F. ) ;
#223 = PRODUCT_DEFINITION_CONTEXT ( 'detailed design', #150, 'design' ) ;
#224 = ORIENTED_EDGE ( 'NONE', *, *, #169, .T. ) ;
#225 = AXIS2_PLACEMENT_3D ( 'NONE', #135, #263, #236 ) ;
#226 = VERTEX_POINT ( 'NONE', #46 ) ;
#227 = ORIENTED_EDGE ( 'NONE', *, *, #258, .T. ) ;
#228 = DIRECTION ( 'NONE',  ( 1.000000000000000000, 0.0000000000000000000, 0.0000000000000000000 ) ) ;
#229 =( NAMED_UNIT ( * ) SI_UNIT ( $, .STERADIAN. ) SOLID_ANGLE_UNIT ( ) );
#230 = CARTESIAN_POINT ( 'NONE',  ( 1.224646799147353454E-16, 0.0000000000000000000, 1.000000000000000000 ) ) ;
#231 = AXIS2_PLACEMENT_3D ( 'NONE', #267, #242, #147 ) ;
#232 = DIRECTION ( 'NONE',  ( 0.0000000000000000000, 0.0000000000000000000, 1.000000000000000000 ) ) ;
#233 = ADVANCED_FACE ( 'NONE', ( #96 ), #113, .T. ) ;
#234 = DIRECTION ( 'NONE',  ( 1.000000000000000000, 0.0000000000000000000, 0.0000000000000000000 ) ) ;
#235 = CARTESIAN_POINT ( 'NONE',  ( 0.2497499999999999998, 3.058555380870514950E-17, -3.058555380870515566E-17 ) ) ;
#236 = DIRECTION ( 'NONE',  ( -1.000000000000000000, 0.0000000000000000000, 1.224646799147353700E-16 ) ) ;
#237 = DIRECTION ( 'NONE',  ( -0.0000000000000000000, -0.0000000000000000000, -1.000000000000000000 ) ) ;
#238 =( LENGTH_UNIT ( ) NAMED_UNIT ( * ) SI_UNIT ( $, .METRE. ) );
#239 = FILL_AREA_STYLE_COLOUR ( '', #43 ) ;
#240 = VECTOR ( 'NONE', #271, 39.37007874015747433 ) ;
#241 = ORIENTED_EDGE ( 'NONE', *, *, #111, .F. ) ;
#242 = DIRECTION ( 'NONE',  ( 0.0000000000000000000, 0.0000000000000000000, -1.000000000000000000 ) ) ;
#243 = APPLICATION_PROTOCOL_DEFINITION ( 'draft international standard', 'automotive_design', 1998, #175 ) ;
#244 = ORIENTED_EDGE ( 'NONE', *, *, #153, .F. ) ;
#245 = PRESENTATION_LAYER_ASSIGNMENT (  '', '', ( #108 ) ) ;
#246 = FILL_AREA_STYLE_COLOUR ( '', #249 ) ;
#247 = DIRECTION ( 'NONE',  ( 0.0000000000000000000, 0.0000000000000000000, -1.000000000000000000 ) ) ;
#248 = CIRCLE ( 'NONE', #252, 0.2497499999999999998 ) ;
#249 = COLOUR_RGB ( '',0.7921568627450980005, 0.8196078431372548767, 0.9333333333333333481 ) ;
#250 = EDGE_CURVE ( 'NONE', #281, #251, #61, .T. ) ;
#251 = VERTEX_POINT ( 'NONE', #159 ) ;
#252 = AXIS2_PLACEMENT_3D ( 'NONE', #123, #40, #219 ) ;
#253 = VERTEX_POINT ( 'NONE', #51 ) ;
#254 = DIRECTION ( 'NONE',  ( 0.0000000000000000000, 0.0000000000000000000, 1.000000000000000000 ) ) ;
#255 = ORIENTED_EDGE ( 'NONE', *, *, #264, .T. ) ;
#256 = FILL_AREA_STYLE ('',( #239 ) ) ;
#257 = DIRECTION ( 'NONE',  ( 1.000000000000000000, 0.0000000000000000000, 0.0000000000000000000 ) ) ;
#258 = EDGE_CURVE ( 'NONE', #171, #253, #97, .T. ) ;
#259 = DIRECTION ( 'NONE',  ( 0.0000000000000000000, 0.0000000000000000000, 1.000000000000000000 ) ) ;
#260 = PLANE ( 'NONE',  #198 ) ;
#261 =( CONVERSION_BASED_UNIT ( 'INCH', #72 ) LENGTH_UNIT ( ) NAMED_UNIT ( #110 ) );
#262 = FACE_OUTER_BOUND ( 'NONE', #64, .T. ) ;
#263 = DIRECTION ( 'NONE',  ( -1.224646799147353454E-16, -0.0000000000000000000, -1.000000000000000000 ) ) ;
#264 = EDGE_CURVE ( 'NONE', #226, #217, #132, .T. ) ;
#265 = LINE ( 'NONE', #119, #287 ) ;
#266 = SURFACE_STYLE_FILL_AREA ( #144 ) ;
#267 = CARTESIAN_POINT ( 'NONE',  ( 0.0000000000000000000, 0.0000000000000000000, 3.000000000000000444 ) ) ;
#268 = PRESENTATION_LAYER_ASSIGNMENT (  '', '', ( #269 ) ) ;
#269 = STYLED_ITEM ( 'NONE', ( #101 ), #122 ) ;
#270 = EDGE_LOOP ( 'NONE', ( #299, #178 ) ) ;
#271 = DIRECTION ( 'NONE',  ( -0.1736481776669312194, 2.126576849575783625E-17, 0.9848077530122080203 ) ) ;
#272 =( NAMED_UNIT ( * ) SI_UNIT ( $, .STERADIAN. ) SOLID_ANGLE_UNIT ( ) );
#273 = AXIS2_PLACEMENT_3D ( 'NONE', #230, #7, #161 ) ;
#274 = CLOSED_SHELL ( 'NONE', ( #82, #206, #45, #233, #177, #164, #25, #199, #201, #215 ) ) ;
#275 = EDGE_CURVE ( 'NONE', #295, #90, #137, .T. ) ;
#276 = UNCERTAINTY_MEASURE_WITH_UNIT (LENGTH_MEASURE( 1.000000000000000082E-05 ), #261, 'distance_accuracy_value', 'NONE');
#277 = CIRCLE ( 'NONE', #163, 0.2497499999999999998 ) ;
#278 = AXIS2_PLACEMENT_3D ( 'NONE', #58, #216, #172 ) ;
#279 = ORIENTED_EDGE ( 'NONE', *, *, #8, .T. ) ;
#280 = AXIS2_PLACEMENT_3D ( 'NONE', #288, #6, #95 ) ;
#281 = VERTEX_POINT ( 'NONE', #33 ) ;
#282 = CYLINDRICAL_SURFACE ( 'NONE', #21, 0.2497499999999999998 ) ;
#283 = SURFACE_STYLE_FILL_AREA ( #256 ) ;
#284 = DIRECTION ( 'NONE',  ( 1.000000000000000000, 0.0000000000000000000, 0.0000000000000000000 ) ) ;
#285 = VECTOR ( 'NONE', #141, 39.37007874015748143 ) ;
#286 = DIRECTION ( 'NONE',  ( -1.000000000000000000, 0.0000000000000000000, 1.224646799147353700E-16 ) ) ;
#287 = VECTOR ( 'NONE', #205, 39.37007874015748143 ) ;
#288 = CARTESIAN_POINT ( 'NONE',  ( 0.0000000000000000000, 0.0000000000000000000, 2.985000000000001208 ) ) ;
#289 = CYLINDRICAL_SURFACE ( 'NONE', #194, 0.2497499999999999998 ) ;
#290 = PLANE ( 'NONE',  #187 ) ;
#291 = VERTEX_POINT ( 'NONE', #26 ) ;
#292 = PRODUCT_CONTEXT ( 'NONE', #175, 'mechanical' ) ;
#293 = VERTEX_POINT ( 'NONE', #48 ) ;
#294 = EDGE_CURVE ( 'NONE', #171, #281, #185, .T. ) ;
#295 = VERTEX_POINT ( 'NONE', #180 ) ;
#296 = APPLICATION_PROTOCOL_DEFINITION ( 'draft international standard', 'automotive_design', 1998, #150 ) ;
#297 = DIRECTION ( 'NONE',  ( -1.000000000000000000, 0.0000000000000000000, 0.0000000000000000000 ) ) ;
#298 =( GEOMETRIC_REPRESENTATION_CONTEXT ( 3 ) GLOBAL_UNCERTAINTY_ASSIGNED_CONTEXT ( ( #85 ) ) GLOBAL_UNIT_ASSIGNED_CONTEXT ( ( #160, #75, #229 ) ) REPRESENTATION_CONTEXT ( 'NONE', 'WORKASPACE' ) );
#299 = ORIENTED_EDGE ( 'NONE', *, *, #250, .T. ) ;
ENDSEC;
END-ISO-10303-21;
