ISO-10303-21;
HEADER;
FILE_DESCRIPTION (( 'STEP AP214' ),
    '1' );
FILE_NAME ('84091.STEP',
    '2023-06-23T11:50:33',
    ( '' ),
    ( '' ),
    'SwSTEP 2.0',
    'SolidWorks 2023',
    '' );
FILE_SCHEMA (( 'AUTOMOTIVE_DESIGN' ));
ENDSEC;

DATA;
#1 = APPLICATION_PROTOCOL_DEFINITION ( 'draft international standard', 'automotive_design', 1998, #19 ) ;
#2 = EDGE_CURVE ( 'NONE', #174, #65, #357, .T. ) ;
#3 =( LENGTH_UNIT ( ) NAMED_UNIT ( * ) SI_UNIT ( $, .METRE. ) );
#4 = VERTEX_POINT ( 'NONE', #221 ) ;
#5 = CLOSED_SHELL ( 'NONE', ( #39, #104, #117, #95 ) ) ;
#6 = STYLED_ITEM ( 'NONE', ( #353 ), #95 ) ;
#7 = DIMENSIONAL_EXPONENTS ( 1.000000000000000000, 0.000000000000000000, 0.000000000000000000, 0.000000000000000000, 0.000000000000000000, 0.000000000000000000, 0.000000000000000000 ) ;
#8 = ORIENTED_EDGE ( 'NONE', *, *, #213, .T. ) ;
#9 = DIRECTION ( 'NONE',  ( -0.000000000000000000, -1.000000000000000000, -0.000000000000000000 ) ) ;
#10 = MANIFOLD_SOLID_BREP ( 'Revolve - Cutting Edge', #5 ) ;
#11 = CIRCLE ( 'NONE', #164, 0.06250000000000000000 ) ;
#12 = VECTOR ( 'NONE', #204, 39.37007874015748143 ) ;
#13 = SURFACE_STYLE_USAGE ( .BOTH. , #68 ) ;
#14 = DIRECTION ( 'NONE',  ( -1.000000000000000000, 0.000000000000000000, 0.000000000000000000 ) ) ;
#15 = DIRECTION ( 'NONE',  ( 2.721437331438562546E-17, -1.000000000000000000, 0.000000000000000000 ) ) ;
#16 = CARTESIAN_POINT ( 'NONE',  ( -0.06250000000000000000, 0.2500000000000000555, 0.000000000000000000 ) ) ;
#17 = CONICAL_SURFACE ( 'NONE', #218, 0.06250000000000000000, 0.2617993877991502405 ) ;
#18 = AXIS2_PLACEMENT_3D ( 'NONE', #291, #162, #158 ) ;
#19 = APPLICATION_CONTEXT ( 'automotive_design' ) ;
#20 = FILL_AREA_STYLE ('',( #55 ) ) ;
#21 = AXIS2_PLACEMENT_3D ( 'NONE', #272, #151, #245 ) ;
#22 = SURFACE_STYLE_FILL_AREA ( #257 ) ;
#23 = FILL_AREA_STYLE ('',( #79 ) ) ;
#24 = PLANE ( 'NONE',  #328 ) ;
#25 = EDGE_CURVE ( 'NONE', #300, #238, #11, .T. ) ;
#26 = CARTESIAN_POINT ( 'NONE',  ( 0.000000000000000000, 0.000000000000000000, 0.000000000000000000 ) ) ;
#27 = EDGE_CURVE ( 'NONE', #4, #119, #249, .T. ) ;
#28 = APPLICATION_PROTOCOL_DEFINITION ( 'draft international standard', 'automotive_design', 1998, #149 ) ;
#29 = DIMENSIONAL_EXPONENTS ( 1.000000000000000000, 0.000000000000000000, 0.000000000000000000, 0.000000000000000000, 0.000000000000000000, 0.000000000000000000, 0.000000000000000000 ) ;
#30 = CLOSED_SHELL ( 'NONE', ( #281, #85, #232, #320, #144, #72 ) ) ;
#31 = ORIENTED_EDGE ( 'NONE', *, *, #34, .T. ) ;
#32 =( GEOMETRIC_REPRESENTATION_CONTEXT ( 3 ) GLOBAL_UNCERTAINTY_ASSIGNED_CONTEXT ( ( #190 ) ) GLOBAL_UNIT_ASSIGNED_CONTEXT ( ( #114, #298, #241 ) ) REPRESENTATION_CONTEXT ( 'NONE', 'WORKASPACE' ) );
#33 =( CONVERSION_BASED_UNIT ( 'INCH', #278 ) LENGTH_UNIT ( ) NAMED_UNIT ( #37 ) );
#34 = EDGE_CURVE ( 'NONE', #238, #300, #299, .T. ) ;
#35 = ORIENTED_EDGE ( 'NONE', *, *, #34, .F. ) ;
#36 = DIRECTION ( 'NONE',  ( -0.000000000000000000, -1.000000000000000000, -0.000000000000000000 ) ) ;
#37 = DIMENSIONAL_EXPONENTS ( 1.000000000000000000, 0.000000000000000000, 0.000000000000000000, 0.000000000000000000, 0.000000000000000000, 0.000000000000000000, 0.000000000000000000 ) ;
#38 = LENGTH_MEASURE_WITH_UNIT ( LENGTH_MEASURE( 0.02539999999999999897 ), #240 );
#39 = ADVANCED_FACE ( 'NONE', ( #306 ), #235, .T. ) ;
#40 = ORIENTED_EDGE ( 'NONE', *, *, #305, .T. ) ;
#41 = STYLED_ITEM ( 'NONE', ( #184 ), #117 ) ;
#42 =( GEOMETRIC_REPRESENTATION_CONTEXT ( 3 ) GLOBAL_UNCERTAINTY_ASSIGNED_CONTEXT ( ( #56 ) ) GLOBAL_UNIT_ASSIGNED_CONTEXT ( ( #185, #208, #329 ) ) REPRESENTATION_CONTEXT ( 'NONE', 'WORKASPACE' ) );
#43 = FACE_OUTER_BOUND ( 'NONE', #216, .T. ) ;
#44 = PLANE ( 'NONE',  #18 ) ;
#45 = CARTESIAN_POINT ( 'NONE',  ( -6.347838994089590308E-18, 0.4832531754730541862, 0.000000000000000000 ) ) ;
#46 = PRODUCT_DEFINITION_SHAPE ( 'NONE', 'NONE',  #332 ) ;
#47 = FACE_OUTER_BOUND ( 'NONE', #135, .T. ) ;
#48 = AXIS2_PLACEMENT_3D ( 'NONE', #90, #192, #172 ) ;
#49 = AXIS2_PLACEMENT_3D ( 'NONE', #252, #160, #255 ) ;
#50 = ORIENTED_EDGE ( 'NONE', *, *, #220, .T. ) ;
#51 = FILL_AREA_STYLE_COLOUR ( '', #169 ) ;
#52 =( NAMED_UNIT ( * ) PLANE_ANGLE_UNIT ( ) SI_UNIT ( $, .RADIAN. ) );
#53 = PRESENTATION_STYLE_ASSIGNMENT (( #324 ) ) ;
#54 = CARTESIAN_POINT ( 'NONE',  ( 0.000000000000000000, 0.2500000000000000555, 0.000000000000000000 ) ) ;
#55 = FILL_AREA_STYLE_COLOUR ( '', #262 ) ;
#56 = UNCERTAINTY_MEASURE_WITH_UNIT (LENGTH_MEASURE( 1.000000000000000082E-05 ), #185, 'distance_accuracy_value', 'NONE');
#57 =( LENGTH_UNIT ( ) NAMED_UNIT ( * ) SI_UNIT ( $, .METRE. ) );
#58 = DIRECTION ( 'NONE',  ( 0.000000000000000000, 0.000000000000000000, -1.000000000000000000 ) ) ;
#59 = FILL_AREA_STYLE_COLOUR ( '', #209 ) ;
#60 = ORIENTED_EDGE ( 'NONE', *, *, #27, .T. ) ;
#61 = PRESENTATION_LAYER_ASSIGNMENT (  '', '', ( #161 ) ) ;
#62 = AXIS2_PLACEMENT_3D ( 'NONE', #346, #177, #14 ) ;
#63 = ORIENTED_EDGE ( 'NONE', *, *, #25, .T. ) ;
#64 = ORIENTED_EDGE ( 'NONE', *, *, #76, .F. ) ;
#65 = VERTEX_POINT ( 'NONE', #296 ) ;
#66 = FACE_OUTER_BOUND ( 'NONE', #113, .T. ) ;
#67 = DIRECTION ( 'NONE',  ( 0.000000000000000000, 0.000000000000000000, -1.000000000000000000 ) ) ;
#68 = SURFACE_SIDE_STYLE ('',( #251 ) ) ;
#69 = MECHANICAL_DESIGN_GEOMETRIC_PRESENTATION_REPRESENTATION (  '', ( #121 ), #92 ) ;
#70 = DIRECTION ( 'NONE',  ( -2.721437331438562546E-17, 1.000000000000000000, -0.000000000000000000 ) ) ;
#71 = ORIENTED_EDGE ( 'NONE', *, *, #213, .F. ) ;
#72 = ADVANCED_FACE ( 'NONE', ( #66 ), #124, .F. ) ;
#73 =( LENGTH_UNIT ( ) NAMED_UNIT ( * ) SI_UNIT ( $, .METRE. ) );
#74 = PRESENTATION_LAYER_ASSIGNMENT (  '', '', ( #171 ) ) ;
#75 = DIRECTION ( 'NONE',  ( -0.000000000000000000, -1.000000000000000000, -0.000000000000000000 ) ) ;
#76 = EDGE_CURVE ( 'NONE', #115, #132, #334, .T. ) ;
#77 = DIRECTION ( 'NONE',  ( -0.000000000000000000, -1.000000000000000000, -0.000000000000000000 ) ) ;
#78 = CARTESIAN_POINT ( 'NONE',  ( 0.000000000000000000, 0.000000000000000000, -0.06250000000000000000 ) ) ;
#79 = FILL_AREA_STYLE_COLOUR ( '', #358 ) ;
#80 = AXIS2_PLACEMENT_3D ( 'NONE', #108, #237, #141 ) ;
#81 = CIRCLE ( 'NONE', #342, 0.06250000000000000000 ) ;
#82 = ORIENTED_EDGE ( 'NONE', *, *, #76, .T. ) ;
#83 = DIRECTION ( 'NONE',  ( -1.000000000000000000, 0.000000000000000000, 0.000000000000000000 ) ) ;
#84 = ORIENTED_EDGE ( 'NONE', *, *, #2, .F. ) ;
#85 = ADVANCED_FACE ( 'NONE', ( #43 ), #17, .T. ) ;
#86 = EDGE_CURVE ( 'NONE', #187, #110, #88, .T. ) ;
#87 = COLOUR_RGB ( '',0.7921568627450980005, 0.8196078431372548767, 0.9333333333333333481 ) ;
#88 = CIRCLE ( 'NONE', #348, 0.1250000000000000555 ) ;
#89 = AXIS2_PLACEMENT_3D ( 'NONE', #26, #181, #234 ) ;
#90 = CARTESIAN_POINT ( 'NONE',  ( -6.347838994089590308E-18, 0.4832531754730541862, 0.000000000000000000 ) ) ;
#91 = FILL_AREA_STYLE_COLOUR ( '', #225 ) ;
#92 =( GEOMETRIC_REPRESENTATION_CONTEXT ( 3 ) GLOBAL_UNCERTAINTY_ASSIGNED_CONTEXT ( ( #326 ) ) GLOBAL_UNIT_ASSIGNED_CONTEXT ( ( #33, #191, #304 ) ) REPRESENTATION_CONTEXT ( 'NONE', 'WORKASPACE' ) );
#93 = DIMENSIONAL_EXPONENTS ( 1.000000000000000000, 0.000000000000000000, 0.000000000000000000, 0.000000000000000000, 0.000000000000000000, 0.000000000000000000, 0.000000000000000000 ) ;
#94 = DIRECTION ( 'NONE',  ( -1.000000000000000000, 0.000000000000000000, 0.000000000000000000 ) ) ;
#95 = ADVANCED_FACE ( 'NONE', ( #254 ), #195, .T. ) ;
#96 =( CONVERSION_BASED_UNIT ( 'INCH', #330 ) LENGTH_UNIT ( ) NAMED_UNIT ( #308 ) );
#97 = DIRECTION ( 'NONE',  ( -1.000000000000000000, 0.000000000000000000, 0.000000000000000000 ) ) ;
#98 = UNCERTAINTY_MEASURE_WITH_UNIT (LENGTH_MEASURE( 1.000000000000000082E-05 ), #280, 'distance_accuracy_value', 'NONE');
#99 = FACE_OUTER_BOUND ( 'NONE', #246, .T. ) ;
#100 = PRESENTATION_STYLE_ASSIGNMENT (( #347 ) ) ;
#101 = CARTESIAN_POINT ( 'NONE',  ( 0.1250000000000000278, 2.500000000000000000, 1.530808498934192125E-17 ) ) ;
#102 =( NAMED_UNIT ( * ) PLANE_ANGLE_UNIT ( ) SI_UNIT ( $, .RADIAN. ) );
#103 = MECHANICAL_DESIGN_GEOMETRIC_PRESENTATION_REPRESENTATION (  '', ( #161 ), #312 ) ;
#104 = ADVANCED_FACE ( 'NONE', ( #47 ), #24, .T. ) ;
#105 = SURFACE_STYLE_USAGE ( .BOTH. , #263 ) ;
#106 = DIRECTION ( 'NONE',  ( 0.000000000000000000, -0.000000000000000000, 1.000000000000000000 ) ) ;
#107 = SHAPE_DEFINITION_REPRESENTATION ( #46, #212 ) ;
#108 = CARTESIAN_POINT ( 'NONE',  ( 0.000000000000000000, 0.000000000000000000, 0.000000000000000000 ) ) ;
#109 = AXIS2_PLACEMENT_3D ( 'NONE', #223, #194, #319 ) ;
#110 = VERTEX_POINT ( 'NONE', #183 ) ;
#111 = CONICAL_SURFACE ( 'NONE', #349, 0.06250000000000000000, 0.2617993877991502405 ) ;
#112 = ORIENTED_EDGE ( 'NONE', *, *, #305, .F. ) ;
#113 = EDGE_LOOP ( 'NONE', ( #316, #313 ) ) ;
#114 =( CONVERSION_BASED_UNIT ( 'INCH', #148 ) LENGTH_UNIT ( ) NAMED_UNIT ( #126 ) );
#115 = VERTEX_POINT ( 'NONE', #168 ) ;
#116 = AXIS2_PLACEMENT_3D ( 'NONE', #136, #261, #58 ) ;
#117 = ADVANCED_FACE ( 'NONE', ( #236 ), #295, .T. ) ;
#118 = ORIENTED_EDGE ( 'NONE', *, *, #196, .F. ) ;
#119 = VERTEX_POINT ( 'NONE', #229 ) ;
#120 = DIRECTION ( 'NONE',  ( 0.000000000000000000, 0.000000000000000000, -1.000000000000000000 ) ) ;
#121 = STYLED_ITEM ( 'NONE', ( #128 ), #39 ) ;
#122 = PRODUCT_DEFINITION_FORMATION_WITH_SPECIFIED_SOURCE ( 'ANY', '', #311, .NOT_KNOWN. ) ;
#123 = CARTESIAN_POINT ( 'NONE',  ( 0.000000000000000000, 0.2500000000000000000, 0.000000000000000000 ) ) ;
#124 = PLANE ( 'NONE',  #201 ) ;
#125 = PRODUCT_DEFINITION_CONTEXT ( 'detailed design', #19, 'design' ) ;
#126 = DIMENSIONAL_EXPONENTS ( 1.000000000000000000, 0.000000000000000000, 0.000000000000000000, 0.000000000000000000, 0.000000000000000000, 0.000000000000000000, 0.000000000000000000 ) ;
#127 = LENGTH_MEASURE_WITH_UNIT ( LENGTH_MEASURE( 0.02539999999999999897 ), #228 );
#128 = PRESENTATION_STYLE_ASSIGNMENT (( #13 ) ) ;
#129 = CARTESIAN_POINT ( 'NONE',  ( 0.06250000000000000000, 0.2500000000000000555, 1.148106374200643555E-17 ) ) ;
#130 = SURFACE_STYLE_FILL_AREA ( #20 ) ;
#131 = DIMENSIONAL_EXPONENTS ( 1.000000000000000000, 0.000000000000000000, 0.000000000000000000, 0.000000000000000000, 0.000000000000000000, 0.000000000000000000, 0.000000000000000000 ) ;
#132 = VERTEX_POINT ( 'NONE', #165 ) ;
#133 = AXIS2_PLACEMENT_3D ( 'NONE', #350, #147, #83 ) ;
#134 = DIRECTION ( 'NONE',  ( -2.721437331438562546E-17, 1.000000000000000000, -0.000000000000000000 ) ) ;
#135 = EDGE_LOOP ( 'NONE', ( #84, #71 ) ) ;
#136 = CARTESIAN_POINT ( 'NONE',  ( 0.000000000000000000, 0.000000000000000000, 0.000000000000000000 ) ) ;
#137 = CARTESIAN_POINT ( 'NONE',  ( 7.654042494670957545E-18, 0.000000000000000000, 0.06250000000000000000 ) ) ;
#138 = EDGE_CURVE ( 'NONE', #4, #187, #265, .T. ) ;
#139 = ORIENTED_EDGE ( 'NONE', *, *, #203, .F. ) ;
#140 = FACE_OUTER_BOUND ( 'NONE', #335, .T. ) ;
#141 = DIRECTION ( 'NONE',  ( 0.000000000000000000, 0.000000000000000000, -1.000000000000000000 ) ) ;
#142 = FILL_AREA_STYLE ('',( #59 ) ) ;
#143 = MANIFOLD_SOLID_BREP ( 'Revolve - Tool Body (Reduced Cut Diameter)', #30 ) ;
#144 = ADVANCED_FACE ( 'NONE', ( #140 ), #230, .T. ) ;
#145 = PRESENTATION_LAYER_ASSIGNMENT (  '', '', ( #284 ) ) ;
#146 =( GEOMETRIC_REPRESENTATION_CONTEXT ( 3 ) GLOBAL_UNCERTAINTY_ASSIGNED_CONTEXT ( ( #321 ) ) GLOBAL_UNIT_ASSIGNED_CONTEXT ( ( #96, #351, #270 ) ) REPRESENTATION_CONTEXT ( 'NONE', 'WORKASPACE' ) );
#147 = DIRECTION ( 'NONE',  ( -2.721437331438562546E-17, 1.000000000000000000, -0.000000000000000000 ) ) ;
#148 = LENGTH_MEASURE_WITH_UNIT ( LENGTH_MEASURE( 0.02539999999999999897 ), #3 );
#149 = APPLICATION_CONTEXT ( 'automotive_design' ) ;
#150 = EDGE_LOOP ( 'NONE', ( #155, #307, #64, #118 ) ) ;
#151 = DIRECTION ( 'NONE',  ( -2.721437331438562546E-17, 1.000000000000000000, -0.000000000000000000 ) ) ;
#152 = DIRECTION ( 'NONE',  ( -2.721437331438562546E-17, 1.000000000000000000, -0.000000000000000000 ) ) ;
#153 = ORIENTED_EDGE ( 'NONE', *, *, #167, .T. ) ;
#154 = LINE ( 'NONE', #247, #268 ) ;
#155 = ORIENTED_EDGE ( 'NONE', *, *, #2, .T. ) ;
#156 = AXIS2_PLACEMENT_3D ( 'NONE', #123, #36, #200 ) ;
#157 = ORIENTED_EDGE ( 'NONE', *, *, #220, .F. ) ;
#158 = DIRECTION ( 'NONE',  ( -1.000000000000000000, -2.721437331438562546E-17, 0.000000000000000000 ) ) ;
#159 = EDGE_CURVE ( 'NONE', #65, #132, #178, .T. ) ;
#160 = DIRECTION ( 'NONE',  ( -2.721437331438562546E-17, 1.000000000000000000, -0.000000000000000000 ) ) ;
#161 = STYLED_ITEM ( 'NONE', ( #53 ), #143 ) ;
#162 = DIRECTION ( 'NONE',  ( -2.721437331438562546E-17, 1.000000000000000000, 0.000000000000000000 ) ) ;
#163 = SURFACE_STYLE_FILL_AREA ( #23 ) ;
#164 = AXIS2_PLACEMENT_3D ( 'NONE', #222, #152, #276 ) ;
#165 = CARTESIAN_POINT ( 'NONE',  ( 7.654042494670957545E-18, 0.000000000000000000, 0.06250000000000000000 ) ) ;
#166 =( NAMED_UNIT ( * ) PLANE_ANGLE_UNIT ( ) SI_UNIT ( $, .RADIAN. ) );
#167 = EDGE_CURVE ( 'NONE', #119, #4, #189, .T. ) ;
#168 = CARTESIAN_POINT ( 'NONE',  ( 0.000000000000000000, 0.000000000000000000, -0.06250000000000000000 ) ) ;
#169 = COLOUR_RGB ( '',0.7921568627450980005, 0.8196078431372548767, 0.9333333333333333481 ) ;
#170 = AXIS2_PLACEMENT_3D ( 'NONE', #45, #134, #275 ) ;
#171 = STYLED_ITEM ( 'NONE', ( #100 ), #104 ) ;
#172 = DIRECTION ( 'NONE',  ( -1.000000000000000000, 0.000000000000000000, 0.000000000000000000 ) ) ;
#173 = ORIENTED_EDGE ( 'NONE', *, *, #159, .F. ) ;
#174 = VERTEX_POINT ( 'NONE', #180 ) ;
#175 = CIRCLE ( 'NONE', #49, 0.1250000000000000555 ) ;
#176 =( CONVERSION_BASED_UNIT ( 'INCH', #127 ) LENGTH_UNIT ( ) NAMED_UNIT ( #93 ) );
#177 = DIRECTION ( 'NONE',  ( -2.721437331438562546E-17, 1.000000000000000000, -0.000000000000000000 ) ) ;
#178 = LINE ( 'NONE', #137, #219 ) ;
#179 = UNCERTAINTY_MEASURE_WITH_UNIT (LENGTH_MEASURE( 1.000000000000000082E-05 ), #310, 'distance_accuracy_value', 'NONE');
#180 = CARTESIAN_POINT ( 'NONE',  ( 0.000000000000000000, 0.2500000000000000000, -0.06250000000000000000 ) ) ;
#181 = DIRECTION ( 'NONE',  ( 0.000000000000000000, 0.000000000000000000, 1.000000000000000000 ) ) ;
#182 = PRESENTATION_LAYER_ASSIGNMENT (  '', '', ( #41 ) ) ;
#183 = CARTESIAN_POINT ( 'NONE',  ( -0.1250000000000001388, 2.500000000000000000, 0.000000000000000000 ) ) ;
#184 = PRESENTATION_STYLE_ASSIGNMENT (( #331 ) ) ;
#185 =( CONVERSION_BASED_UNIT ( 'INCH', #333 ) LENGTH_UNIT ( ) NAMED_UNIT ( #29 ) );
#186 = AXIS2_PLACEMENT_3D ( 'NONE', #343, #338, #67 ) ;
#187 = VERTEX_POINT ( 'NONE', #101 ) ;
#188 = AXIS2_PLACEMENT_3D ( 'NONE', #273, #9, #120 ) ;
#189 = CIRCLE ( 'NONE', #170, 0.1250000000000000278 ) ;
#190 = UNCERTAINTY_MEASURE_WITH_UNIT (LENGTH_MEASURE( 1.000000000000000082E-05 ), #114, 'distance_accuracy_value', 'NONE');
#191 =( NAMED_UNIT ( * ) PLANE_ANGLE_UNIT ( ) SI_UNIT ( $, .RADIAN. ) );
#192 = DIRECTION ( 'NONE',  ( -2.721437331438562546E-17, 1.000000000000000000, -0.000000000000000000 ) ) ;
#193 = LINE ( 'NONE', #314, #211 ) ;
#194 = DIRECTION ( 'NONE',  ( 0.000000000000000000, -1.000000000000000000, -0.000000000000000000 ) ) ;
#195 = PLANE ( 'NONE',  #109 ) ;
#196 = EDGE_CURVE ( 'NONE', #174, #115, #288, .T. ) ;
#197 = DIRECTION ( 'NONE',  ( -2.721437331438562546E-17, 1.000000000000000000, -0.000000000000000000 ) ) ;
#198 = FILL_AREA_STYLE_COLOUR ( '', #87 ) ;
#199 = SURFACE_SIDE_STYLE ('',( #22 ) ) ;
#200 = DIRECTION ( 'NONE',  ( 0.000000000000000000, 0.000000000000000000, -1.000000000000000000 ) ) ;
#201 = AXIS2_PLACEMENT_3D ( 'NONE', #282, #15, #226 ) ;
#202 = VECTOR ( 'NONE', #274, 39.37007874015748143 ) ;
#203 = EDGE_CURVE ( 'NONE', #300, #4, #154, .T. ) ;
#204 = DIRECTION ( 'NONE',  ( -0.2588190451025215166, 0.9659258262890679791, 0.000000000000000000 ) ) ;
#205 = EDGE_LOOP ( 'NONE', ( #35, #260 ) ) ;
#206 = PRODUCT_RELATED_PRODUCT_CATEGORY ( 'part', '', ( #311 ) ) ;
#207 =( NAMED_UNIT ( * ) SI_UNIT ( $, .STERADIAN. ) SOLID_ANGLE_UNIT ( ) );
#208 =( NAMED_UNIT ( * ) PLANE_ANGLE_UNIT ( ) SI_UNIT ( $, .RADIAN. ) );
#209 = COLOUR_RGB ( '',1.000000000000000000, 0.000000000000000000, 0.000000000000000000 ) ;
#210 = SURFACE_SIDE_STYLE ('',( #355 ) ) ;
#211 = VECTOR ( 'NONE', #197, 39.37007874015748143 ) ;
#212 = ADVANCED_BREP_SHAPE_REPRESENTATION ( '84091', ( #10, #143, #89 ), #42 ) ;
#213 = EDGE_CURVE ( 'NONE', #65, #174, #227, .T. ) ;
#214 = ORIENTED_EDGE ( 'NONE', *, *, #27, .F. ) ;
#215 = EDGE_LOOP ( 'NONE', ( #139, #63, #50, #214 ) ) ;
#216 = EDGE_LOOP ( 'NONE', ( #31, #269, #224, #157 ) ) ;
#217 = ORIENTED_EDGE ( 'NONE', *, *, #239, .F. ) ;
#218 = AXIS2_PLACEMENT_3D ( 'NONE', #339, #286, #94 ) ;
#219 = VECTOR ( 'NONE', #75, 39.37007874015748143 ) ;
#220 = EDGE_CURVE ( 'NONE', #238, #119, #259, .T. ) ;
#221 = CARTESIAN_POINT ( 'NONE',  ( 0.1250000000000000000, 0.4832531754730541862, 1.530808498934191509E-17 ) ) ;
#222 = CARTESIAN_POINT ( 'NONE',  ( 0.000000000000000000, 0.2500000000000000555, 0.000000000000000000 ) ) ;
#223 = CARTESIAN_POINT ( 'NONE',  ( 0.000000000000000000, 0.000000000000000000, 0.000000000000000000 ) ) ;
#224 = ORIENTED_EDGE ( 'NONE', *, *, #167, .F. ) ;
#225 = COLOUR_RGB ( '',1.000000000000000000, 0.000000000000000000, 0.000000000000000000 ) ;
#226 = DIRECTION ( 'NONE',  ( 1.000000000000000000, 2.721437331438562546E-17, 0.000000000000000000 ) ) ;
#227 = CIRCLE ( 'NONE', #156, 0.06250000000000000000 ) ;
#228 =( LENGTH_UNIT ( ) NAMED_UNIT ( * ) SI_UNIT ( $, .METRE. ) );
#229 = CARTESIAN_POINT ( 'NONE',  ( -0.1250000000000000000, 0.4832531754730541862, 0.000000000000000000 ) ) ;
#230 = CYLINDRICAL_SURFACE ( 'NONE', #133, 0.1250000000000000278 ) ;
#231 = LENGTH_MEASURE_WITH_UNIT ( LENGTH_MEASURE( 0.02539999999999999897 ), #73 );
#232 = ADVANCED_FACE ( 'NONE', ( #327 ), #44, .F. ) ;
#233 = CARTESIAN_POINT ( 'NONE',  ( 0.000000000000000000, 0.2500000000000000000, 0.000000000000000000 ) ) ;
#234 = DIRECTION ( 'NONE',  ( 1.000000000000000000, 0.000000000000000000, 0.000000000000000000 ) ) ;
#235 = CYLINDRICAL_SURFACE ( 'NONE', #80, 0.06250000000000000000 ) ;
#236 = FACE_OUTER_BOUND ( 'NONE', #243, .T. ) ;
#237 = DIRECTION ( 'NONE',  ( -0.000000000000000000, -1.000000000000000000, -0.000000000000000000 ) ) ;
#238 = VERTEX_POINT ( 'NONE', #16 ) ;
#239 = EDGE_CURVE ( 'NONE', #110, #187, #175, .T. ) ;
#240 =( LENGTH_UNIT ( ) NAMED_UNIT ( * ) SI_UNIT ( $, .METRE. ) );
#241 =( NAMED_UNIT ( * ) SI_UNIT ( $, .STERADIAN. ) SOLID_ANGLE_UNIT ( ) );
#242 = MECHANICAL_DESIGN_GEOMETRIC_PRESENTATION_REPRESENTATION (  '', ( #171 ), #340 ) ;
#243 = EDGE_LOOP ( 'NONE', ( #173, #8, #266, #356 ) ) ;
#244 = ORIENTED_EDGE ( 'NONE', *, *, #86, .F. ) ;
#245 = DIRECTION ( 'NONE',  ( -1.000000000000000000, 0.000000000000000000, 0.000000000000000000 ) ) ;
#246 = EDGE_LOOP ( 'NONE', ( #153, #302, #217, #112 ) ) ;
#247 = CARTESIAN_POINT ( 'NONE',  ( 0.06250000000000000000, 0.2500000000000000555, 7.654042494670957545E-18 ) ) ;
#248 = SURFACE_STYLE_FILL_AREA ( #336 ) ;
#249 = CIRCLE ( 'NONE', #48, 0.1250000000000000278 ) ;
#250 = DIRECTION ( 'NONE',  ( -2.721437331438562546E-17, 1.000000000000000000, -0.000000000000000000 ) ) ;
#251 = SURFACE_STYLE_FILL_AREA ( #309 ) ;
#252 = CARTESIAN_POINT ( 'NONE',  ( -6.123233995736766036E-17, 2.500000000000000000, 0.000000000000000000 ) ) ;
#253 = ORIENTED_EDGE ( 'NONE', *, *, #138, .F. ) ;
#254 = FACE_OUTER_BOUND ( 'NONE', #352, .T. ) ;
#255 = DIRECTION ( 'NONE',  ( -1.000000000000000000, 0.000000000000000000, 0.000000000000000000 ) ) ;
#256 = SURFACE_SIDE_STYLE ('',( #130 ) ) ;
#257 = FILL_AREA_STYLE ('',( #51 ) ) ;
#258 = DIRECTION ( 'NONE',  ( -1.000000000000000000, 0.000000000000000000, 0.000000000000000000 ) ) ;
#259 = LINE ( 'NONE', #277, #12 ) ;
#260 = ORIENTED_EDGE ( 'NONE', *, *, #25, .F. ) ;
#261 = DIRECTION ( 'NONE',  ( -0.000000000000000000, -1.000000000000000000, -0.000000000000000000 ) ) ;
#262 = COLOUR_RGB ( '',1.000000000000000000, 0.000000000000000000, 0.000000000000000000 ) ;
#263 = SURFACE_SIDE_STYLE ('',( #163 ) ) ;
#264 = PRODUCT_CONTEXT ( 'NONE', #149, 'mechanical' ) ;
#265 = LINE ( 'NONE', #345, #323 ) ;
#266 = ORIENTED_EDGE ( 'NONE', *, *, #196, .T. ) ;
#267 =( GEOMETRIC_REPRESENTATION_CONTEXT ( 3 ) GLOBAL_UNCERTAINTY_ASSIGNED_CONTEXT ( ( #179 ) ) GLOBAL_UNIT_ASSIGNED_CONTEXT ( ( #310, #166, #207 ) ) REPRESENTATION_CONTEXT ( 'NONE', 'WORKASPACE' ) );
#268 = VECTOR ( 'NONE', #301, 39.37007874015748143 ) ;
#269 = ORIENTED_EDGE ( 'NONE', *, *, #203, .T. ) ;
#270 =( NAMED_UNIT ( * ) SI_UNIT ( $, .STERADIAN. ) SOLID_ANGLE_UNIT ( ) );
#271 = MECHANICAL_DESIGN_GEOMETRIC_PRESENTATION_REPRESENTATION (  '', ( #6 ), #146 ) ;
#272 = CARTESIAN_POINT ( 'NONE',  ( 0.000000000000000000, 0.2500000000000000555, 0.000000000000000000 ) ) ;
#273 = CARTESIAN_POINT ( 'NONE',  ( 0.000000000000000000, 0.2500000000000000000, 0.000000000000000000 ) ) ;
#274 = DIRECTION ( 'NONE',  ( -0.000000000000000000, -1.000000000000000000, -0.000000000000000000 ) ) ;
#275 = DIRECTION ( 'NONE',  ( -1.000000000000000000, 0.000000000000000000, 0.000000000000000000 ) ) ;
#276 = DIRECTION ( 'NONE',  ( -1.000000000000000000, 0.000000000000000000, 0.000000000000000000 ) ) ;
#277 = CARTESIAN_POINT ( 'NONE',  ( -0.06250000000000000000, 0.2500000000000000555, 0.000000000000000000 ) ) ;
#278 = LENGTH_MEASURE_WITH_UNIT ( LENGTH_MEASURE( 0.02539999999999999897 ), #283 );
#279 =( NAMED_UNIT ( * ) SI_UNIT ( $, .STERADIAN. ) SOLID_ANGLE_UNIT ( ) );
#280 =( CONVERSION_BASED_UNIT ( 'INCH', #231 ) LENGTH_UNIT ( ) NAMED_UNIT ( #7 ) );
#281 = ADVANCED_FACE ( 'NONE', ( #99 ), #318, .T. ) ;
#282 = CARTESIAN_POINT ( 'NONE',  ( 0.1250000000000000000, 2.500000000000000000, 0.000000000000000000 ) ) ;
#283 =( LENGTH_UNIT ( ) NAMED_UNIT ( * ) SI_UNIT ( $, .METRE. ) );
#284 = STYLED_ITEM ( 'NONE', ( #297 ), #10 ) ;
#285 = PRESENTATION_LAYER_ASSIGNMENT (  '', '', ( #6 ) ) ;
#286 = DIRECTION ( 'NONE',  ( -2.721437331438562546E-17, 1.000000000000000000, -0.000000000000000000 ) ) ;
#287 = FACE_OUTER_BOUND ( 'NONE', #215, .T. ) ;
#288 = LINE ( 'NONE', #78, #202 ) ;
#289 = DIRECTION ( 'NONE',  ( -2.721437331438562546E-17, 1.000000000000000000, -0.000000000000000000 ) ) ;
#290 = UNCERTAINTY_MEASURE_WITH_UNIT (LENGTH_MEASURE( 1.000000000000000082E-05 ), #176, 'distance_accuracy_value', 'NONE');
#291 = CARTESIAN_POINT ( 'NONE',  ( 2.314444109046076427E-35, 0.2500000000000000000, 0.000000000000000000 ) ) ;
#292 =( NAMED_UNIT ( * ) SI_UNIT ( $, .STERADIAN. ) SOLID_ANGLE_UNIT ( ) );
#293 = PRESENTATION_LAYER_ASSIGNMENT (  '', '', ( #121 ) ) ;
#294 = SURFACE_STYLE_USAGE ( .BOTH. , #359 ) ;
#295 = CYLINDRICAL_SURFACE ( 'NONE', #116, 0.06250000000000000000 ) ;
#296 = CARTESIAN_POINT ( 'NONE',  ( 7.654042494670957545E-18, 0.2500000000000000000, 0.06250000000000000000 ) ) ;
#297 = PRESENTATION_STYLE_ASSIGNMENT (( #294 ) ) ;
#298 =( NAMED_UNIT ( * ) PLANE_ANGLE_UNIT ( ) SI_UNIT ( $, .RADIAN. ) );
#299 = CIRCLE ( 'NONE', #21, 0.06250000000000000000 ) ;
#300 = VERTEX_POINT ( 'NONE', #129 ) ;
#301 = DIRECTION ( 'NONE',  ( 0.2588190451025215166, 0.9659258262890679791, 3.169619151431774186E-17 ) ) ;
#302 = ORIENTED_EDGE ( 'NONE', *, *, #138, .T. ) ;
#303 = MECHANICAL_DESIGN_GEOMETRIC_PRESENTATION_REPRESENTATION (  '', ( #41 ), #267 ) ;
#304 =( NAMED_UNIT ( * ) SI_UNIT ( $, .STERADIAN. ) SOLID_ANGLE_UNIT ( ) );
#305 = EDGE_CURVE ( 'NONE', #119, #110, #193, .T. ) ;
#306 = FACE_OUTER_BOUND ( 'NONE', #150, .T. ) ;
#307 = ORIENTED_EDGE ( 'NONE', *, *, #159, .T. ) ;
#308 = DIMENSIONAL_EXPONENTS ( 1.000000000000000000, 0.000000000000000000, 0.000000000000000000, 0.000000000000000000, 0.000000000000000000, 0.000000000000000000, 0.000000000000000000 ) ;
#309 = FILL_AREA_STYLE ('',( #91 ) ) ;
#310 =( CONVERSION_BASED_UNIT ( 'INCH', #38 ) LENGTH_UNIT ( ) NAMED_UNIT ( #131 ) );
#311 = PRODUCT ( '84091', '84091', '', ( #264 ) ) ;
#312 =( GEOMETRIC_REPRESENTATION_CONTEXT ( 3 ) GLOBAL_UNCERTAINTY_ASSIGNED_CONTEXT ( ( #290 ) ) GLOBAL_UNIT_ASSIGNED_CONTEXT ( ( #176, #52, #279 ) ) REPRESENTATION_CONTEXT ( 'NONE', 'WORKASPACE' ) );
#313 = ORIENTED_EDGE ( 'NONE', *, *, #86, .T. ) ;
#314 = CARTESIAN_POINT ( 'NONE',  ( -0.1250000000000001110, 2.500000000000000000, 0.000000000000000000 ) ) ;
#315 = EDGE_CURVE ( 'NONE', #132, #115, #81, .T. ) ;
#316 = ORIENTED_EDGE ( 'NONE', *, *, #239, .T. ) ;
#317 = CARTESIAN_POINT ( 'NONE',  ( -6.123233995736766036E-17, 2.500000000000000000, 0.000000000000000000 ) ) ;
#318 = CYLINDRICAL_SURFACE ( 'NONE', #62, 0.1250000000000000278 ) ;
#319 = DIRECTION ( 'NONE',  ( 0.000000000000000000, 0.000000000000000000, -1.000000000000000000 ) ) ;
#320 = ADVANCED_FACE ( 'NONE', ( #287 ), #111, .T. ) ;
#321 = UNCERTAINTY_MEASURE_WITH_UNIT (LENGTH_MEASURE( 1.000000000000000082E-05 ), #96, 'distance_accuracy_value', 'NONE');
#322 = CARTESIAN_POINT ( 'NONE',  ( 0.000000000000000000, 0.000000000000000000, 0.000000000000000000 ) ) ;
#323 = VECTOR ( 'NONE', #289, 39.37007874015748143 ) ;
#324 = SURFACE_STYLE_USAGE ( .BOTH. , #199 ) ;
#325 =( LENGTH_UNIT ( ) NAMED_UNIT ( * ) SI_UNIT ( $, .METRE. ) );
#326 = UNCERTAINTY_MEASURE_WITH_UNIT (LENGTH_MEASURE( 1.000000000000000082E-05 ), #33, 'distance_accuracy_value', 'NONE');
#327 = FACE_OUTER_BOUND ( 'NONE', #205, .T. ) ;
#328 = AXIS2_PLACEMENT_3D ( 'NONE', #233, #354, #106 ) ;
#329 =( NAMED_UNIT ( * ) SI_UNIT ( $, .STERADIAN. ) SOLID_ANGLE_UNIT ( ) );
#330 = LENGTH_MEASURE_WITH_UNIT ( LENGTH_MEASURE( 0.02539999999999999897 ), #57 );
#331 = SURFACE_STYLE_USAGE ( .BOTH. , #210 ) ;
#332 = PRODUCT_DEFINITION ( 'UNKNOWN', '', #122, #125 ) ;
#333 = LENGTH_MEASURE_WITH_UNIT ( LENGTH_MEASURE( 0.02539999999999999897 ), #325 );
#334 = CIRCLE ( 'NONE', #186, 0.06250000000000000000 ) ;
#335 = EDGE_LOOP ( 'NONE', ( #253, #60, #40, #244 ) ) ;
#336 = FILL_AREA_STYLE ('',( #198 ) ) ;
#337 = MECHANICAL_DESIGN_GEOMETRIC_PRESENTATION_REPRESENTATION (  '', ( #284 ), #32 ) ;
#338 = DIRECTION ( 'NONE',  ( -0.000000000000000000, -1.000000000000000000, -0.000000000000000000 ) ) ;
#339 = CARTESIAN_POINT ( 'NONE',  ( 0.000000000000000000, 0.2500000000000000555, 0.000000000000000000 ) ) ;
#340 =( GEOMETRIC_REPRESENTATION_CONTEXT ( 3 ) GLOBAL_UNCERTAINTY_ASSIGNED_CONTEXT ( ( #98 ) ) GLOBAL_UNIT_ASSIGNED_CONTEXT ( ( #280, #102, #292 ) ) REPRESENTATION_CONTEXT ( 'NONE', 'WORKASPACE' ) );
#341 = ORIENTED_EDGE ( 'NONE', *, *, #315, .T. ) ;
#342 = AXIS2_PLACEMENT_3D ( 'NONE', #322, #77, #344 ) ;
#343 = CARTESIAN_POINT ( 'NONE',  ( 0.000000000000000000, 0.000000000000000000, 0.000000000000000000 ) ) ;
#344 = DIRECTION ( 'NONE',  ( 0.000000000000000000, 0.000000000000000000, -1.000000000000000000 ) ) ;
#345 = CARTESIAN_POINT ( 'NONE',  ( 0.1249999999999999584, 2.500000000000000000, 1.530808498934191817E-17 ) ) ;
#346 = CARTESIAN_POINT ( 'NONE',  ( -6.123233995736766036E-17, 2.500000000000000000, 0.000000000000000000 ) ) ;
#347 = SURFACE_STYLE_USAGE ( .BOTH. , #256 ) ;
#348 = AXIS2_PLACEMENT_3D ( 'NONE', #317, #250, #97 ) ;
#349 = AXIS2_PLACEMENT_3D ( 'NONE', #54, #70, #258 ) ;
#350 = CARTESIAN_POINT ( 'NONE',  ( -6.123233995736766036E-17, 2.500000000000000000, 0.000000000000000000 ) ) ;
#351 =( NAMED_UNIT ( * ) PLANE_ANGLE_UNIT ( ) SI_UNIT ( $, .RADIAN. ) );
#352 = EDGE_LOOP ( 'NONE', ( #82, #341 ) ) ;
#353 = PRESENTATION_STYLE_ASSIGNMENT (( #105 ) ) ;
#354 = DIRECTION ( 'NONE',  ( 0.000000000000000000, 1.000000000000000000, 0.000000000000000000 ) ) ;
#355 = SURFACE_STYLE_FILL_AREA ( #142 ) ;
#356 = ORIENTED_EDGE ( 'NONE', *, *, #315, .F. ) ;
#357 = CIRCLE ( 'NONE', #188, 0.06250000000000000000 ) ;
#358 = COLOUR_RGB ( '',1.000000000000000000, 0.000000000000000000, 0.000000000000000000 ) ;
#359 = SURFACE_SIDE_STYLE ('',( #248 ) ) ;
ENDSEC;
END-ISO-10303-21;
