ISO-10303-21;
HEADER;
FILE_DESCRIPTION (( 'STEP AP214' ),
    '1' );
FILE_NAME ('Micro_EMS-250-4X.STEP',
    '2021-09-01T17:51:16',
    ( '' ),
    ( '' ),
    'SwSTEP 2.0',
    'SolidWorks 2020',
    '' );
FILE_SCHEMA (( 'AUTOMOTIVE_DESIGN' ));
ENDSEC;

DATA;
#1 = CARTESIAN_POINT ( 'NONE',  ( -0.1248749999999999999, 0.0000000000000000000, 3.058555380870514950E-17 ) ) ;
#2 = DIRECTION ( 'NONE',  ( 0.0000000000000000000, 0.0000000000000000000, 1.000000000000000000 ) ) ;
#3 = LINE ( 'NONE', #237, #59 ) ;
#4 = ORIENTED_EDGE ( 'NONE', *, *, #68, .T. ) ;
#5 = CARTESIAN_POINT ( 'NONE',  ( 0.0000000000000000000, 0.0000000000000000000, 2.500000000000000000 ) ) ;
#6 = PLANE ( 'NONE',  #90 ) ;
#7 = CARTESIAN_POINT ( 'NONE',  ( -0.1248749999999999166, 1.530043094684724646E-17, 0.7500000000000001110 ) ) ;
#8 = EDGE_LOOP ( 'NONE', ( #17, #160 ) ) ;
#9 = SURFACE_STYLE_USAGE ( .BOTH. , #192 ) ;
#10 = DIRECTION ( 'NONE',  ( 0.7071067811865499042, 8.659560562354961208E-17, -0.7071067811865451302 ) ) ;
#11 = PRESENTATION_STYLE_ASSIGNMENT (( #9 ) ) ;
#12 = DIRECTION ( 'NONE',  ( -0.0000000000000000000, -0.0000000000000000000, -1.000000000000000000 ) ) ;
#13 = DIRECTION ( 'NONE',  ( -1.000000000000000000, 0.0000000000000000000, 0.0000000000000000000 ) ) ;
#14 = CIRCLE ( 'NONE', #186, 0.1250000000000000000 ) ;
#15 = FILL_AREA_STYLE_COLOUR ( '', #168 ) ;
#16 = SURFACE_SIDE_STYLE ('',( #298 ) ) ;
#17 = ORIENTED_EDGE ( 'NONE', *, *, #180, .T. ) ;
#18 = FILL_AREA_STYLE_COLOUR ( '', #141 ) ;
#19 = EDGE_LOOP ( 'NONE', ( #216, #81, #104, #76 ) ) ;
#20 = DIMENSIONAL_EXPONENTS ( 1.000000000000000000, 0.0000000000000000000, 0.0000000000000000000, 0.0000000000000000000, 0.0000000000000000000, 0.0000000000000000000, 0.0000000000000000000 ) ;
#21 = LENGTH_MEASURE_WITH_UNIT ( LENGTH_MEASURE( 0.02539999999999999897 ), #190 );
#22 = LINE ( 'NONE', #23, #282 ) ;
#23 = CARTESIAN_POINT ( 'NONE',  ( -0.1248749999999999166, 1.529277690435257475E-17, 0.7500000000000001110 ) ) ;
#24 = AXIS2_PLACEMENT_3D ( 'NONE', #203, #12, #153 ) ;
#25 = CARTESIAN_POINT ( 'NONE',  ( 0.1248750000000000970, 0.0000000000000000000, 0.7500000000000001110 ) ) ;
#26 = CIRCLE ( 'NONE', #52, 0.1250000000000000000 ) ;
#27 = ORIENTED_EDGE ( 'NONE', *, *, #44, .T. ) ;
#28 = ORIENTED_EDGE ( 'NONE', *, *, #274, .T. ) ;
#29 = CARTESIAN_POINT ( 'NONE',  ( -0.1100000000000001948, 0.0000000000000000000, 2.500000000000000000 ) ) ;
#30 = ADVANCED_FACE ( 'NONE', ( #289 ), #212, .T. ) ;
#31 = CARTESIAN_POINT ( 'NONE',  ( -0.1249999999999999167, 0.0000000000000000000, 0.7507089102274522308 ) ) ;
#32 = VERTEX_POINT ( 'NONE', #296 ) ;
#33 = CARTESIAN_POINT ( 'NONE',  ( 0.1250000000000000000, 1.530808498934191509E-17, 2.500000000000000000 ) ) ;
#34 = VECTOR ( 'NONE', #191, 39.37007874015748143 ) ;
#35 = DIRECTION ( 'NONE',  ( 1.000000000000000000, 0.0000000000000000000, -0.0000000000000000000 ) ) ;
#36 = ORIENTED_EDGE ( 'NONE', *, *, #236, .T. ) ;
#37 = FACE_OUTER_BOUND ( 'NONE', #19, .T. ) ;
#38 = CARTESIAN_POINT ( 'NONE',  ( 0.0000000000000000000, 0.0000000000000000000, 2.500000000000000000 ) ) ;
#39 = ORIENTED_EDGE ( 'NONE', *, *, #205, .F. ) ;
#40 = LENGTH_MEASURE_WITH_UNIT ( LENGTH_MEASURE( 0.02539999999999999897 ), #114 );
#41 = SHAPE_DEFINITION_REPRESENTATION ( #211, #227 ) ;
#42 =( GEOMETRIC_REPRESENTATION_CONTEXT ( 3 ) GLOBAL_UNCERTAINTY_ASSIGNED_CONTEXT ( ( #256 ) ) GLOBAL_UNIT_ASSIGNED_CONTEXT ( ( #277, #169, #195 ) ) REPRESENTATION_CONTEXT ( 'NONE', 'WORKASPACE' ) );
#43 = AXIS2_PLACEMENT_3D ( 'NONE', #288, #204, #174 ) ;
#44 = EDGE_CURVE ( 'NONE', #106, #32, #233, .T. ) ;
#45 = DIRECTION ( 'NONE',  ( -0.1736481776669312194, 2.126576849575783625E-17, 0.9848077530122080203 ) ) ;
#46 = LINE ( 'NONE', #91, #224 ) ;
#47 = DIRECTION ( 'NONE',  ( 0.1736481776669314137, 0.0000000000000000000, 0.9848077530122077983 ) ) ;
#48 = VERTEX_POINT ( 'NONE', #175 ) ;
#49 = ORIENTED_EDGE ( 'NONE', *, *, #139, .F. ) ;
#50 = VECTOR ( 'NONE', #10, 39.37007874015748143 ) ;
#51 = DIRECTION ( 'NONE',  ( -1.224646799147353207E-16, -0.0000000000000000000, -1.000000000000000000 ) ) ;
#52 = AXIS2_PLACEMENT_3D ( 'NONE', #229, #242, #107 ) ;
#53 = ORIENTED_EDGE ( 'NONE', *, *, #44, .F. ) ;
#54 = EDGE_LOOP ( 'NONE', ( #73, #257, #197, #228 ) ) ;
#55 = VERTEX_POINT ( 'NONE', #7 ) ;
#56 =( CONVERSION_BASED_UNIT ( 'INCH', #247 ) LENGTH_UNIT ( ) NAMED_UNIT ( #20 ) );
#57 = DIRECTION ( 'NONE',  ( 1.000000000000000000, 0.0000000000000000000, 0.0000000000000000000 ) ) ;
#58 = MANIFOLD_SOLID_BREP ( 'Cut-Revolve1', #251 ) ;
#59 = VECTOR ( 'NONE', #75, 39.37007874015748143 ) ;
#60 = DIRECTION ( 'NONE',  ( -1.224646799147353207E-16, -0.0000000000000000000, -1.000000000000000000 ) ) ;
#61 = DIRECTION ( 'NONE',  ( -1.224646799147353207E-16, -0.0000000000000000000, -1.000000000000000000 ) ) ;
#62 = CONICAL_SURFACE ( 'NONE', #194, 0.1248749999999999999, 0.1745329251994339192 ) ;
#63 = ORIENTED_EDGE ( 'NONE', *, *, #274, .F. ) ;
#64 = MECHANICAL_DESIGN_GEOMETRIC_PRESENTATION_REPRESENTATION (  '', ( #243 ), #79 ) ;
#65 = EDGE_CURVE ( 'NONE', #32, #106, #276, .T. ) ;
#66 = CARTESIAN_POINT ( 'NONE',  ( -0.1250000000000000000, 0.0000000000000000000, 2.485000000000000320 ) ) ;
#67 = CARTESIAN_POINT ( 'NONE',  ( 0.1250000000000000000, 1.530808498934191509E-17, 2.485000000000000320 ) ) ;
#68 = EDGE_CURVE ( 'NONE', #48, #208, #46, .T. ) ;
#69 = PRESENTATION_LAYER_ASSIGNMENT (  '', '', ( #260 ) ) ;
#70 = CIRCLE ( 'NONE', #43, 0.1248749999999999999 ) ;
#71 = ORIENTED_EDGE ( 'NONE', *, *, #154, .F. ) ;
#72 = LINE ( 'NONE', #25, #78 ) ;
#73 = ORIENTED_EDGE ( 'NONE', *, *, #236, .F. ) ;
#74 = PRODUCT_DEFINITION ( 'UNKNOWN', '', #270, #115 ) ;
#75 = DIRECTION ( 'NONE',  ( -1.224646799147353207E-16, -0.0000000000000000000, -1.000000000000000000 ) ) ;
#76 = ORIENTED_EDGE ( 'NONE', *, *, #286, .F. ) ;
#77 = ORIENTED_EDGE ( 'NONE', *, *, #162, .T. ) ;
#78 = VECTOR ( 'NONE', #47, 39.37007874015748143 ) ;
#79 =( GEOMETRIC_REPRESENTATION_CONTEXT ( 3 ) GLOBAL_UNCERTAINTY_ASSIGNED_CONTEXT ( ( #218 ) ) GLOBAL_UNIT_ASSIGNED_CONTEXT ( ( #209, #88, #294 ) ) REPRESENTATION_CONTEXT ( 'NONE', 'WORKASPACE' ) );
#80 = CARTESIAN_POINT ( 'NONE',  ( 9.184850993605150903E-17, 0.0000000000000000000, 0.7500000000000001110 ) ) ;
#81 = ORIENTED_EDGE ( 'NONE', *, *, #222, .T. ) ;
#82 = CYLINDRICAL_SURFACE ( 'NONE', #123, 0.1248749999999999999 ) ;
#83 = EDGE_CURVE ( 'NONE', #101, #295, #14, .T. ) ;
#84 = AXIS2_PLACEMENT_3D ( 'NONE', #38, #85, #264 ) ;
#85 = DIRECTION ( 'NONE',  ( 0.0000000000000000000, 0.0000000000000000000, -1.000000000000000000 ) ) ;
#86 = EDGE_LOOP ( 'NONE', ( #39, #173, #271, #112 ) ) ;
#87 = SURFACE_STYLE_USAGE ( .BOTH. , #16 ) ;
#88 =( NAMED_UNIT ( * ) PLANE_ANGLE_UNIT ( ) SI_UNIT ( $, .RADIAN. ) );
#89 = VECTOR ( 'NONE', #279, 39.37007874015748143 ) ;
#90 = AXIS2_PLACEMENT_3D ( 'NONE', #5, #152, #35 ) ;
#91 = CARTESIAN_POINT ( 'NONE',  ( 0.1248749999999999999, 1.529277690435257475E-17, -1.529277690435257475E-17 ) ) ;
#92 = SURFACE_STYLE_FILL_AREA ( #164 ) ;
#93 = ADVANCED_FACE ( 'NONE', ( #121 ), #147, .T. ) ;
#94 = DIRECTION ( 'NONE',  ( -1.000000000000000000, 0.0000000000000000000, 0.0000000000000000000 ) ) ;
#95 = DIRECTION ( 'NONE',  ( -1.224646799147353207E-16, -0.0000000000000000000, -1.000000000000000000 ) ) ;
#96 = AXIS2_PLACEMENT_3D ( 'NONE', #172, #51, #198 ) ;
#97 = DIRECTION ( 'NONE',  ( -1.000000000000000000, 0.0000000000000000000, 0.0000000000000000000 ) ) ;
#98 = DIRECTION ( 'NONE',  ( 1.000000000000000000, 0.0000000000000000000, 0.0000000000000000000 ) ) ;
#99 = EDGE_CURVE ( 'NONE', #145, #295, #221, .T. ) ;
#100 = DIRECTION ( 'NONE',  ( 1.000000000000000000, 0.0000000000000000000, 0.0000000000000000000 ) ) ;
#101 = VERTEX_POINT ( 'NONE', #146 ) ;
#102 = VERTEX_POINT ( 'NONE', #67 ) ;
#103 = CYLINDRICAL_SURFACE ( 'NONE', #24, 0.1250000000000000000 ) ;
#104 = ORIENTED_EDGE ( 'NONE', *, *, #170, .T. ) ;
#105 = AXIS2_PLACEMENT_3D ( 'NONE', #109, #200, #13 ) ;
#106 = VERTEX_POINT ( 'NONE', #259 ) ;
#107 = DIRECTION ( 'NONE',  ( 1.000000000000000000, 0.0000000000000000000, 0.0000000000000000000 ) ) ;
#108 = PRODUCT_RELATED_PRODUCT_CATEGORY ( 'part', '', ( #269 ) ) ;
#109 = CARTESIAN_POINT ( 'NONE',  ( 0.0000000000000000000, 0.0000000000000000000, 2.500000000000000000 ) ) ;
#110 = FACE_OUTER_BOUND ( 'NONE', #125, .T. ) ;
#111 = CYLINDRICAL_SURFACE ( 'NONE', #130, 0.1248749999999999999 ) ;
#112 = ORIENTED_EDGE ( 'NONE', *, *, #83, .F. ) ;
#113 = FILL_AREA_STYLE ('',( #15 ) ) ;
#114 =( LENGTH_UNIT ( ) NAMED_UNIT ( * ) SI_UNIT ( $, .METRE. ) );
#115 = PRODUCT_DEFINITION_CONTEXT ( 'detailed design', #239, 'design' ) ;
#116 = ORIENTED_EDGE ( 'NONE', *, *, #205, .T. ) ;
#117 = AXIS2_PLACEMENT_3D ( 'NONE', #140, #148, #124 ) ;
#118 = DIRECTION ( 'NONE',  ( 1.224646799147353207E-16, 0.0000000000000000000, 1.000000000000000000 ) ) ;
#119 = EDGE_CURVE ( 'NONE', #48, #101, #72, .T. ) ;
#120 = DIRECTION ( 'NONE',  ( 1.000000000000000000, 0.0000000000000000000, 0.0000000000000000000 ) ) ;
#121 = FACE_OUTER_BOUND ( 'NONE', #54, .T. ) ;
#122 = CARTESIAN_POINT ( 'NONE',  ( 0.0000000000000000000, 0.0000000000000000000, 2.485000000000000320 ) ) ;
#123 = AXIS2_PLACEMENT_3D ( 'NONE', #149, #60, #134 ) ;
#124 = DIRECTION ( 'NONE',  ( 1.000000000000000000, 0.0000000000000000000, 0.0000000000000000000 ) ) ;
#125 = EDGE_LOOP ( 'NONE', ( #202, #116, #63, #241 ) ) ;
#126 = FACE_OUTER_BOUND ( 'NONE', #8, .T. ) ;
#127 =( NAMED_UNIT ( * ) SI_UNIT ( $, .STERADIAN. ) SOLID_ANGLE_UNIT ( ) );
#128 = ADVANCED_FACE ( 'NONE', ( #126 ), #143, .F. ) ;
#129 = AXIS2_PLACEMENT_3D ( 'NONE', #213, #215, #94 ) ;
#130 = AXIS2_PLACEMENT_3D ( 'NONE', #281, #206, #293 ) ;
#131 = DIRECTION ( 'NONE',  ( -1.224646799147353207E-16, -0.0000000000000000000, -1.000000000000000000 ) ) ;
#132 =( LENGTH_UNIT ( ) NAMED_UNIT ( * ) SI_UNIT ( $, .METRE. ) );
#133 = EDGE_LOOP ( 'NONE', ( #284, #220, #28, #136 ) ) ;
#134 = DIRECTION ( 'NONE',  ( -1.000000000000000000, 0.0000000000000000000, 1.224646799147353454E-16 ) ) ;
#135 = EDGE_CURVE ( 'NONE', #32, #145, #255, .T. ) ;
#136 = ORIENTED_EDGE ( 'NONE', *, *, #119, .F. ) ;
#137 = APPLICATION_PROTOCOL_DEFINITION ( 'draft international standard', 'automotive_design', 1998, #239 ) ;
#138 = DIRECTION ( 'NONE',  ( 1.000000000000000000, 0.0000000000000000000, 0.0000000000000000000 ) ) ;
#139 = EDGE_CURVE ( 'NONE', #145, #102, #248, .T. ) ;
#140 = CARTESIAN_POINT ( 'NONE',  ( 0.0000000000000000000, 0.0000000000000000000, 2.500000000000000000 ) ) ;
#141 = COLOUR_RGB ( '',0.7921568627450980005, 0.8196078431372548767, 0.9333333333333333481 ) ;
#142 = DIRECTION ( 'NONE',  ( 1.000000000000000000, 0.0000000000000000000, 0.0000000000000000000 ) ) ;
#143 = PLANE ( 'NONE',  #252 ) ;
#144 = UNCERTAINTY_MEASURE_WITH_UNIT (LENGTH_MEASURE( 1.000000000000000082E-05 ), #56, 'distance_accuracy_value', 'NONE');
#145 = VERTEX_POINT ( 'NONE', #66 ) ;
#146 = CARTESIAN_POINT ( 'NONE',  ( 0.1250000000000000833, 1.530808498934192433E-17, 0.7507089102274522308 ) ) ;
#147 = CONICAL_SURFACE ( 'NONE', #129, 0.1100000000000001948, 0.7853981633974517207 ) ;
#148 = DIRECTION ( 'NONE',  ( 0.0000000000000000000, 0.0000000000000000000, 1.000000000000000000 ) ) ;
#149 = CARTESIAN_POINT ( 'NONE',  ( 0.0000000000000000000, 0.0000000000000000000, 0.0000000000000000000 ) ) ;
#150 = ADVANCED_FACE ( 'NONE', ( #165 ), #62, .T. ) ;
#151 = VERTEX_POINT ( 'NONE', #1 ) ;
#152 = DIRECTION ( 'NONE',  ( 0.0000000000000000000, 0.0000000000000000000, 1.000000000000000000 ) ) ;
#153 = DIRECTION ( 'NONE',  ( -1.000000000000000000, 0.0000000000000000000, 0.0000000000000000000 ) ) ;
#154 = EDGE_CURVE ( 'NONE', #55, #295, #22, .T. ) ;
#155 = FACE_OUTER_BOUND ( 'NONE', #183, .T. ) ;
#156 = DIRECTION ( 'NONE',  ( -1.000000000000000000, 0.0000000000000000000, 0.0000000000000000000 ) ) ;
#157 = ORIENTED_EDGE ( 'NONE', *, *, #180, .F. ) ;
#158 = AXIS2_PLACEMENT_3D ( 'NONE', #299, #95, #97 ) ;
#159 = APPLICATION_PROTOCOL_DEFINITION ( 'draft international standard', 'automotive_design', 1998, #210 ) ;
#160 = ORIENTED_EDGE ( 'NONE', *, *, #286, .T. ) ;
#161 = CARTESIAN_POINT ( 'NONE',  ( 0.0000000000000000000, 0.0000000000000000000, 0.0000000000000000000 ) ) ;
#162 = EDGE_CURVE ( 'NONE', #55, #48, #167, .T. ) ;
#163 = AXIS2_PLACEMENT_3D ( 'NONE', #182, #2, #98 ) ;
#164 = FILL_AREA_STYLE ('',( #18 ) ) ;
#165 = FACE_OUTER_BOUND ( 'NONE', #133, .T. ) ;
#166 = DIRECTION ( 'NONE',  ( 0.0000000000000000000, 0.0000000000000000000, 1.000000000000000000 ) ) ;
#167 = CIRCLE ( 'NONE', #158, 0.1248749999999999999 ) ;
#168 = COLOUR_RGB ( '',0.7921568627450980005, 0.8196078431372548767, 0.9333333333333333481 ) ;
#169 =( NAMED_UNIT ( * ) PLANE_ANGLE_UNIT ( ) SI_UNIT ( $, .RADIAN. ) );
#170 = EDGE_CURVE ( 'NONE', #55, #151, #3, .T. ) ;
#171 = DIRECTION ( 'NONE',  ( 1.000000000000000000, 0.0000000000000000000, -0.0000000000000000000 ) ) ;
#172 = CARTESIAN_POINT ( 'NONE',  ( 1.872825028598994811E-33, 0.0000000000000000000, 1.529277690435257475E-17 ) ) ;
#173 = ORIENTED_EDGE ( 'NONE', *, *, #231, .T. ) ;
#174 = DIRECTION ( 'NONE',  ( -1.000000000000000000, 0.0000000000000000000, 1.224646799147353454E-16 ) ) ;
#175 = CARTESIAN_POINT ( 'NONE',  ( 0.1248750000000000970, 0.0000000000000000000, 0.7500000000000001110 ) ) ;
#176 = EDGE_LOOP ( 'NONE', ( #285, #27 ) ) ;
#177 = LINE ( 'NONE', #33, #290 ) ;
#178 = FACE_OUTER_BOUND ( 'NONE', #86, .T. ) ;
#179 =( NAMED_UNIT ( * ) PLANE_ANGLE_UNIT ( ) SI_UNIT ( $, .RADIAN. ) );
#180 = EDGE_CURVE ( 'NONE', #151, #208, #232, .T. ) ;
#181 = CARTESIAN_POINT ( 'NONE',  ( 0.1100000000000001948, 1.347111479062090784E-17, 2.500000000000000000 ) ) ;
#182 = CARTESIAN_POINT ( 'NONE',  ( 0.0000000000000000000, 0.0000000000000000000, 2.500000000000000000 ) ) ;
#183 = EDGE_LOOP ( 'NONE', ( #77, #4, #157, #263 ) ) ;
#184 = ADVANCED_FACE ( 'NONE', ( #37 ), #82, .T. ) ;
#185 = PRESENTATION_STYLE_ASSIGNMENT (( #87 ) ) ;
#186 = AXIS2_PLACEMENT_3D ( 'NONE', #234, #217, #258 ) ;
#187 = CIRCLE ( 'NONE', #261, 0.1248749999999999999 ) ;
#188 = CARTESIAN_POINT ( 'NONE',  ( 0.0000000000000000000, 0.0000000000000000000, 0.0000000000000000000 ) ) ;
#189 = DIMENSIONAL_EXPONENTS ( 1.000000000000000000, 0.0000000000000000000, 0.0000000000000000000, 0.0000000000000000000, 0.0000000000000000000, 0.0000000000000000000, 0.0000000000000000000 ) ;
#190 =( LENGTH_UNIT ( ) NAMED_UNIT ( * ) SI_UNIT ( $, .METRE. ) );
#191 = DIRECTION ( 'NONE',  ( -0.7071067811865499042, 0.0000000000000000000, -0.7071067811865451302 ) ) ;
#192 = SURFACE_SIDE_STYLE ('',( #92 ) ) ;
#193 = ADVANCED_FACE ( 'NONE', ( #110 ), #103, .T. ) ;
#194 = AXIS2_PLACEMENT_3D ( 'NONE', #235, #253, #142 ) ;
#195 =( NAMED_UNIT ( * ) SI_UNIT ( $, .STERADIAN. ) SOLID_ANGLE_UNIT ( ) );
#196 = EDGE_LOOP ( 'NONE', ( #71, #201, #223, #199 ) ) ;
#197 = ORIENTED_EDGE ( 'NONE', *, *, #135, .T. ) ;
#198 = DIRECTION ( 'NONE',  ( -1.000000000000000000, 0.0000000000000000000, 1.224646799147353454E-16 ) ) ;
#199 = ORIENTED_EDGE ( 'NONE', *, *, #83, .T. ) ;
#200 = DIRECTION ( 'NONE',  ( -0.0000000000000000000, -0.0000000000000000000, -1.000000000000000000 ) ) ;
#201 = ORIENTED_EDGE ( 'NONE', *, *, #222, .F. ) ;
#202 = ORIENTED_EDGE ( 'NONE', *, *, #139, .T. ) ;
#203 = CARTESIAN_POINT ( 'NONE',  ( 0.0000000000000000000, 0.0000000000000000000, 2.500000000000000000 ) ) ;
#204 = DIRECTION ( 'NONE',  ( -1.224646799147353207E-16, -0.0000000000000000000, -1.000000000000000000 ) ) ;
#205 = EDGE_CURVE ( 'NONE', #102, #101, #177, .T. ) ;
#206 = DIRECTION ( 'NONE',  ( -1.224646799147353207E-16, -0.0000000000000000000, -1.000000000000000000 ) ) ;
#207 = CARTESIAN_POINT ( 'NONE',  ( 9.184850993605150903E-17, 0.0000000000000000000, 0.7500000000000001110 ) ) ;
#208 = VERTEX_POINT ( 'NONE', #265 ) ;
#209 =( CONVERSION_BASED_UNIT ( 'INCH', #40 ) LENGTH_UNIT ( ) NAMED_UNIT ( #273 ) );
#210 = APPLICATION_CONTEXT ( 'automotive_design' ) ;
#211 = PRODUCT_DEFINITION_SHAPE ( 'NONE', 'NONE',  #74 ) ;
#212 = CONICAL_SURFACE ( 'NONE', #238, 0.1248749999999999999, 0.1745329251994339192 ) ;
#213 = CARTESIAN_POINT ( 'NONE',  ( 0.0000000000000000000, 0.0000000000000000000, 2.500000000000000000 ) ) ;
#214 = ADVANCED_FACE ( 'NONE', ( #246 ), #6, .T. ) ;
#215 = DIRECTION ( 'NONE',  ( 0.0000000000000000000, 0.0000000000000000000, -1.000000000000000000 ) ) ;
#216 = ORIENTED_EDGE ( 'NONE', *, *, #68, .F. ) ;
#217 = DIRECTION ( 'NONE',  ( -1.224646799147353207E-16, -0.0000000000000000000, -1.000000000000000000 ) ) ;
#218 = UNCERTAINTY_MEASURE_WITH_UNIT (LENGTH_MEASURE( 1.000000000000000082E-05 ), #209, 'distance_accuracy_value', 'NONE');
#219 = CONICAL_SURFACE ( 'NONE', #84, 0.1100000000000001948, 0.7853981633974517207 ) ;
#220 = ORIENTED_EDGE ( 'NONE', *, *, #154, .T. ) ;
#221 = LINE ( 'NONE', #275, #89 ) ;
#222 = EDGE_CURVE ( 'NONE', #48, #55, #187, .T. ) ;
#223 = ORIENTED_EDGE ( 'NONE', *, *, #119, .T. ) ;
#224 = VECTOR ( 'NONE', #240, 39.37007874015748143 ) ;
#225 = CIRCLE ( 'NONE', #230, 0.1250000000000000000 ) ;
#226 = LINE ( 'NONE', #181, #50 ) ;
#227 = ADVANCED_BREP_SHAPE_REPRESENTATION ( 'Micro_EMS-250-4X', ( #58, #292 ), #297 ) ;
#228 = ORIENTED_EDGE ( 'NONE', *, *, #231, .F. ) ;
#229 = CARTESIAN_POINT ( 'NONE',  ( 0.0000000000000000000, 0.0000000000000000000, 2.485000000000000320 ) ) ;
#230 = AXIS2_PLACEMENT_3D ( 'NONE', #287, #61, #57 ) ;
#231 = EDGE_CURVE ( 'NONE', #102, #145, #26, .T. ) ;
#232 = CIRCLE ( 'NONE', #96, 0.1248749999999999999 ) ;
#233 = CIRCLE ( 'NONE', #163, 0.1100000000000001948 ) ;
#234 = CARTESIAN_POINT ( 'NONE',  ( 9.193532640014472135E-17, 0.0000000000000000000, 0.7507089102274522308 ) ) ;
#235 = CARTESIAN_POINT ( 'NONE',  ( 9.184850993605150903E-17, 0.0000000000000000000, 0.7500000000000001110 ) ) ;
#236 = EDGE_CURVE ( 'NONE', #106, #102, #226, .T. ) ;
#237 = CARTESIAN_POINT ( 'NONE',  ( -0.1248749999999999999, 0.0000000000000000000, 1.529277690435257475E-17 ) ) ;
#238 = AXIS2_PLACEMENT_3D ( 'NONE', #207, #118, #120 ) ;
#239 = APPLICATION_CONTEXT ( 'automotive_design' ) ;
#240 = DIRECTION ( 'NONE',  ( -1.224646799147353207E-16, -0.0000000000000000000, -1.000000000000000000 ) ) ;
#241 = ORIENTED_EDGE ( 'NONE', *, *, #99, .F. ) ;
#242 = DIRECTION ( 'NONE',  ( 0.0000000000000000000, 0.0000000000000000000, -1.000000000000000000 ) ) ;
#243 = STYLED_ITEM ( 'NONE', ( #185 ), #227 ) ;
#244 = ADVANCED_FACE ( 'NONE', ( #178 ), #268, .T. ) ;
#245 = DIRECTION ( 'NONE',  ( -0.0000000000000000000, -0.0000000000000000000, -1.000000000000000000 ) ) ;
#246 = FACE_OUTER_BOUND ( 'NONE', #176, .T. ) ;
#247 = LENGTH_MEASURE_WITH_UNIT ( LENGTH_MEASURE( 0.02539999999999999897 ), #132 );
#248 = CIRCLE ( 'NONE', #254, 0.1250000000000000000 ) ;
#249 = DIRECTION ( 'NONE',  ( 0.0000000000000000000, 0.0000000000000000000, 1.000000000000000000 ) ) ;
#250 = PRODUCT_CONTEXT ( 'NONE', #210, 'mechanical' ) ;
#251 = CLOSED_SHELL ( 'NONE', ( #267, #150, #291, #193, #244, #214, #93, #30, #184, #128 ) ) ;
#252 = AXIS2_PLACEMENT_3D ( 'NONE', #188, #166, #171 ) ;
#253 = DIRECTION ( 'NONE',  ( 1.224646799147353207E-16, 0.0000000000000000000, 1.000000000000000000 ) ) ;
#254 = AXIS2_PLACEMENT_3D ( 'NONE', #122, #278, #100 ) ;
#255 = LINE ( 'NONE', #29, #34 ) ;
#256 = UNCERTAINTY_MEASURE_WITH_UNIT (LENGTH_MEASURE( 1.000000000000000082E-05 ), #277, 'distance_accuracy_value', 'NONE');
#257 = ORIENTED_EDGE ( 'NONE', *, *, #65, .F. ) ;
#258 = DIRECTION ( 'NONE',  ( 1.000000000000000000, 0.0000000000000000000, 0.0000000000000000000 ) ) ;
#259 = CARTESIAN_POINT ( 'NONE',  ( 0.1100000000000001948, 1.438959988998141146E-17, 2.500000000000000000 ) ) ;
#260 = STYLED_ITEM ( 'NONE', ( #11 ), #58 ) ;
#261 = AXIS2_PLACEMENT_3D ( 'NONE', #80, #131, #156 ) ;
#262 = EDGE_LOOP ( 'NONE', ( #53, #36, #49, #280 ) ) ;
#263 = ORIENTED_EDGE ( 'NONE', *, *, #170, .F. ) ;
#264 = DIRECTION ( 'NONE',  ( -1.000000000000000000, 0.0000000000000000000, 0.0000000000000000000 ) ) ;
#265 = CARTESIAN_POINT ( 'NONE',  ( 0.1248749999999999999, 1.529277690435257475E-17, 0.0000000000000000000 ) ) ;
#266 = FACE_OUTER_BOUND ( 'NONE', #262, .T. ) ;
#267 = ADVANCED_FACE ( 'NONE', ( #155 ), #111, .T. ) ;
#268 = CYLINDRICAL_SURFACE ( 'NONE', #105, 0.1250000000000000000 ) ;
#269 = PRODUCT ( 'Micro_EMS-250-4X', 'Micro_EMS-250-4X', '', ( #250 ) ) ;
#270 = PRODUCT_DEFINITION_FORMATION_WITH_SPECIFIED_SOURCE ( 'ANY', '', #269, .NOT_KNOWN. ) ;
#271 = ORIENTED_EDGE ( 'NONE', *, *, #99, .T. ) ;
#272 = MECHANICAL_DESIGN_GEOMETRIC_PRESENTATION_REPRESENTATION (  '', ( #260 ), #42 ) ;
#273 = DIMENSIONAL_EXPONENTS ( 1.000000000000000000, 0.0000000000000000000, 0.0000000000000000000, 0.0000000000000000000, 0.0000000000000000000, 0.0000000000000000000, 0.0000000000000000000 ) ;
#274 = EDGE_CURVE ( 'NONE', #295, #101, #225, .T. ) ;
#275 = CARTESIAN_POINT ( 'NONE',  ( -0.1250000000000000000, 0.0000000000000000000, 2.500000000000000000 ) ) ;
#276 = CIRCLE ( 'NONE', #117, 0.1100000000000001948 ) ;
#277 =( CONVERSION_BASED_UNIT ( 'INCH', #21 ) LENGTH_UNIT ( ) NAMED_UNIT ( #189 ) );
#278 = DIRECTION ( 'NONE',  ( 0.0000000000000000000, 0.0000000000000000000, -1.000000000000000000 ) ) ;
#279 = DIRECTION ( 'NONE',  ( -0.0000000000000000000, -0.0000000000000000000, -1.000000000000000000 ) ) ;
#280 = ORIENTED_EDGE ( 'NONE', *, *, #135, .F. ) ;
#281 = CARTESIAN_POINT ( 'NONE',  ( 0.0000000000000000000, 0.0000000000000000000, 0.0000000000000000000 ) ) ;
#282 = VECTOR ( 'NONE', #45, 39.37007874015747433 ) ;
#283 = PRESENTATION_LAYER_ASSIGNMENT (  '', '', ( #243 ) ) ;
#284 = ORIENTED_EDGE ( 'NONE', *, *, #162, .F. ) ;
#285 = ORIENTED_EDGE ( 'NONE', *, *, #65, .T. ) ;
#286 = EDGE_CURVE ( 'NONE', #208, #151, #70, .T. ) ;
#287 = CARTESIAN_POINT ( 'NONE',  ( 9.193532640014472135E-17, 0.0000000000000000000, 0.7507089102274522308 ) ) ;
#288 = CARTESIAN_POINT ( 'NONE',  ( 1.872825028598994811E-33, 0.0000000000000000000, 1.529277690435257475E-17 ) ) ;
#289 = FACE_OUTER_BOUND ( 'NONE', #196, .T. ) ;
#290 = VECTOR ( 'NONE', #245, 39.37007874015748143 ) ;
#291 = ADVANCED_FACE ( 'NONE', ( #266 ), #219, .T. ) ;
#292 = AXIS2_PLACEMENT_3D ( 'NONE', #161, #249, #138 ) ;
#293 = DIRECTION ( 'NONE',  ( -1.000000000000000000, 0.0000000000000000000, 1.224646799147353454E-16 ) ) ;
#294 =( NAMED_UNIT ( * ) SI_UNIT ( $, .STERADIAN. ) SOLID_ANGLE_UNIT ( ) );
#295 = VERTEX_POINT ( 'NONE', #31 ) ;
#296 = CARTESIAN_POINT ( 'NONE',  ( -0.1100000000000001948, 0.0000000000000000000, 2.500000000000000000 ) ) ;
#297 =( GEOMETRIC_REPRESENTATION_CONTEXT ( 3 ) GLOBAL_UNCERTAINTY_ASSIGNED_CONTEXT ( ( #144 ) ) GLOBAL_UNIT_ASSIGNED_CONTEXT ( ( #56, #179, #127 ) ) REPRESENTATION_CONTEXT ( 'NONE', 'WORKASPACE' ) );
#298 = SURFACE_STYLE_FILL_AREA ( #113 ) ;
#299 = CARTESIAN_POINT ( 'NONE',  ( 9.184850993605150903E-17, 0.0000000000000000000, 0.7500000000000001110 ) ) ;
ENDSEC;
END-ISO-10303-21;
