ISO-10303-21;
HEADER;
FILE_DESCRIPTION (( 'STEP AP214' ),
    '1' );
FILE_NAME ('Micro_RTC-125-1X.STEP',
    '2021-09-03T18:03:28',
    ( '' ),
    ( '' ),
    'SwSTEP 2.0',
    'SolidWorks 2020',
    '' );
FILE_SCHEMA (( 'AUTOMOTIVE_DESIGN' ));
ENDSEC;

DATA;
#1 = LENGTH_MEASURE_WITH_UNIT ( LENGTH_MEASURE( 0.02539999999999999897 ), #241 );
#2 = AXIS2_PLACEMENT_3D ( 'NONE', #216, #86, #24 ) ;
#3 = SURFACE_STYLE_FILL_AREA ( #28 ) ;
#4 = COLOUR_RGB ( '',0.7921568627450980005, 0.8196078431372548767, 0.9333333333333333481 ) ;
#5 = VERTEX_POINT ( 'NONE', #121 ) ;
#6 = DIRECTION ( 'NONE',  ( 0.0000000000000000000, 0.0000000000000000000, 1.000000000000000000 ) ) ;
#7 = ORIENTED_EDGE ( 'NONE', *, *, #94, .T. ) ;
#8 = EDGE_CURVE ( 'NONE', #192, #230, #53, .T. ) ;
#9 =( LENGTH_UNIT ( ) NAMED_UNIT ( * ) SI_UNIT ( $, .METRE. ) );
#10 = AXIS2_PLACEMENT_3D ( 'NONE', #222, #162, #224 ) ;
#11 = PLANE ( 'NONE',  #180 ) ;
#12 = LINE ( 'NONE', #91, #174 ) ;
#13 = CARTESIAN_POINT ( 'NONE',  ( -0.003999999999999999216, 4.071950607164948101E-18, 0.0000000000000000000 ) ) ;
#14 = AXIS2_PLACEMENT_3D ( 'NONE', #46, #6, #156 ) ;
#15 = EDGE_LOOP ( 'NONE', ( #209, #115 ) ) ;
#16 = CARTESIAN_POINT ( 'NONE',  ( 0.0000000000000000000, 0.0000000000000000000, 1.500000000000000222 ) ) ;
#17 = CARTESIAN_POINT ( 'NONE',  ( 0.06249999999999997918, 7.654042494670954463E-18, 1.500000000000000222 ) ) ;
#18 = EDGE_CURVE ( 'NONE', #227, #188, #172, .T. ) ;
#19 = ORIENTED_EDGE ( 'NONE', *, *, #89, .F. ) ;
#20 = ORIENTED_EDGE ( 'NONE', *, *, #193, .T. ) ;
#21 = CARTESIAN_POINT ( 'NONE',  ( 0.0000000000000000000, 0.0000000000000000000, 0.0000000000000000000 ) ) ;
#22 = ORIENTED_EDGE ( 'NONE', *, *, #193, .F. ) ;
#23 = PRODUCT_DEFINITION_FORMATION_WITH_SPECIFIED_SOURCE ( 'ANY', '', #130, .NOT_KNOWN. ) ;
#24 = DIRECTION ( 'NONE',  ( 1.000000000000000000, 0.0000000000000000000, 0.0000000000000000000 ) ) ;
#25 = ADVANCED_FACE ( 'NONE', ( #196 ), #144, .T. ) ;
#26 = VERTEX_POINT ( 'NONE', #170 ) ;
#27 = UNCERTAINTY_MEASURE_WITH_UNIT (LENGTH_MEASURE( 1.000000000000000082E-05 ), #39, 'distance_accuracy_value', 'NONE');
#28 = FILL_AREA_STYLE ('',( #123 ) ) ;
#29 =( CONVERSION_BASED_UNIT ( 'INCH', #200 ) LENGTH_UNIT ( ) NAMED_UNIT ( #177 ) );
#30 = CARTESIAN_POINT ( 'NONE',  ( 0.0000000000000000000, 0.0000000000000000000, 0.0000000000000000000 ) ) ;
#31 = VECTOR ( 'NONE', #247, 39.37007874015748143 ) ;
#32 = FACE_OUTER_BOUND ( 'NONE', #85, .T. ) ;
#33 = CARTESIAN_POINT ( 'NONE',  ( -0.04750000000000063893, 0.0000000000000000000, 1.500000000000000222 ) ) ;
#34 = ORIENTED_EDGE ( 'NONE', *, *, #199, .F. ) ;
#35 = CARTESIAN_POINT ( 'NONE',  ( -0.06249999999999997918, 0.0000000000000000000, 0.2183249722427783590 ) ) ;
#36 = ORIENTED_EDGE ( 'NONE', *, *, #161, .F. ) ;
#37 = LINE ( 'NONE', #17, #31 ) ;
#38 = ORIENTED_EDGE ( 'NONE', *, *, #245, .F. ) ;
#39 =( CONVERSION_BASED_UNIT ( 'INCH', #195 ) LENGTH_UNIT ( ) NAMED_UNIT ( #49 ) );
#40 = EDGE_LOOP ( 'NONE', ( #34, #19, #149, #65 ) ) ;
#41 = AXIS2_PLACEMENT_3D ( 'NONE', #238, #69, #236 ) ;
#42 = APPLICATION_PROTOCOL_DEFINITION ( 'draft international standard', 'automotive_design', 1998, #237 ) ;
#43 = PRESENTATION_LAYER_ASSIGNMENT (  '', '', ( #151 ) ) ;
#44 = ADVANCED_FACE ( 'NONE', ( #173 ), #139, .T. ) ;
#45 = DIRECTION ( 'NONE',  ( 0.0000000000000000000, 0.0000000000000000000, -1.000000000000000000 ) ) ;
#46 = CARTESIAN_POINT ( 'NONE',  ( 0.0000000000000000000, 0.0000000000000000000, 0.0000000000000000000 ) ) ;
#47 = PRODUCT_DEFINITION_CONTEXT ( 'detailed design', #237, 'design' ) ;
#48 = CARTESIAN_POINT ( 'NONE',  ( -0.003999999999999999216, 4.898587196589411612E-19, 0.0000000000000000000 ) ) ;
#49 = DIMENSIONAL_EXPONENTS ( 1.000000000000000000, 0.0000000000000000000, 0.0000000000000000000, 0.0000000000000000000, 0.0000000000000000000, 0.0000000000000000000, 0.0000000000000000000 ) ;
#50 = EDGE_CURVE ( 'NONE', #230, #192, #102, .T. ) ;
#51 = DIRECTION ( 'NONE',  ( 1.000000000000000000, 0.0000000000000000000, 0.0000000000000000000 ) ) ;
#52 = LINE ( 'NONE', #33, #207 ) ;
#53 = CIRCLE ( 'NONE', #189, 0.06249999999999997918 ) ;
#54 = CARTESIAN_POINT ( 'NONE',  ( 0.0000000000000000000, 0.0000000000000000000, 1.500000000000000222 ) ) ;
#55 = AXIS2_PLACEMENT_3D ( 'NONE', #185, #181, #131 ) ;
#56 = FACE_OUTER_BOUND ( 'NONE', #15, .T. ) ;
#57 = DIRECTION ( 'NONE',  ( 1.000000000000000000, 0.0000000000000000000, -0.0000000000000000000 ) ) ;
#58 = ORIENTED_EDGE ( 'NONE', *, *, #94, .F. ) ;
#59 = DIRECTION ( 'NONE',  ( -1.000000000000000000, 0.0000000000000000000, 0.0000000000000000000 ) ) ;
#60 = ORIENTED_EDGE ( 'NONE', *, *, #119, .T. ) ;
#61 = ORIENTED_EDGE ( 'NONE', *, *, #63, .F. ) ;
#62 = PRODUCT_CONTEXT ( 'NONE', #171, 'mechanical' ) ;
#63 = EDGE_CURVE ( 'NONE', #186, #192, #157, .T. ) ;
#64 = DIRECTION ( 'NONE',  ( -0.2588190451025217387, 3.169619151431776651E-17, 0.9659258262890679791 ) ) ;
#65 = ORIENTED_EDGE ( 'NONE', *, *, #122, .F. ) ;
#66 = ORIENTED_EDGE ( 'NONE', *, *, #166, .F. ) ;
#67 = MANIFOLD_SOLID_BREP ( 'Cut-Revolve1', #150 ) ;
#68 = STYLED_ITEM ( 'NONE', ( #169 ), #159 ) ;
#69 = DIRECTION ( 'NONE',  ( -0.0000000000000000000, -0.0000000000000000000, -1.000000000000000000 ) ) ;
#70 = PRODUCT_DEFINITION ( 'UNKNOWN', '', #23, #47 ) ;
#71 = FACE_OUTER_BOUND ( 'NONE', #40, .T. ) ;
#72 = CARTESIAN_POINT ( 'NONE',  ( 0.0000000000000000000, 0.0000000000000000000, 0.0000000000000000000 ) ) ;
#73 = AXIS2_PLACEMENT_3D ( 'NONE', #30, #228, #109 ) ;
#74 = CARTESIAN_POINT ( 'NONE',  ( 0.0000000000000000000, 0.0000000000000000000, 1.500000000000000222 ) ) ;
#75 = DIRECTION ( 'NONE',  ( -0.0000000000000000000, -0.0000000000000000000, -1.000000000000000000 ) ) ;
#76 = SHAPE_DEFINITION_REPRESENTATION ( #246, #159 ) ;
#77 = CIRCLE ( 'NONE', #96, 0.003999999999999999216 ) ;
#78 = EDGE_LOOP ( 'NONE', ( #22, #218, #248, #176 ) ) ;
#79 = SURFACE_SIDE_STYLE ('',( #98 ) ) ;
#80 = SURFACE_STYLE_USAGE ( .BOTH. , #79 ) ;
#81 = AXIS2_PLACEMENT_3D ( 'NONE', #21, #82, #137 ) ;
#82 = DIRECTION ( 'NONE',  ( 0.0000000000000000000, 0.0000000000000000000, 1.000000000000000000 ) ) ;
#83 =( NAMED_UNIT ( * ) SI_UNIT ( $, .STERADIAN. ) SOLID_ANGLE_UNIT ( ) );
#84 = DIMENSIONAL_EXPONENTS ( 1.000000000000000000, 0.0000000000000000000, 0.0000000000000000000, 0.0000000000000000000, 0.0000000000000000000, 0.0000000000000000000, 0.0000000000000000000 ) ;
#85 = EDGE_LOOP ( 'NONE', ( #38, #219, #7, #167 ) ) ;
#86 = DIRECTION ( 'NONE',  ( 0.0000000000000000000, 0.0000000000000000000, 1.000000000000000000 ) ) ;
#87 = EDGE_LOOP ( 'NONE', ( #229, #20 ) ) ;
#88 =( GEOMETRIC_REPRESENTATION_CONTEXT ( 3 ) GLOBAL_UNCERTAINTY_ASSIGNED_CONTEXT ( ( #154 ) ) GLOBAL_UNIT_ASSIGNED_CONTEXT ( ( #29, #141, #83 ) ) REPRESENTATION_CONTEXT ( 'NONE', 'WORKASPACE' ) );
#89 = EDGE_CURVE ( 'NONE', #26, #178, #168, .T. ) ;
#90 = LINE ( 'NONE', #183, #184 ) ;
#91 = CARTESIAN_POINT ( 'NONE',  ( 0.003999999999999999216, 0.0000000000000000000, 0.0000000000000000000 ) ) ;
#92 = CARTESIAN_POINT ( 'NONE',  ( 0.06249999999999997918, 7.654042494670954463E-18, 1.485000000000000764 ) ) ;
#93 = CARTESIAN_POINT ( 'NONE',  ( 0.0000000000000000000, 0.0000000000000000000, 0.0000000000000000000 ) ) ;
#94 = EDGE_CURVE ( 'NONE', #227, #192, #103, .T. ) ;
#95 = EDGE_LOOP ( 'NONE', ( #211, #107, #125, #58 ) ) ;
#96 = AXIS2_PLACEMENT_3D ( 'NONE', #93, #165, #133 ) ;
#97 = ORIENTED_EDGE ( 'NONE', *, *, #18, .F. ) ;
#98 = SURFACE_STYLE_FILL_AREA ( #118 ) ;
#99 =( CONVERSION_BASED_UNIT ( 'INCH', #1 ) LENGTH_UNIT ( ) NAMED_UNIT ( #84 ) );
#100 = FILL_AREA_STYLE_COLOUR ( '', #105 ) ;
#101 = ADVANCED_FACE ( 'NONE', ( #182 ), #11, .F. ) ;
#102 = CIRCLE ( 'NONE', #117, 0.06249999999999997918 ) ;
#103 = LINE ( 'NONE', #234, #175 ) ;
#104 = DIRECTION ( 'NONE',  ( -0.0000000000000000000, -0.0000000000000000000, -1.000000000000000000 ) ) ;
#105 = COLOUR_RGB ( '',0.7921568627450980005, 0.8196078431372548767, 0.9333333333333333481 ) ;
#106 = CARTESIAN_POINT ( 'NONE',  ( 0.0000000000000000000, 0.0000000000000000000, 1.485000000000000764 ) ) ;
#107 = ORIENTED_EDGE ( 'NONE', *, *, #245, .T. ) ;
#108 = CIRCLE ( 'NONE', #73, 0.003999999999999999216 ) ;
#109 = DIRECTION ( 'NONE',  ( -1.000000000000000000, 0.0000000000000000000, 0.0000000000000000000 ) ) ;
#110 = DIRECTION ( 'NONE',  ( 0.0000000000000000000, 0.0000000000000000000, -1.000000000000000000 ) ) ;
#111 = CARTESIAN_POINT ( 'NONE',  ( 0.04750000000000063893, 6.735557395310480881E-18, 1.500000000000000222 ) ) ;
#112 = VECTOR ( 'NONE', #64, 39.37007874015748854 ) ;
#113 = DIRECTION ( 'NONE',  ( -1.000000000000000000, 0.0000000000000000000, 0.0000000000000000000 ) ) ;
#114 = CARTESIAN_POINT ( 'NONE',  ( -0.06249999999999997918, 0.0000000000000000000, 1.485000000000000764 ) ) ;
#115 = ORIENTED_EDGE ( 'NONE', *, *, #226, .T. ) ;
#116 =( LENGTH_UNIT ( ) NAMED_UNIT ( * ) SI_UNIT ( $, .METRE. ) );
#117 = AXIS2_PLACEMENT_3D ( 'NONE', #140, #155, #142 ) ;
#118 = FILL_AREA_STYLE ('',( #100 ) ) ;
#119 = EDGE_CURVE ( 'NONE', #5, #230, #12, .T. ) ;
#120 = CIRCLE ( 'NONE', #55, 0.06249999999999997918 ) ;
#121 = CARTESIAN_POINT ( 'NONE',  ( 0.003999999999999999216, 0.0000000000000000000, 0.0000000000000000000 ) ) ;
#122 = EDGE_CURVE ( 'NONE', #188, #227, #120, .T. ) ;
#123 = FILL_AREA_STYLE_COLOUR ( '', #4 ) ;
#124 = CIRCLE ( 'NONE', #153, 0.04750000000000063893 ) ;
#125 = ORIENTED_EDGE ( 'NONE', *, *, #8, .F. ) ;
#126 = ADVANCED_FACE ( 'NONE', ( #56 ), #145, .T. ) ;
#127 = DIRECTION ( 'NONE',  ( -0.0000000000000000000, -0.0000000000000000000, -1.000000000000000000 ) ) ;
#128 = AXIS2_PLACEMENT_3D ( 'NONE', #203, #242, #164 ) ;
#129 = FACE_OUTER_BOUND ( 'NONE', #136, .T. ) ;
#130 = PRODUCT ( 'Micro_RTC-125-1X', 'Micro_RTC-125-1X', '', ( #62 ) ) ;
#131 = DIRECTION ( 'NONE',  ( 1.000000000000000000, 0.0000000000000000000, 0.0000000000000000000 ) ) ;
#132 = ORIENTED_EDGE ( 'NONE', *, *, #199, .T. ) ;
#133 = DIRECTION ( 'NONE',  ( -1.000000000000000000, 0.0000000000000000000, 0.0000000000000000000 ) ) ;
#134 = AXIS2_PLACEMENT_3D ( 'NONE', #244, #110, #143 ) ;
#135 = EDGE_LOOP ( 'NONE', ( #206, #132, #97, #36 ) ) ;
#136 = EDGE_LOOP ( 'NONE', ( #61, #66, #60, #147 ) ) ;
#137 = DIRECTION ( 'NONE',  ( 1.000000000000000000, 0.0000000000000000000, 0.0000000000000000000 ) ) ;
#138 = CONICAL_SURFACE ( 'NONE', #231, 0.04750000000000063893, 0.7853981633974453924 ) ;
#139 = CYLINDRICAL_SURFACE ( 'NONE', #41, 0.06249999999999997918 ) ;
#140 = CARTESIAN_POINT ( 'NONE',  ( 0.0000000000000000000, 0.0000000000000000000, 0.2183249722427783590 ) ) ;
#141 =( NAMED_UNIT ( * ) PLANE_ANGLE_UNIT ( ) SI_UNIT ( $, .RADIAN. ) );
#142 = DIRECTION ( 'NONE',  ( -1.000000000000000000, 0.0000000000000000000, 0.0000000000000000000 ) ) ;
#143 = DIRECTION ( 'NONE',  ( -1.000000000000000000, 0.0000000000000000000, 0.0000000000000000000 ) ) ;
#144 = CONICAL_SURFACE ( 'NONE', #14, 0.003999999999999999216, 0.2617993877991504625 ) ;
#145 = PLANE ( 'NONE',  #10 ) ;
#146 = CARTESIAN_POINT ( 'NONE',  ( 0.06249999999999997918, 7.654042494670954463E-18, 0.2183249722427783590 ) ) ;
#147 = ORIENTED_EDGE ( 'NONE', *, *, #50, .T. ) ;
#148 = DIRECTION ( 'NONE',  ( 1.000000000000000000, 0.0000000000000000000, 0.0000000000000000000 ) ) ;
#149 = ORIENTED_EDGE ( 'NONE', *, *, #161, .T. ) ;
#150 = CLOSED_SHELL ( 'NONE', ( #25, #235, #44, #240, #126, #215, #210, #101 ) ) ;
#151 = STYLED_ITEM ( 'NONE', ( #179 ), #67 ) ;
#152 =( NAMED_UNIT ( * ) PLANE_ANGLE_UNIT ( ) SI_UNIT ( $, .RADIAN. ) );
#153 = AXIS2_PLACEMENT_3D ( 'NONE', #74, #223, #148 ) ;
#154 = UNCERTAINTY_MEASURE_WITH_UNIT (LENGTH_MEASURE( 1.000000000000000082E-05 ), #29, 'distance_accuracy_value', 'NONE');
#155 = DIRECTION ( 'NONE',  ( -0.0000000000000000000, -0.0000000000000000000, -1.000000000000000000 ) ) ;
#156 = DIRECTION ( 'NONE',  ( 1.000000000000000000, 0.0000000000000000000, 0.0000000000000000000 ) ) ;
#157 = LINE ( 'NONE', #48, #112 ) ;
#158 = DIRECTION ( 'NONE',  ( -1.000000000000000000, 0.0000000000000000000, 0.0000000000000000000 ) ) ;
#159 = ADVANCED_BREP_SHAPE_REPRESENTATION ( 'Micro_RTC-125-1X', ( #67, #81 ), #212 ) ;
#160 = DIRECTION ( 'NONE',  ( 0.2588190451025217387, 0.0000000000000000000, 0.9659258262890679791 ) ) ;
#161 = EDGE_CURVE ( 'NONE', #26, #227, #52, .T. ) ;
#162 = DIRECTION ( 'NONE',  ( 0.0000000000000000000, 0.0000000000000000000, 1.000000000000000000 ) ) ;
#163 =( GEOMETRIC_REPRESENTATION_CONTEXT ( 3 ) GLOBAL_UNCERTAINTY_ASSIGNED_CONTEXT ( ( #27 ) ) GLOBAL_UNIT_ASSIGNED_CONTEXT ( ( #39, #213, #191 ) ) REPRESENTATION_CONTEXT ( 'NONE', 'WORKASPACE' ) );
#164 = DIRECTION ( 'NONE',  ( 1.000000000000000000, 0.0000000000000000000, 0.0000000000000000000 ) ) ;
#165 = DIRECTION ( 'NONE',  ( -0.0000000000000000000, -0.0000000000000000000, -1.000000000000000000 ) ) ;
#166 = EDGE_CURVE ( 'NONE', #5, #186, #108, .T. ) ;
#167 = ORIENTED_EDGE ( 'NONE', *, *, #50, .F. ) ;
#168 = CIRCLE ( 'NONE', #2, 0.04750000000000063893 ) ;
#169 = PRESENTATION_STYLE_ASSIGNMENT (( #80 ) ) ;
#170 = CARTESIAN_POINT ( 'NONE',  ( -0.04750000000000063893, 0.0000000000000000000, 1.500000000000000222 ) ) ;
#171 = APPLICATION_CONTEXT ( 'automotive_design' ) ;
#172 = CIRCLE ( 'NONE', #239, 0.06249999999999997918 ) ;
#173 = FACE_OUTER_BOUND ( 'NONE', #95, .T. ) ;
#174 = VECTOR ( 'NONE', #160, 39.37007874015748854 ) ;
#175 = VECTOR ( 'NONE', #127, 39.37007874015748143 ) ;
#176 = ORIENTED_EDGE ( 'NONE', *, *, #119, .F. ) ;
#177 = DIMENSIONAL_EXPONENTS ( 1.000000000000000000, 0.0000000000000000000, 0.0000000000000000000, 0.0000000000000000000, 0.0000000000000000000, 0.0000000000000000000, 0.0000000000000000000 ) ;
#178 = VERTEX_POINT ( 'NONE', #111 ) ;
#179 = PRESENTATION_STYLE_ASSIGNMENT (( #217 ) ) ;
#180 = AXIS2_PLACEMENT_3D ( 'NONE', #72, #204, #57 ) ;
#181 = DIRECTION ( 'NONE',  ( 0.0000000000000000000, 0.0000000000000000000, -1.000000000000000000 ) ) ;
#182 = FACE_OUTER_BOUND ( 'NONE', #87, .T. ) ;
#183 = CARTESIAN_POINT ( 'NONE',  ( 0.04750000000000063893, 5.817072295950005757E-18, 1.500000000000000222 ) ) ;
#184 = VECTOR ( 'NONE', #208, 39.37007874015748143 ) ;
#185 = CARTESIAN_POINT ( 'NONE',  ( 0.0000000000000000000, 0.0000000000000000000, 1.485000000000000764 ) ) ;
#186 = VERTEX_POINT ( 'NONE', #13 ) ;
#187 = CYLINDRICAL_SURFACE ( 'NONE', #190, 0.06249999999999997918 ) ;
#188 = VERTEX_POINT ( 'NONE', #92 ) ;
#189 = AXIS2_PLACEMENT_3D ( 'NONE', #197, #104, #158 ) ;
#190 = AXIS2_PLACEMENT_3D ( 'NONE', #16, #75, #113 ) ;
#191 =( NAMED_UNIT ( * ) SI_UNIT ( $, .STERADIAN. ) SOLID_ANGLE_UNIT ( ) );
#192 = VERTEX_POINT ( 'NONE', #35 ) ;
#193 = EDGE_CURVE ( 'NONE', #186, #5, #77, .T. ) ;
#194 = APPLICATION_PROTOCOL_DEFINITION ( 'draft international standard', 'automotive_design', 1998, #171 ) ;
#195 = LENGTH_MEASURE_WITH_UNIT ( LENGTH_MEASURE( 0.02539999999999999897 ), #116 );
#196 = FACE_OUTER_BOUND ( 'NONE', #78, .T. ) ;
#197 = CARTESIAN_POINT ( 'NONE',  ( 0.0000000000000000000, 0.0000000000000000000, 0.2183249722427783590 ) ) ;
#198 = SURFACE_SIDE_STYLE ('',( #3 ) ) ;
#199 = EDGE_CURVE ( 'NONE', #178, #188, #90, .T. ) ;
#200 = LENGTH_MEASURE_WITH_UNIT ( LENGTH_MEASURE( 0.02539999999999999897 ), #9 );
#201 = DIRECTION ( 'NONE',  ( -0.7071067811865454633, 0.0000000000000000000, -0.7071067811865495711 ) ) ;
#202 = MECHANICAL_DESIGN_GEOMETRIC_PRESENTATION_REPRESENTATION (  '', ( #151 ), #88 ) ;
#203 = CARTESIAN_POINT ( 'NONE',  ( 0.0000000000000000000, 0.0000000000000000000, 0.0000000000000000000 ) ) ;
#204 = DIRECTION ( 'NONE',  ( 0.0000000000000000000, 0.0000000000000000000, 1.000000000000000000 ) ) ;
#205 = DIRECTION ( 'NONE',  ( 0.0000000000000000000, 0.0000000000000000000, -1.000000000000000000 ) ) ;
#206 = ORIENTED_EDGE ( 'NONE', *, *, #226, .F. ) ;
#207 = VECTOR ( 'NONE', #201, 39.37007874015748143 ) ;
#208 = DIRECTION ( 'NONE',  ( 0.7071067811865454633, 8.659560562354908206E-17, -0.7071067811865495711 ) ) ;
#209 = ORIENTED_EDGE ( 'NONE', *, *, #89, .T. ) ;
#210 = ADVANCED_FACE ( 'NONE', ( #129 ), #233, .T. ) ;
#211 = ORIENTED_EDGE ( 'NONE', *, *, #18, .T. ) ;
#212 =( GEOMETRIC_REPRESENTATION_CONTEXT ( 3 ) GLOBAL_UNCERTAINTY_ASSIGNED_CONTEXT ( ( #214 ) ) GLOBAL_UNIT_ASSIGNED_CONTEXT ( ( #99, #152, #232 ) ) REPRESENTATION_CONTEXT ( 'NONE', 'WORKASPACE' ) );
#213 =( NAMED_UNIT ( * ) PLANE_ANGLE_UNIT ( ) SI_UNIT ( $, .RADIAN. ) );
#214 = UNCERTAINTY_MEASURE_WITH_UNIT (LENGTH_MEASURE( 1.000000000000000082E-05 ), #99, 'distance_accuracy_value', 'NONE');
#215 = ADVANCED_FACE ( 'NONE', ( #71 ), #249, .T. ) ;
#216 = CARTESIAN_POINT ( 'NONE',  ( 0.0000000000000000000, 0.0000000000000000000, 1.500000000000000222 ) ) ;
#217 = SURFACE_STYLE_USAGE ( .BOTH. , #198 ) ;
#218 = ORIENTED_EDGE ( 'NONE', *, *, #63, .T. ) ;
#219 = ORIENTED_EDGE ( 'NONE', *, *, #122, .T. ) ;
#220 = PRESENTATION_LAYER_ASSIGNMENT (  '', '', ( #68 ) ) ;
#221 = PRODUCT_RELATED_PRODUCT_CATEGORY ( 'part', '', ( #130 ) ) ;
#222 = CARTESIAN_POINT ( 'NONE',  ( 0.0000000000000000000, 0.0000000000000000000, 1.500000000000000222 ) ) ;
#223 = DIRECTION ( 'NONE',  ( 0.0000000000000000000, 0.0000000000000000000, 1.000000000000000000 ) ) ;
#224 = DIRECTION ( 'NONE',  ( 1.000000000000000000, 0.0000000000000000000, -0.0000000000000000000 ) ) ;
#225 = FACE_OUTER_BOUND ( 'NONE', #135, .T. ) ;
#226 = EDGE_CURVE ( 'NONE', #178, #26, #124, .T. ) ;
#227 = VERTEX_POINT ( 'NONE', #114 ) ;
#228 = DIRECTION ( 'NONE',  ( -0.0000000000000000000, -0.0000000000000000000, -1.000000000000000000 ) ) ;
#229 = ORIENTED_EDGE ( 'NONE', *, *, #166, .T. ) ;
#230 = VERTEX_POINT ( 'NONE', #146 ) ;
#231 = AXIS2_PLACEMENT_3D ( 'NONE', #54, #205, #59 ) ;
#232 =( NAMED_UNIT ( * ) SI_UNIT ( $, .STERADIAN. ) SOLID_ANGLE_UNIT ( ) );
#233 = CONICAL_SURFACE ( 'NONE', #128, 0.003999999999999999216, 0.2617993877991504625 ) ;
#234 = CARTESIAN_POINT ( 'NONE',  ( -0.06249999999999997918, 0.0000000000000000000, 1.500000000000000222 ) ) ;
#235 = ADVANCED_FACE ( 'NONE', ( #225 ), #138, .T. ) ;
#236 = DIRECTION ( 'NONE',  ( -1.000000000000000000, 0.0000000000000000000, 0.0000000000000000000 ) ) ;
#237 = APPLICATION_CONTEXT ( 'automotive_design' ) ;
#238 = CARTESIAN_POINT ( 'NONE',  ( 0.0000000000000000000, 0.0000000000000000000, 1.500000000000000222 ) ) ;
#239 = AXIS2_PLACEMENT_3D ( 'NONE', #106, #45, #51 ) ;
#240 = ADVANCED_FACE ( 'NONE', ( #32 ), #187, .T. ) ;
#241 =( LENGTH_UNIT ( ) NAMED_UNIT ( * ) SI_UNIT ( $, .METRE. ) );
#242 = DIRECTION ( 'NONE',  ( 0.0000000000000000000, 0.0000000000000000000, 1.000000000000000000 ) ) ;
#243 = MECHANICAL_DESIGN_GEOMETRIC_PRESENTATION_REPRESENTATION (  '', ( #68 ), #163 ) ;
#244 = CARTESIAN_POINT ( 'NONE',  ( 0.0000000000000000000, 0.0000000000000000000, 1.500000000000000222 ) ) ;
#245 = EDGE_CURVE ( 'NONE', #188, #230, #37, .T. ) ;
#246 = PRODUCT_DEFINITION_SHAPE ( 'NONE', 'NONE',  #70 ) ;
#247 = DIRECTION ( 'NONE',  ( -0.0000000000000000000, -0.0000000000000000000, -1.000000000000000000 ) ) ;
#248 = ORIENTED_EDGE ( 'NONE', *, *, #8, .T. ) ;
#249 = CONICAL_SURFACE ( 'NONE', #134, 0.04750000000000063893, 0.7853981633974453924 ) ;
ENDSEC;
END-ISO-10303-21;
