ISO-10303-21;
HEADER;
FILE_DESCRIPTION (( 'STEP AP214' ),
    '1' );
FILE_NAME ('Micro_SPD-001-090.STEP',
    '2021-09-03T21:20:10',
    ( '' ),
    ( '' ),
    'SwSTEP 2.0',
    'SolidWorks 2020',
    '' );
FILE_SCHEMA (( 'AUTOMOTIVE_DESIGN' ));
ENDSEC;

DATA;
#1 = LINE ( 'NONE', #111, #233 ) ;
#2 = AXIS2_PLACEMENT_3D ( 'NONE', #45, #90, #195 ) ;
#3 =( LENGTH_UNIT ( ) NAMED_UNIT ( * ) SI_UNIT ( $, .METRE. ) );
#4 = DIRECTION ( 'NONE',  ( -0.0000000000000000000, -0.0000000000000000000, -1.000000000000000000 ) ) ;
#5 = DIRECTION ( 'NONE',  ( -1.000000000000000000, 0.0000000000000000000, 0.0000000000000000000 ) ) ;
#6 = CARTESIAN_POINT ( 'NONE',  ( -0.4849999999999990430, 0.0000000000000000000, 2.500000000000000000 ) ) ;
#7 = CARTESIAN_POINT ( 'NONE',  ( 0.0000000000000000000, 0.0000000000000000000, 0.0000000000000000000 ) ) ;
#8 = VERTEX_POINT ( 'NONE', #6 ) ;
#9 = VECTOR ( 'NONE', #227, 39.37007874015748143 ) ;
#10 = ORIENTED_EDGE ( 'NONE', *, *, #207, .F. ) ;
#11 = APPLICATION_CONTEXT ( 'automotive_design' ) ;
#12 = ORIENTED_EDGE ( 'NONE', *, *, #113, .T. ) ;
#13 = ADVANCED_FACE ( 'NONE', ( #125 ), #244, .T. ) ;
#14 = DIRECTION ( 'NONE',  ( 1.000000000000000000, 0.0000000000000000000, -0.0000000000000000000 ) ) ;
#15 = EDGE_CURVE ( 'NONE', #8, #319, #285, .T. ) ;
#16 = DIRECTION ( 'NONE',  ( 0.0000000000000000000, 0.0000000000000000000, 1.000000000000000000 ) ) ;
#17 = AXIS2_PLACEMENT_3D ( 'NONE', #46, #108, #339 ) ;
#18 = CIRCLE ( 'NONE', #127, 0.1000000000000000056 ) ;
#19 = LINE ( 'NONE', #155, #118 ) ;
#20 = PRESENTATION_STYLE_ASSIGNMENT (( #340 ) ) ;
#21 = VERTEX_POINT ( 'NONE', #43 ) ;
#22 = FACE_OUTER_BOUND ( 'NONE', #71, .T. ) ;
#23 = ORIENTED_EDGE ( 'NONE', *, *, #211, .T. ) ;
#24 = DIRECTION ( 'NONE',  ( 1.000000000000000000, 0.0000000000000000000, 0.0000000000000000000 ) ) ;
#25 = EDGE_CURVE ( 'NONE', #8, #333, #84, .T. ) ;
#26 = ORIENTED_EDGE ( 'NONE', *, *, #131, .T. ) ;
#27 = FACE_OUTER_BOUND ( 'NONE', #122, .T. ) ;
#28 = LENGTH_MEASURE_WITH_UNIT ( LENGTH_MEASURE( 0.02539999999999999897 ), #3 );
#29 = STYLED_ITEM ( 'NONE', ( #20 ), #218 ) ;
#30 = PLANE ( 'NONE',  #277 ) ;
#31 = LINE ( 'NONE', #220, #99 ) ;
#32 = CARTESIAN_POINT ( 'NONE',  ( 0.0000000000000000000, 0.0000000000000000000, 0.0000000000000000000 ) ) ;
#33 = CIRCLE ( 'NONE', #65, 0.4999500000000000610 ) ;
#34 = UNCERTAINTY_MEASURE_WITH_UNIT (LENGTH_MEASURE( 1.000000000000000082E-05 ), #271, 'distance_accuracy_value', 'NONE');
#35 = EDGE_LOOP ( 'NONE', ( #40, #116, #53, #119 ) ) ;
#36 = EDGE_LOOP ( 'NONE', ( #180, #204 ) ) ;
#37 = APPLICATION_CONTEXT ( 'automotive_design' ) ;
#38 = ORIENTED_EDGE ( 'NONE', *, *, #172, .F. ) ;
#39 = AXIS2_PLACEMENT_3D ( 'NONE', #275, #137, #5 ) ;
#40 = ORIENTED_EDGE ( 'NONE', *, *, #57, .F. ) ;
#41 = ADVANCED_FACE ( 'NONE', ( #302 ), #257, .F. ) ;
#42 = ADVANCED_FACE ( 'NONE', ( #287 ), #335, .T. ) ;
#43 = CARTESIAN_POINT ( 'NONE',  ( 0.1000000000000000056, 0.0000000000000000000, 0.0000000000000000000 ) ) ;
#44 = VERTEX_POINT ( 'NONE', #200 ) ;
#45 = CARTESIAN_POINT ( 'NONE',  ( 0.0000000000000000000, 0.0000000000000000000, 2.500000000000000000 ) ) ;
#46 = CARTESIAN_POINT ( 'NONE',  ( 0.0000000000000000000, 0.0000000000000000000, 1.250000000000000000 ) ) ;
#47 = AXIS2_PLACEMENT_3D ( 'NONE', #298, #222, #157 ) ;
#48 = DIRECTION ( 'NONE',  ( -1.000000000000000000, 0.0000000000000000000, 0.0000000000000000000 ) ) ;
#49 = FACE_OUTER_BOUND ( 'NONE', #202, .T. ) ;
#50 = DIRECTION ( 'NONE',  ( -1.000000000000000000, 0.0000000000000000000, 0.0000000000000000000 ) ) ;
#51 = CONICAL_SURFACE ( 'NONE', #17, 0.4999500000000001720, 0.7853981633974503884 ) ;
#52 = ADVANCED_FACE ( 'NONE', ( #310 ), #67, .T. ) ;
#53 = ORIENTED_EDGE ( 'NONE', *, *, #160, .T. ) ;
#54 = FACE_OUTER_BOUND ( 'NONE', #243, .T. ) ;
#55 = ORIENTED_EDGE ( 'NONE', *, *, #207, .T. ) ;
#56 = DIRECTION ( 'NONE',  ( -0.7071067811865487940, 8.659560562354948882E-17, 0.7071067811865462405 ) ) ;
#57 = EDGE_CURVE ( 'NONE', #284, #145, #170, .T. ) ;
#58 = CARTESIAN_POINT ( 'NONE',  ( 0.4999500000000001720, 0.0000000000000000000, 1.250000000000000000 ) ) ;
#59 = AXIS2_PLACEMENT_3D ( 'NONE', #212, #129, #48 ) ;
#60 = PRODUCT_DEFINITION_FORMATION_WITH_SPECIFIED_SOURCE ( 'ANY', '', #215, .NOT_KNOWN. ) ;
#61 = DIRECTION ( 'NONE',  ( -0.7071067811865490160, 8.659560562354951347E-17, 0.7071067811865460184 ) ) ;
#62 = PRODUCT_CONTEXT ( 'NONE', #11, 'mechanical' ) ;
#63 = AXIS2_PLACEMENT_3D ( 'NONE', #73, #210, #242 ) ;
#64 = CARTESIAN_POINT ( 'NONE',  ( 0.0000000000000000000, 0.0000000000000000000, 2.500000000000000000 ) ) ;
#65 = AXIS2_PLACEMENT_3D ( 'NONE', #208, #4, #187 ) ;
#66 = SURFACE_STYLE_USAGE ( .BOTH. , #249 ) ;
#67 = CYLINDRICAL_SURFACE ( 'NONE', #138, 0.5000000000000000000 ) ;
#68 = LENGTH_MEASURE_WITH_UNIT ( LENGTH_MEASURE( 0.02539999999999999897 ), #158 );
#69 = CARTESIAN_POINT ( 'NONE',  ( 0.0000000000000000000, 0.0000000000000000000, 1.250000000000000000 ) ) ;
#70 = SHAPE_DEFINITION_REPRESENTATION ( #128, #276 ) ;
#71 = EDGE_LOOP ( 'NONE', ( #213, #229, #120, #109 ) ) ;
#72 = ORIENTED_EDGE ( 'NONE', *, *, #188, .T. ) ;
#73 = CARTESIAN_POINT ( 'NONE',  ( 0.0000000000000000000, 0.0000000000000000000, 2.500000000000000000 ) ) ;
#74 = DIRECTION ( 'NONE',  ( -1.000000000000000000, 0.0000000000000000000, 0.0000000000000000000 ) ) ;
#75 = COLOUR_RGB ( '',0.7921568627450980005, 0.8196078431372548767, 0.9333333333333333481 ) ;
#76 = EDGE_CURVE ( 'NONE', #147, #256, #338, .T. ) ;
#77 = CARTESIAN_POINT ( 'NONE',  ( 0.0000000000000000000, 0.0000000000000000000, 2.484999999999999432 ) ) ;
#78 = CYLINDRICAL_SURFACE ( 'NONE', #262, 0.4999500000000000610 ) ;
#79 = ADVANCED_FACE ( 'NONE', ( #107 ), #278, .T. ) ;
#80 = ORIENTED_EDGE ( 'NONE', *, *, #131, .F. ) ;
#81 = DIRECTION ( 'NONE',  ( 1.000000000000000000, 0.0000000000000000000, 0.0000000000000000000 ) ) ;
#82 = VECTOR ( 'NONE', #328, 39.37007874015748143 ) ;
#83 = ORIENTED_EDGE ( 'NONE', *, *, #15, .T. ) ;
#84 = CIRCLE ( 'NONE', #2, 0.4849999999999990430 ) ;
#85 = EDGE_CURVE ( 'NONE', #256, #145, #342, .T. ) ;
#86 = DIRECTION ( 'NONE',  ( 1.000000000000000000, 0.0000000000000000000, -0.0000000000000000000 ) ) ;
#87 = DIRECTION ( 'NONE',  ( 0.0000000000000000000, 0.0000000000000000000, 1.000000000000000000 ) ) ;
#88 = DIRECTION ( 'NONE',  ( -0.0000000000000000000, -0.0000000000000000000, -1.000000000000000000 ) ) ;
#89 = EDGE_CURVE ( 'NONE', #256, #147, #144, .T. ) ;
#90 = DIRECTION ( 'NONE',  ( 0.0000000000000000000, 0.0000000000000000000, 1.000000000000000000 ) ) ;
#91 = CIRCLE ( 'NONE', #289, 0.5000000000000000000 ) ;
#92 = AXIS2_PLACEMENT_3D ( 'NONE', #159, #88, #191 ) ;
#93 = CARTESIAN_POINT ( 'NONE',  ( 0.0000000000000000000, 0.0000000000000000000, 1.250000000000000000 ) ) ;
#94 = UNCERTAINTY_MEASURE_WITH_UNIT (LENGTH_MEASURE( 1.000000000000000082E-05 ), #168, 'distance_accuracy_value', 'NONE');
#95 = ORIENTED_EDGE ( 'NONE', *, *, #124, .T. ) ;
#96 = ORIENTED_EDGE ( 'NONE', *, *, #236, .T. ) ;
#97 =( NAMED_UNIT ( * ) SI_UNIT ( $, .STERADIAN. ) SOLID_ANGLE_UNIT ( ) );
#98 = ORIENTED_EDGE ( 'NONE', *, *, #89, .T. ) ;
#99 = VECTOR ( 'NONE', #301, 39.37007874015748143 ) ;
#100 = EDGE_CURVE ( 'NONE', #21, #182, #18, .T. ) ;
#101 = CARTESIAN_POINT ( 'NONE',  ( 0.0000000000000000000, 0.0000000000000000000, 2.500000000000000000 ) ) ;
#102 = VECTOR ( 'NONE', #321, 39.37007874015748143 ) ;
#103 = LINE ( 'NONE', #153, #166 ) ;
#104 = DIRECTION ( 'NONE',  ( -0.0000000000000000000, -0.0000000000000000000, -1.000000000000000000 ) ) ;
#105 = CARTESIAN_POINT ( 'NONE',  ( 0.0000000000000000000, 0.0000000000000000000, 1.250049999999999883 ) ) ;
#106 = PRESENTATION_LAYER_ASSIGNMENT (  '', '', ( #29 ) ) ;
#107 = FACE_OUTER_BOUND ( 'NONE', #250, .T. ) ;
#108 = DIRECTION ( 'NONE',  ( 0.0000000000000000000, 0.0000000000000000000, 1.000000000000000000 ) ) ;
#109 = ORIENTED_EDGE ( 'NONE', *, *, #241, .F. ) ;
#110 = AXIS2_PLACEMENT_3D ( 'NONE', #69, #143, #308 ) ;
#111 = CARTESIAN_POINT ( 'NONE',  ( -0.1000000000000000056, 1.224646799147353269E-17, 0.0000000000000000000 ) ) ;
#112 = LINE ( 'NONE', #299, #184 ) ;
#113 = EDGE_CURVE ( 'NONE', #145, #228, #91, .T. ) ;
#114 = CARTESIAN_POINT ( 'NONE',  ( 0.4849999999999990430, 6.031385485800709202E-17, 2.500000000000000000 ) ) ;
#115 = CLOSED_SHELL ( 'NONE', ( #79, #203, #13, #293, #52, #42, #259, #325, #190, #313, #269, #41 ) ) ;
#116 = ORIENTED_EDGE ( 'NONE', *, *, #192, .T. ) ;
#117 = DIRECTION ( 'NONE',  ( -1.000000000000000000, 0.0000000000000000000, 0.0000000000000000000 ) ) ;
#118 = VECTOR ( 'NONE', #234, 39.37007874015748143 ) ;
#119 = ORIENTED_EDGE ( 'NONE', *, *, #113, .F. ) ;
#120 = ORIENTED_EDGE ( 'NONE', *, *, #236, .F. ) ;
#121 = LENGTH_MEASURE_WITH_UNIT ( LENGTH_MEASURE( 0.02539999999999999897 ), #279 );
#122 = EDGE_LOOP ( 'NONE', ( #343, #98, #348, #80 ) ) ;
#123 = ORIENTED_EDGE ( 'NONE', *, *, #15, .F. ) ;
#124 = EDGE_CURVE ( 'NONE', #333, #8, #140, .T. ) ;
#125 = FACE_OUTER_BOUND ( 'NONE', #330, .T. ) ;
#126 = CARTESIAN_POINT ( 'NONE',  ( -0.4999500000000001720, 6.122927834036980523E-17, 1.250000000000000000 ) ) ;
#127 = AXIS2_PLACEMENT_3D ( 'NONE', #264, #347, #74 ) ;
#128 = PRODUCT_DEFINITION_SHAPE ( 'NONE', 'NONE',  #311 ) ;
#129 = DIRECTION ( 'NONE',  ( -0.0000000000000000000, -0.0000000000000000000, -1.000000000000000000 ) ) ;
#130 = CARTESIAN_POINT ( 'NONE',  ( 0.0000000000000000000, 0.0000000000000000000, 1.250049999999999883 ) ) ;
#131 = EDGE_CURVE ( 'NONE', #253, #44, #336, .T. ) ;
#132 = CARTESIAN_POINT ( 'NONE',  ( -0.1000000000000000056, 3.673634235742273369E-17, 0.0000000000000000000 ) ) ;
#133 = ORIENTED_EDGE ( 'NONE', *, *, #148, .F. ) ;
#134 = ORIENTED_EDGE ( 'NONE', *, *, #25, .T. ) ;
#135 = CYLINDRICAL_SURFACE ( 'NONE', #92, 0.4999500000000000610 ) ;
#136 = FACE_OUTER_BOUND ( 'NONE', #238, .T. ) ;
#137 = DIRECTION ( 'NONE',  ( 0.0000000000000000000, 0.0000000000000000000, -1.000000000000000000 ) ) ;
#138 = AXIS2_PLACEMENT_3D ( 'NONE', #64, #307, #225 ) ;
#139 = DIRECTION ( 'NONE',  ( 0.0000000000000000000, 0.0000000000000000000, 1.000000000000000000 ) ) ;
#140 = CIRCLE ( 'NONE', #63, 0.4849999999999990430 ) ;
#141 = ORIENTED_EDGE ( 'NONE', *, *, #192, .F. ) ;
#142 = UNCERTAINTY_MEASURE_WITH_UNIT (LENGTH_MEASURE( 1.000000000000000082E-05 ), #281, 'distance_accuracy_value', 'NONE');
#143 = DIRECTION ( 'NONE',  ( 0.0000000000000000000, 0.0000000000000000000, 1.000000000000000000 ) ) ;
#144 = CIRCLE ( 'NONE', #273, 0.4999500000000001720 ) ;
#145 = VERTEX_POINT ( 'NONE', #176 ) ;
#146 = ORIENTED_EDGE ( 'NONE', *, *, #124, .F. ) ;
#147 = VERTEX_POINT ( 'NONE', #126 ) ;
#148 = EDGE_CURVE ( 'NONE', #182, #21, #177, .T. ) ;
#149 = DIRECTION ( 'NONE',  ( 1.000000000000000000, 0.0000000000000000000, 0.0000000000000000000 ) ) ;
#150 = AXIS2_PLACEMENT_3D ( 'NONE', #324, #87, #189 ) ;
#151 = FILL_AREA_STYLE ('',( #183 ) ) ;
#152 = AXIS2_PLACEMENT_3D ( 'NONE', #77, #291, #317 ) ;
#153 = CARTESIAN_POINT ( 'NONE',  ( 0.1000000000000000056, 0.0000000000000000000, 0.0000000000000000000 ) ) ;
#154 = CARTESIAN_POINT ( 'NONE',  ( 0.0000000000000000000, 0.0000000000000000000, 0.0000000000000000000 ) ) ;
#155 = CARTESIAN_POINT ( 'NONE',  ( -0.5000000000000000000, 0.0000000000000000000, 2.500000000000000000 ) ) ;
#156 = EDGE_LOOP ( 'NONE', ( #224, #186, #23, #26 ) ) ;
#157 = DIRECTION ( 'NONE',  ( -1.000000000000000000, 0.0000000000000000000, 0.0000000000000000000 ) ) ;
#158 =( LENGTH_UNIT ( ) NAMED_UNIT ( * ) SI_UNIT ( $, .METRE. ) );
#159 = CARTESIAN_POINT ( 'NONE',  ( 0.0000000000000000000, 0.0000000000000000000, 0.0000000000000000000 ) ) ;
#160 = EDGE_CURVE ( 'NONE', #319, #228, #19, .T. ) ;
#161 = VECTOR ( 'NONE', #214, 39.37007874015748143 ) ;
#162 = CARTESIAN_POINT ( 'NONE',  ( 0.5000000000000000000, 6.123233995736766036E-17, 2.484999999999999432 ) ) ;
#163 = FACE_OUTER_BOUND ( 'NONE', #294, .T. ) ;
#164 =( NAMED_UNIT ( * ) PLANE_ANGLE_UNIT ( ) SI_UNIT ( $, .RADIAN. ) );
#165 = DIMENSIONAL_EXPONENTS ( 1.000000000000000000, 0.0000000000000000000, 0.0000000000000000000, 0.0000000000000000000, 0.0000000000000000000, 0.0000000000000000000, 0.0000000000000000000 ) ;
#166 = VECTOR ( 'NONE', #268, 39.37007874015748143 ) ;
#167 = AXIS2_PLACEMENT_3D ( 'NONE', #32, #139, #171 ) ;
#168 =( CONVERSION_BASED_UNIT ( 'INCH', #121 ) LENGTH_UNIT ( ) NAMED_UNIT ( #165 ) );
#169 = MECHANICAL_DESIGN_GEOMETRIC_PRESENTATION_REPRESENTATION (  '', ( #29 ), #300 ) ;
#170 = LINE ( 'NONE', #280, #82 ) ;
#171 = DIRECTION ( 'NONE',  ( 1.000000000000000000, 0.0000000000000000000, 0.0000000000000000000 ) ) ;
#172 = EDGE_CURVE ( 'NONE', #333, #284, #316, .T. ) ;
#173 = ORIENTED_EDGE ( 'NONE', *, *, #25, .F. ) ;
#174 = ORIENTED_EDGE ( 'NONE', *, *, #85, .F. ) ;
#175 = ORIENTED_EDGE ( 'NONE', *, *, #160, .F. ) ;
#176 = CARTESIAN_POINT ( 'NONE',  ( 0.5000000000000000000, 6.123233995736766036E-17, 1.250049999999999883 ) ) ;
#177 = CIRCLE ( 'NONE', #304, 0.1000000000000000056 ) ;
#178 = CARTESIAN_POINT ( 'NONE',  ( 0.4849999999999990430, 5.939536975864651136E-17, 2.500000000000000000 ) ) ;
#179 = DIRECTION ( 'NONE',  ( -1.000000000000000000, 0.0000000000000000000, 0.0000000000000000000 ) ) ;
#180 = ORIENTED_EDGE ( 'NONE', *, *, #100, .T. ) ;
#181 = DIRECTION ( 'NONE',  ( -0.0000000000000000000, -0.0000000000000000000, -1.000000000000000000 ) ) ;
#182 = VERTEX_POINT ( 'NONE', #132 ) ;
#183 = FILL_AREA_STYLE_COLOUR ( '', #248 ) ;
#184 = VECTOR ( 'NONE', #61, 39.37007874015748143 ) ;
#185 = CONICAL_SURFACE ( 'NONE', #39, 0.4849999999999990430, 0.7853981633974528309 ) ;
#186 = ORIENTED_EDGE ( 'NONE', *, *, #100, .F. ) ;
#187 = DIRECTION ( 'NONE',  ( -1.000000000000000000, 0.0000000000000000000, 0.0000000000000000000 ) ) ;
#188 = EDGE_CURVE ( 'NONE', #319, #284, #232, .T. ) ;
#189 = DIRECTION ( 'NONE',  ( 1.000000000000000000, 0.0000000000000000000, 0.0000000000000000000 ) ) ;
#190 = ADVANCED_FACE ( 'NONE', ( #49 ), #51, .T. ) ;
#191 = DIRECTION ( 'NONE',  ( -1.000000000000000000, 0.0000000000000000000, 0.0000000000000000000 ) ) ;
#192 = EDGE_CURVE ( 'NONE', #284, #319, #329, .T. ) ;
#193 =( NAMED_UNIT ( * ) PLANE_ANGLE_UNIT ( ) SI_UNIT ( $, .RADIAN. ) );
#194 =( NAMED_UNIT ( * ) SI_UNIT ( $, .STERADIAN. ) SOLID_ANGLE_UNIT ( ) );
#195 = DIRECTION ( 'NONE',  ( 1.000000000000000000, 0.0000000000000000000, 0.0000000000000000000 ) ) ;
#196 = CONICAL_SURFACE ( 'NONE', #47, 0.4849999999999990430, 0.7853981633974528309 ) ;
#197 = AXIS2_PLACEMENT_3D ( 'NONE', #297, #16, #149 ) ;
#198 = ORIENTED_EDGE ( 'NONE', *, *, #76, .F. ) ;
#199 = FILL_AREA_STYLE_COLOUR ( '', #75 ) ;
#200 = CARTESIAN_POINT ( 'NONE',  ( -0.4999500000000000610, 0.0000000000000000000, 0.3999499999999985844 ) ) ;
#201 =( NAMED_UNIT ( * ) PLANE_ANGLE_UNIT ( ) SI_UNIT ( $, .RADIAN. ) );
#202 = EDGE_LOOP ( 'NONE', ( #270, #345, #251, #12 ) ) ;
#203 = ADVANCED_FACE ( 'NONE', ( #22 ), #78, .T. ) ;
#204 = ORIENTED_EDGE ( 'NONE', *, *, #148, .T. ) ;
#205 = DIRECTION ( 'NONE',  ( -0.0000000000000000000, -0.0000000000000000000, -1.000000000000000000 ) ) ;
#206 = SURFACE_STYLE_FILL_AREA ( #151 ) ;
#207 = EDGE_CURVE ( 'NONE', #228, #145, #315, .T. ) ;
#208 = CARTESIAN_POINT ( 'NONE',  ( 0.0000000000000000000, 0.0000000000000000000, 0.3999499999999985844 ) ) ;
#209 = VECTOR ( 'NONE', #318, 39.37007874015748143 ) ;
#210 = DIRECTION ( 'NONE',  ( 0.0000000000000000000, 0.0000000000000000000, 1.000000000000000000 ) ) ;
#211 = EDGE_CURVE ( 'NONE', #21, #253, #103, .T. ) ;
#212 = CARTESIAN_POINT ( 'NONE',  ( 0.0000000000000000000, 0.0000000000000000000, 0.3999499999999985844 ) ) ;
#213 = ORIENTED_EDGE ( 'NONE', *, *, #76, .T. ) ;
#214 = DIRECTION ( 'NONE',  ( 0.7071067811865490160, 0.0000000000000000000, 0.7071067811865460184 ) ) ;
#215 = PRODUCT ( 'Micro_SPD-001-090', 'Micro_SPD-001-090', '', ( #62 ) ) ;
#216 = ORIENTED_EDGE ( 'NONE', *, *, #188, .F. ) ;
#217 = CARTESIAN_POINT ( 'NONE',  ( 0.4999500000000000610, 6.122621672337193778E-17, 0.0000000000000000000 ) ) ;
#218 = MANIFOLD_SOLID_BREP ( 'Cut-Revolve2', #115 ) ;
#219 = AXIS2_PLACEMENT_3D ( 'NONE', #292, #344, #239 ) ;
#220 = CARTESIAN_POINT ( 'NONE',  ( -0.4999500000000000610, 0.0000000000000000000, 0.0000000000000000000 ) ) ;
#221 = CARTESIAN_POINT ( 'NONE',  ( 0.4999500000000000610, 6.122621672337193778E-17, 0.3999499999999985844 ) ) ;
#222 = DIRECTION ( 'NONE',  ( 0.0000000000000000000, 0.0000000000000000000, -1.000000000000000000 ) ) ;
#223 = PRESENTATION_STYLE_ASSIGNMENT (( #66 ) ) ;
#224 = ORIENTED_EDGE ( 'NONE', *, *, #240, .F. ) ;
#225 = DIRECTION ( 'NONE',  ( -1.000000000000000000, 0.0000000000000000000, 0.0000000000000000000 ) ) ;
#226 = AXIS2_PLACEMENT_3D ( 'NONE', #93, #305, #312 ) ;
#227 = DIRECTION ( 'NONE',  ( -0.7071067811865507924, 0.0000000000000000000, -0.7071067811865443531 ) ) ;
#228 = VERTEX_POINT ( 'NONE', #247 ) ;
#229 = ORIENTED_EDGE ( 'NONE', *, *, #341, .T. ) ;
#230 = PRODUCT_DEFINITION_CONTEXT ( 'detailed design', #37, 'design' ) ;
#231 = DIRECTION ( 'NONE',  ( 0.0000000000000000000, 0.0000000000000000000, 1.000000000000000000 ) ) ;
#232 = CIRCLE ( 'NONE', #219, 0.5000000000000000000 ) ;
#233 = VECTOR ( 'NONE', #56, 39.37007874015748143 ) ;
#234 = DIRECTION ( 'NONE',  ( -0.0000000000000000000, -0.0000000000000000000, -1.000000000000000000 ) ) ;
#235 = DIRECTION ( 'NONE',  ( -0.0000000000000000000, -0.0000000000000000000, -1.000000000000000000 ) ) ;
#236 = EDGE_CURVE ( 'NONE', #44, #253, #33, .T. ) ;
#237 = DIRECTION ( 'NONE',  ( -1.000000000000000000, 0.0000000000000000000, 0.0000000000000000000 ) ) ;
#238 = EDGE_LOOP ( 'NONE', ( #146, #282, #216, #123 ) ) ;
#239 = DIRECTION ( 'NONE',  ( 1.000000000000000000, 0.0000000000000000000, 0.0000000000000000000 ) ) ;
#240 = EDGE_CURVE ( 'NONE', #182, #44, #1, .T. ) ;
#241 = EDGE_CURVE ( 'NONE', #147, #44, #31, .T. ) ;
#242 = DIRECTION ( 'NONE',  ( 1.000000000000000000, 0.0000000000000000000, 0.0000000000000000000 ) ) ;
#243 = EDGE_LOOP ( 'NONE', ( #134, #95 ) ) ;
#244 = CONICAL_SURFACE ( 'NONE', #110, 0.4999500000000001720, 0.7853981633974503884 ) ;
#245 = FACE_OUTER_BOUND ( 'NONE', #156, .T. ) ;
#246 = DIRECTION ( 'NONE',  ( 0.0000000000000000000, 0.0000000000000000000, 1.000000000000000000 ) ) ;
#247 = CARTESIAN_POINT ( 'NONE',  ( -0.5000000000000000000, 0.0000000000000000000, 1.250049999999999883 ) ) ;
#248 = COLOUR_RGB ( '',0.7921568627450980005, 0.8196078431372548767, 0.9333333333333333481 ) ;
#249 = SURFACE_SIDE_STYLE ('',( #326 ) ) ;
#250 = EDGE_LOOP ( 'NONE', ( #133, #265, #96, #283 ) ) ;
#251 = ORIENTED_EDGE ( 'NONE', *, *, #85, .T. ) ;
#252 = DIMENSIONAL_EXPONENTS ( 1.000000000000000000, 0.0000000000000000000, 0.0000000000000000000, 0.0000000000000000000, 0.0000000000000000000, 0.0000000000000000000, 0.0000000000000000000 ) ;
#253 = VERTEX_POINT ( 'NONE', #221 ) ;
#254 = AXIS2_PLACEMENT_3D ( 'NONE', #130, #295, #81 ) ;
#255 = STYLED_ITEM ( 'NONE', ( #223 ), #276 ) ;
#256 = VERTEX_POINT ( 'NONE', #58 ) ;
#257 = PLANE ( 'NONE',  #296 ) ;
#258 = DIMENSIONAL_EXPONENTS ( 1.000000000000000000, 0.0000000000000000000, 0.0000000000000000000, 0.0000000000000000000, 0.0000000000000000000, 0.0000000000000000000, 0.0000000000000000000 ) ;
#259 = ADVANCED_FACE ( 'NONE', ( #54 ), #30, .T. ) ;
#260 = CARTESIAN_POINT ( 'NONE',  ( 0.0000000000000000000, 0.0000000000000000000, 1.250000000000000000 ) ) ;
#261 = PRESENTATION_LAYER_ASSIGNMENT (  '', '', ( #255 ) ) ;
#262 = AXIS2_PLACEMENT_3D ( 'NONE', #154, #181, #179 ) ;
#263 = SURFACE_SIDE_STYLE ('',( #206 ) ) ;
#264 = CARTESIAN_POINT ( 'NONE',  ( 0.0000000000000000000, 0.0000000000000000000, 0.0000000000000000000 ) ) ;
#265 = ORIENTED_EDGE ( 'NONE', *, *, #240, .T. ) ;
#266 = DIRECTION ( 'NONE',  ( -0.0000000000000000000, -0.0000000000000000000, -1.000000000000000000 ) ) ;
#267 = EDGE_CURVE ( 'NONE', #147, #228, #112, .T. ) ;
#268 = DIRECTION ( 'NONE',  ( 0.7071067811865487940, 0.0000000000000000000, 0.7071067811865462405 ) ) ;
#269 = ADVANCED_FACE ( 'NONE', ( #245 ), #303, .T. ) ;
#270 = ORIENTED_EDGE ( 'NONE', *, *, #267, .F. ) ;
#271 =( CONVERSION_BASED_UNIT ( 'INCH', #28 ) LENGTH_UNIT ( ) NAMED_UNIT ( #252 ) );
#272 = CARTESIAN_POINT ( 'NONE',  ( -0.5000000000000000000, 0.0000000000000000000, 2.484999999999999432 ) ) ;
#273 = AXIS2_PLACEMENT_3D ( 'NONE', #260, #235, #237 ) ;
#274 =( NAMED_UNIT ( * ) SI_UNIT ( $, .STERADIAN. ) SOLID_ANGLE_UNIT ( ) );
#275 = CARTESIAN_POINT ( 'NONE',  ( 0.0000000000000000000, 0.0000000000000000000, 2.500000000000000000 ) ) ;
#276 = ADVANCED_BREP_SHAPE_REPRESENTATION ( 'Micro_SPD-001-090', ( #218, #167 ), #337 ) ;
#277 = AXIS2_PLACEMENT_3D ( 'NONE', #323, #246, #86 ) ;
#278 = CONICAL_SURFACE ( 'NONE', #197, 0.1000000000000000056, 0.7853981633974501664 ) ;
#279 =( LENGTH_UNIT ( ) NAMED_UNIT ( * ) SI_UNIT ( $, .METRE. ) );
#280 = CARTESIAN_POINT ( 'NONE',  ( 0.5000000000000000000, 6.123233995736766036E-17, 2.500000000000000000 ) ) ;
#281 =( CONVERSION_BASED_UNIT ( 'INCH', #68 ) LENGTH_UNIT ( ) NAMED_UNIT ( #258 ) );
#282 = ORIENTED_EDGE ( 'NONE', *, *, #172, .T. ) ;
#283 = ORIENTED_EDGE ( 'NONE', *, *, #211, .F. ) ;
#284 = VERTEX_POINT ( 'NONE', #162 ) ;
#285 = LINE ( 'NONE', #327, #9 ) ;
#286 = EDGE_LOOP ( 'NONE', ( #72, #331, #10, #175 ) ) ;
#287 = FACE_OUTER_BOUND ( 'NONE', #35, .T. ) ;
#288 = CARTESIAN_POINT ( 'NONE',  ( 0.0000000000000000000, 0.0000000000000000000, 0.0000000000000000000 ) ) ;
#289 = AXIS2_PLACEMENT_3D ( 'NONE', #105, #266, #24 ) ;
#290 = MECHANICAL_DESIGN_GEOMETRIC_PRESENTATION_REPRESENTATION (  '', ( #255 ), #320 ) ;
#291 = DIRECTION ( 'NONE',  ( 0.0000000000000000000, 0.0000000000000000000, -1.000000000000000000 ) ) ;
#292 = CARTESIAN_POINT ( 'NONE',  ( 0.0000000000000000000, 0.0000000000000000000, 2.484999999999999432 ) ) ;
#293 = ADVANCED_FACE ( 'NONE', ( #136 ), #196, .T. ) ;
#294 = EDGE_LOOP ( 'NONE', ( #38, #173, #83, #141 ) ) ;
#295 = DIRECTION ( 'NONE',  ( -0.0000000000000000000, -0.0000000000000000000, -1.000000000000000000 ) ) ;
#296 = AXIS2_PLACEMENT_3D ( 'NONE', #7, #231, #14 ) ;
#297 = CARTESIAN_POINT ( 'NONE',  ( 0.0000000000000000000, 0.0000000000000000000, 0.0000000000000000000 ) ) ;
#298 = CARTESIAN_POINT ( 'NONE',  ( 0.0000000000000000000, 0.0000000000000000000, 2.500000000000000000 ) ) ;
#299 = CARTESIAN_POINT ( 'NONE',  ( -0.4999500000000001720, 6.122621672337193778E-17, 1.250000000000000000 ) ) ;
#300 =( GEOMETRIC_REPRESENTATION_CONTEXT ( 3 ) GLOBAL_UNCERTAINTY_ASSIGNED_CONTEXT ( ( #34 ) ) GLOBAL_UNIT_ASSIGNED_CONTEXT ( ( #271, #193, #274 ) ) REPRESENTATION_CONTEXT ( 'NONE', 'WORKASPACE' ) );
#301 = DIRECTION ( 'NONE',  ( -0.0000000000000000000, -0.0000000000000000000, -1.000000000000000000 ) ) ;
#302 = FACE_OUTER_BOUND ( 'NONE', #36, .T. ) ;
#303 = CONICAL_SURFACE ( 'NONE', #150, 0.1000000000000000056, 0.7853981633974501664 ) ;
#304 = AXIS2_PLACEMENT_3D ( 'NONE', #288, #104, #50 ) ;
#305 = DIRECTION ( 'NONE',  ( -0.0000000000000000000, -0.0000000000000000000, -1.000000000000000000 ) ) ;
#306 = APPLICATION_PROTOCOL_DEFINITION ( 'draft international standard', 'automotive_design', 1998, #11 ) ;
#307 = DIRECTION ( 'NONE',  ( -0.0000000000000000000, -0.0000000000000000000, -1.000000000000000000 ) ) ;
#308 = DIRECTION ( 'NONE',  ( 1.000000000000000000, 0.0000000000000000000, 0.0000000000000000000 ) ) ;
#309 = ORIENTED_EDGE ( 'NONE', *, *, #267, .T. ) ;
#310 = FACE_OUTER_BOUND ( 'NONE', #286, .T. ) ;
#311 = PRODUCT_DEFINITION ( 'UNKNOWN', '', #60, #230 ) ;
#312 = DIRECTION ( 'NONE',  ( -1.000000000000000000, 0.0000000000000000000, 0.0000000000000000000 ) ) ;
#313 = ADVANCED_FACE ( 'NONE', ( #27 ), #135, .T. ) ;
#314 = CARTESIAN_POINT ( 'NONE',  ( 0.4999500000000001720, 0.0000000000000000000, 1.250000000000000000 ) ) ;
#315 = CIRCLE ( 'NONE', #254, 0.5000000000000000000 ) ;
#316 = LINE ( 'NONE', #178, #209 ) ;
#317 = DIRECTION ( 'NONE',  ( 1.000000000000000000, 0.0000000000000000000, 0.0000000000000000000 ) ) ;
#318 = DIRECTION ( 'NONE',  ( 0.7071067811865507924, 8.659560562354973534E-17, -0.7071067811865443531 ) ) ;
#319 = VERTEX_POINT ( 'NONE', #272 ) ;
#320 =( GEOMETRIC_REPRESENTATION_CONTEXT ( 3 ) GLOBAL_UNCERTAINTY_ASSIGNED_CONTEXT ( ( #94 ) ) GLOBAL_UNIT_ASSIGNED_CONTEXT ( ( #168, #164, #194 ) ) REPRESENTATION_CONTEXT ( 'NONE', 'WORKASPACE' ) );
#321 = DIRECTION ( 'NONE',  ( -0.0000000000000000000, -0.0000000000000000000, -1.000000000000000000 ) ) ;
#322 = AXIS2_PLACEMENT_3D ( 'NONE', #101, #205, #117 ) ;
#323 = CARTESIAN_POINT ( 'NONE',  ( 0.0000000000000000000, 0.0000000000000000000, 2.500000000000000000 ) ) ;
#324 = CARTESIAN_POINT ( 'NONE',  ( 0.0000000000000000000, 0.0000000000000000000, 0.0000000000000000000 ) ) ;
#325 = ADVANCED_FACE ( 'NONE', ( #163 ), #185, .T. ) ;
#326 = SURFACE_STYLE_FILL_AREA ( #334 ) ;
#327 = CARTESIAN_POINT ( 'NONE',  ( -0.4849999999999990430, 0.0000000000000000000, 2.500000000000000000 ) ) ;
#328 = DIRECTION ( 'NONE',  ( -0.0000000000000000000, -0.0000000000000000000, -1.000000000000000000 ) ) ;
#329 = CIRCLE ( 'NONE', #152, 0.5000000000000000000 ) ;
#330 = EDGE_LOOP ( 'NONE', ( #198, #309, #55, #174 ) ) ;
#331 = ORIENTED_EDGE ( 'NONE', *, *, #57, .T. ) ;
#332 = APPLICATION_PROTOCOL_DEFINITION ( 'draft international standard', 'automotive_design', 1998, #37 ) ;
#333 = VERTEX_POINT ( 'NONE', #114 ) ;
#334 = FILL_AREA_STYLE ('',( #199 ) ) ;
#335 = CYLINDRICAL_SURFACE ( 'NONE', #322, 0.5000000000000000000 ) ;
#336 = CIRCLE ( 'NONE', #59, 0.4999500000000000610 ) ;
#337 =( GEOMETRIC_REPRESENTATION_CONTEXT ( 3 ) GLOBAL_UNCERTAINTY_ASSIGNED_CONTEXT ( ( #142 ) ) GLOBAL_UNIT_ASSIGNED_CONTEXT ( ( #281, #201, #97 ) ) REPRESENTATION_CONTEXT ( 'NONE', 'WORKASPACE' ) );
#338 = CIRCLE ( 'NONE', #226, 0.4999500000000001720 ) ;
#339 = DIRECTION ( 'NONE',  ( 1.000000000000000000, 0.0000000000000000000, 0.0000000000000000000 ) ) ;
#340 = SURFACE_STYLE_USAGE ( .BOTH. , #263 ) ;
#341 = EDGE_CURVE ( 'NONE', #256, #253, #349, .T. ) ;
#342 = LINE ( 'NONE', #314, #161 ) ;
#343 = ORIENTED_EDGE ( 'NONE', *, *, #341, .F. ) ;
#344 = DIRECTION ( 'NONE',  ( 0.0000000000000000000, 0.0000000000000000000, -1.000000000000000000 ) ) ;
#345 = ORIENTED_EDGE ( 'NONE', *, *, #89, .F. ) ;
#346 = PRODUCT_RELATED_PRODUCT_CATEGORY ( 'part', '', ( #215 ) ) ;
#347 = DIRECTION ( 'NONE',  ( -0.0000000000000000000, -0.0000000000000000000, -1.000000000000000000 ) ) ;
#348 = ORIENTED_EDGE ( 'NONE', *, *, #241, .T. ) ;
#349 = LINE ( 'NONE', #217, #102 ) ;
ENDSEC;
END-ISO-10303-21;
