ISO-10303-21;
HEADER;
FILE_DESCRIPTION (( 'STEP AP214' ),
    '1' );
FILE_NAME ('84086.STEP',
    '2023-06-23T11:37:38',
    ( '' ),
    ( '' ),
    'SwSTEP 2.0',
    'SolidWorks 2023',
    '' );
FILE_SCHEMA (( 'AUTOMOTIVE_DESIGN' ));
ENDSEC;

DATA;
#1 = CARTESIAN_POINT ( 'NONE',  ( -0.1250000000000000278, 0.6623797632095812515, 0.000000000000000000 ) ) ;
#2 = SURFACE_STYLE_USAGE ( .BOTH. , #278 ) ;
#3 = ADVANCED_FACE ( 'NONE', ( #358 ), #310, .T. ) ;
#4 =( CONVERSION_BASED_UNIT ( 'INCH', #252 ) LENGTH_UNIT ( ) NAMED_UNIT ( #10 ) );
#5 = PRESENTATION_STYLE_ASSIGNMENT (( #2 ) ) ;
#6 = SURFACE_SIDE_STYLE ('',( #341 ) ) ;
#7 = DIRECTION ( 'NONE',  ( -1.000000000000000000, 0.000000000000000000, 0.000000000000000000 ) ) ;
#8 = UNCERTAINTY_MEASURE_WITH_UNIT (LENGTH_MEASURE( 1.000000000000000082E-05 ), #208, 'distance_accuracy_value', 'NONE');
#9 = DIRECTION ( 'NONE',  ( -2.799192683765378812E-17, 1.000000000000000000, -0.000000000000000000 ) ) ;
#10 = DIMENSIONAL_EXPONENTS ( 1.000000000000000000, 0.000000000000000000, 0.000000000000000000, 0.000000000000000000, 0.000000000000000000, 0.000000000000000000, 0.000000000000000000 ) ;
#11 = CLOSED_SHELL ( 'NONE', ( #234, #338, #3, #336 ) ) ;
#12 = MECHANICAL_DESIGN_GEOMETRIC_PRESENTATION_REPRESENTATION (  '', ( #16 ), #207 ) ;
#13 = FACE_OUTER_BOUND ( 'NONE', #331, .T. ) ;
#14 = DIRECTION ( 'NONE',  ( -2.799192683765378812E-17, 1.000000000000000000, -0.000000000000000000 ) ) ;
#15 = AXIS2_PLACEMENT_3D ( 'NONE', #87, #14, #116 ) ;
#16 = STYLED_ITEM ( 'NONE', ( #65 ), #230 ) ;
#17 = DIRECTION ( 'NONE',  ( 0.000000000000000000, 0.000000000000000000, -1.000000000000000000 ) ) ;
#18 = SURFACE_STYLE_FILL_AREA ( #148 ) ;
#19 = ORIENTED_EDGE ( 'NONE', *, *, #258, .F. ) ;
#20 = CARTESIAN_POINT ( 'NONE',  ( -0.03125000000000000000, 0.3125000000000000000, 0.000000000000000000 ) ) ;
#21 =( NAMED_UNIT ( * ) PLANE_ANGLE_UNIT ( ) SI_UNIT ( $, .RADIAN. ) );
#22 = EDGE_LOOP ( 'NONE', ( #125, #210, #307, #194 ) ) ;
#23 = AXIS2_PLACEMENT_3D ( 'NONE', #321, #264, #17 ) ;
#24 = LENGTH_MEASURE_WITH_UNIT ( LENGTH_MEASURE( 0.02539999999999999897 ), #95 );
#25 = PRODUCT_RELATED_PRODUCT_CATEGORY ( 'part', '', ( #344 ) ) ;
#26 =( LENGTH_UNIT ( ) NAMED_UNIT ( * ) SI_UNIT ( $, .METRE. ) );
#27 = ORIENTED_EDGE ( 'NONE', *, *, #298, .T. ) ;
#28 = DIRECTION ( 'NONE',  ( -1.000000000000000000, 0.000000000000000000, 0.000000000000000000 ) ) ;
#29 = ORIENTED_EDGE ( 'NONE', *, *, #245, .T. ) ;
#30 = UNCERTAINTY_MEASURE_WITH_UNIT (LENGTH_MEASURE( 1.000000000000000082E-05 ), #98, 'distance_accuracy_value', 'NONE');
#31 = CARTESIAN_POINT ( 'NONE',  ( 0.1250000000000000000, 0.6623797632095812515, 1.530808498934191817E-17 ) ) ;
#32 = AXIS2_PLACEMENT_3D ( 'NONE', #249, #96, #28 ) ;
#33 = DIRECTION ( 'NONE',  ( 2.799192683765378812E-17, -1.000000000000000000, 0.000000000000000000 ) ) ;
#34 = DIRECTION ( 'NONE',  ( -1.000000000000000000, 0.000000000000000000, 0.000000000000000000 ) ) ;
#35 = CARTESIAN_POINT ( 'NONE',  ( -0.1250000000000001388, 2.500000000000000000, 0.000000000000000000 ) ) ;
#36 = PRESENTATION_LAYER_ASSIGNMENT (  '', '', ( #243 ) ) ;
#37 = ADVANCED_FACE ( 'NONE', ( #129 ), #285, .T. ) ;
#38 = CARTESIAN_POINT ( 'NONE',  ( -6.123233995736766036E-17, 2.500000000000000000, 0.000000000000000000 ) ) ;
#39 =( NAMED_UNIT ( * ) SI_UNIT ( $, .STERADIAN. ) SOLID_ANGLE_UNIT ( ) );
#40 = SURFACE_SIDE_STYLE ('',( #18 ) ) ;
#41 =( GEOMETRIC_REPRESENTATION_CONTEXT ( 3 ) GLOBAL_UNCERTAINTY_ASSIGNED_CONTEXT ( ( #81 ) ) GLOBAL_UNIT_ASSIGNED_CONTEXT ( ( #4, #21, #159 ) ) REPRESENTATION_CONTEXT ( 'NONE', 'WORKASPACE' ) );
#42 = FACE_OUTER_BOUND ( 'NONE', #160, .T. ) ;
#43 = DIRECTION ( 'NONE',  ( -1.000000000000000000, 0.000000000000000000, 0.000000000000000000 ) ) ;
#44 =( LENGTH_UNIT ( ) NAMED_UNIT ( * ) SI_UNIT ( $, .METRE. ) );
#45 =( GEOMETRIC_REPRESENTATION_CONTEXT ( 3 ) GLOBAL_UNCERTAINTY_ASSIGNED_CONTEXT ( ( #115 ) ) GLOBAL_UNIT_ASSIGNED_CONTEXT ( ( #314, #56, #311 ) ) REPRESENTATION_CONTEXT ( 'NONE', 'WORKASPACE' ) );
#46 = ORIENTED_EDGE ( 'NONE', *, *, #166, .F. ) ;
#47 = DIRECTION ( 'NONE',  ( -2.799192683765378812E-17, 1.000000000000000000, -0.000000000000000000 ) ) ;
#48 = EDGE_LOOP ( 'NONE', ( #27, #277, #128, #71 ) ) ;
#49 = DIRECTION ( 'NONE',  ( -0.2588190451025214611, 0.9659258262890679791, 0.000000000000000000 ) ) ;
#50 = ORIENTED_EDGE ( 'NONE', *, *, #323, .T. ) ;
#51 =( NAMED_UNIT ( * ) PLANE_ANGLE_UNIT ( ) SI_UNIT ( $, .RADIAN. ) );
#52 = LINE ( 'NONE', #280, #193 ) ;
#53 = PRESENTATION_LAYER_ASSIGNMENT (  '', '', ( #225 ) ) ;
#54 = AXIS2_PLACEMENT_3D ( 'NONE', #224, #175, #198 ) ;
#55 = LINE ( 'NONE', #117, #265 ) ;
#56 =( NAMED_UNIT ( * ) PLANE_ANGLE_UNIT ( ) SI_UNIT ( $, .RADIAN. ) );
#57 = ADVANCED_FACE ( 'NONE', ( #83 ), #284, .T. ) ;
#58 = UNCERTAINTY_MEASURE_WITH_UNIT (LENGTH_MEASURE( 1.000000000000000082E-05 ), #359, 'distance_accuracy_value', 'NONE');
#59 = CLOSED_SHELL ( 'NONE', ( #203, #37, #229, #57, #89, #142 ) ) ;
#60 = PRESENTATION_LAYER_ASSIGNMENT (  '', '', ( #151 ) ) ;
#61 =( LENGTH_UNIT ( ) NAMED_UNIT ( * ) SI_UNIT ( $, .METRE. ) );
#62 =( NAMED_UNIT ( * ) SI_UNIT ( $, .STERADIAN. ) SOLID_ANGLE_UNIT ( ) );
#63 = CARTESIAN_POINT ( 'NONE',  ( 3.827021247335478772E-18, 0.3125000000000000000, 0.03125000000000000000 ) ) ;
#64 = PRODUCT_DEFINITION ( 'UNKNOWN', '', #292, #333 ) ;
#65 = PRESENTATION_STYLE_ASSIGNMENT (( #154 ) ) ;
#66 = CIRCLE ( 'NONE', #54, 0.03125000000000000000 ) ;
#67 = LENGTH_MEASURE_WITH_UNIT ( LENGTH_MEASURE( 0.02539999999999999897 ), #44 );
#68 = CARTESIAN_POINT ( 'NONE',  ( 0.000000000000000000, 0.000000000000000000, 0.000000000000000000 ) ) ;
#69 = ORIENTED_EDGE ( 'NONE', *, *, #197, .T. ) ;
#70 = AXIS2_PLACEMENT_3D ( 'NONE', #339, #256, #138 ) ;
#71 = ORIENTED_EDGE ( 'NONE', *, *, #315, .F. ) ;
#72 = VECTOR ( 'NONE', #302, 39.37007874015748143 ) ;
#73 = SURFACE_STYLE_FILL_AREA ( #215 ) ;
#74 = EDGE_LOOP ( 'NONE', ( #79, #104, #50, #46 ) ) ;
#75 = CARTESIAN_POINT ( 'NONE',  ( 7.582401355855259480E-33, 0.3125000000000000000, 0.000000000000000000 ) ) ;
#76 = CARTESIAN_POINT ( 'NONE',  ( 0.000000000000000000, 0.3125000000000000000, -0.03125000000000000000 ) ) ;
#77 = ORIENTED_EDGE ( 'NONE', *, *, #86, .F. ) ;
#78 = PRESENTATION_STYLE_ASSIGNMENT (( #167 ) ) ;
#79 = ORIENTED_EDGE ( 'NONE', *, *, #93, .F. ) ;
#80 = CIRCLE ( 'NONE', #23, 0.03125000000000000000 ) ;
#81 = UNCERTAINTY_MEASURE_WITH_UNIT (LENGTH_MEASURE( 1.000000000000000082E-05 ), #4, 'distance_accuracy_value', 'NONE');
#82 = DIMENSIONAL_EXPONENTS ( 1.000000000000000000, 0.000000000000000000, 0.000000000000000000, 0.000000000000000000, 0.000000000000000000, 0.000000000000000000, 0.000000000000000000 ) ;
#83 = FACE_OUTER_BOUND ( 'NONE', #102, .T. ) ;
#84 = MECHANICAL_DESIGN_GEOMETRIC_PRESENTATION_REPRESENTATION (  '', ( #243 ), #195 ) ;
#85 = DIRECTION ( 'NONE',  ( -2.799192683765378812E-17, 1.000000000000000000, -0.000000000000000000 ) ) ;
#86 = EDGE_CURVE ( 'NONE', #131, #335, #119, .T. ) ;
#87 = CARTESIAN_POINT ( 'NONE',  ( -9.793808733738228127E-18, 0.6623797632095812515, 0.000000000000000000 ) ) ;
#88 = CIRCLE ( 'NONE', #253, 0.1250000000000000278 ) ;
#89 = ADVANCED_FACE ( 'NONE', ( #260 ), #287, .T. ) ;
#90 = DIRECTION ( 'NONE',  ( -2.799192683765378812E-17, 1.000000000000000000, 0.000000000000000000 ) ) ;
#91 = PLANE ( 'NONE',  #322 ) ;
#92 = CIRCLE ( 'NONE', #120, 0.03125000000000000000 ) ;
#93 = EDGE_CURVE ( 'NONE', #184, #304, #55, .T. ) ;
#94 = DIRECTION ( 'NONE',  ( 1.000000000000000000, 0.000000000000000000, 0.000000000000000000 ) ) ;
#95 =( LENGTH_UNIT ( ) NAMED_UNIT ( * ) SI_UNIT ( $, .METRE. ) );
#96 = DIRECTION ( 'NONE',  ( -2.799192683765378812E-17, 1.000000000000000000, -0.000000000000000000 ) ) ;
#97 = ORIENTED_EDGE ( 'NONE', *, *, #153, .T. ) ;
#98 =( CONVERSION_BASED_UNIT ( 'INCH', #24 ) LENGTH_UNIT ( ) NAMED_UNIT ( #282 ) );
#99 = AXIS2_PLACEMENT_3D ( 'NONE', #231, #85, #290 ) ;
#100 = FILL_AREA_STYLE_COLOUR ( '', #223 ) ;
#101 = CIRCLE ( 'NONE', #145, 0.03125000000000000000 ) ;
#102 = EDGE_LOOP ( 'NONE', ( #330, #216, #251, #77 ) ) ;
#103 = FILL_AREA_STYLE_COLOUR ( '', #296 ) ;
#104 = ORIENTED_EDGE ( 'NONE', *, *, #147, .T. ) ;
#105 = UNCERTAINTY_MEASURE_WITH_UNIT (LENGTH_MEASURE( 1.000000000000000082E-05 ), #155, 'distance_accuracy_value', 'NONE');
#106 =( NAMED_UNIT ( * ) SI_UNIT ( $, .STERADIAN. ) SOLID_ANGLE_UNIT ( ) );
#107 = FACE_OUTER_BOUND ( 'NONE', #168, .T. ) ;
#108 = SURFACE_STYLE_FILL_AREA ( #164 ) ;
#109 = MANIFOLD_SOLID_BREP ( 'Revolve - Tool Body (Reduced Cut Diameter)', #59 ) ;
#110 = DIMENSIONAL_EXPONENTS ( 1.000000000000000000, 0.000000000000000000, 0.000000000000000000, 0.000000000000000000, 0.000000000000000000, 0.000000000000000000, 0.000000000000000000 ) ;
#111 =( LENGTH_UNIT ( ) NAMED_UNIT ( * ) SI_UNIT ( $, .METRE. ) );
#112 = PLANE ( 'NONE',  #238 ) ;
#113 = DIRECTION ( 'NONE',  ( -1.000000000000000000, 0.000000000000000000, 0.000000000000000000 ) ) ;
#114 = APPLICATION_CONTEXT ( 'automotive_design' ) ;
#115 = UNCERTAINTY_MEASURE_WITH_UNIT (LENGTH_MEASURE( 1.000000000000000082E-05 ), #314, 'distance_accuracy_value', 'NONE');
#116 = DIRECTION ( 'NONE',  ( -1.000000000000000000, 0.000000000000000000, 0.000000000000000000 ) ) ;
#117 = CARTESIAN_POINT ( 'NONE',  ( 3.827021247335478772E-18, 0.000000000000000000, 0.03125000000000000000 ) ) ;
#118 = EDGE_CURVE ( 'NONE', #124, #130, #286, .T. ) ;
#119 = CIRCLE ( 'NONE', #15, 0.1250000000000000278 ) ;
#120 = AXIS2_PLACEMENT_3D ( 'NONE', #183, #246, #332 ) ;
#121 =( GEOMETRIC_REPRESENTATION_CONTEXT ( 3 ) GLOBAL_UNCERTAINTY_ASSIGNED_CONTEXT ( ( #30 ) ) GLOBAL_UNIT_ASSIGNED_CONTEXT ( ( #98, #51, #269 ) ) REPRESENTATION_CONTEXT ( 'NONE', 'WORKASPACE' ) );
#122 = CARTESIAN_POINT ( 'NONE',  ( -6.123233995736766036E-17, 2.500000000000000000, 0.000000000000000000 ) ) ;
#123 = DIRECTION ( 'NONE',  ( 0.000000000000000000, 0.000000000000000000, -1.000000000000000000 ) ) ;
#124 = VERTEX_POINT ( 'NONE', #35 ) ;
#125 = ORIENTED_EDGE ( 'NONE', *, *, #275, .F. ) ;
#126 = EDGE_CURVE ( 'NONE', #221, #131, #283, .T. ) ;
#127 = FACE_OUTER_BOUND ( 'NONE', #357, .T. ) ;
#128 = ORIENTED_EDGE ( 'NONE', *, *, #158, .F. ) ;
#129 = FACE_OUTER_BOUND ( 'NONE', #48, .T. ) ;
#130 = VERTEX_POINT ( 'NONE', #201 ) ;
#131 = VERTEX_POINT ( 'NONE', #31 ) ;
#132 = APPLICATION_PROTOCOL_DEFINITION ( 'draft international standard', 'automotive_design', 1998, #114 ) ;
#133 = CARTESIAN_POINT ( 'NONE',  ( -0.1250000000000001110, 2.500000000000000000, 0.000000000000000000 ) ) ;
#134 = ORIENTED_EDGE ( 'NONE', *, *, #263, .F. ) ;
#135 = CARTESIAN_POINT ( 'NONE',  ( 0.000000000000000000, 0.000000000000000000, 0.000000000000000000 ) ) ;
#136 = SURFACE_STYLE_FILL_AREA ( #239 ) ;
#137 = ORIENTED_EDGE ( 'NONE', *, *, #158, .T. ) ;
#138 = DIRECTION ( 'NONE',  ( -1.000000000000000000, 0.000000000000000000, 0.000000000000000000 ) ) ;
#139 = AXIS2_PLACEMENT_3D ( 'NONE', #135, #169, #185 ) ;
#140 = AXIS2_PLACEMENT_3D ( 'NONE', #213, #186, #349 ) ;
#141 = PRESENTATION_STYLE_ASSIGNMENT (( #342 ) ) ;
#142 = ADVANCED_FACE ( 'NONE', ( #13 ), #112, .F. ) ;
#143 = CARTESIAN_POINT ( 'NONE',  ( 0.1250000000000000000, 2.500000000000000000, 0.000000000000000000 ) ) ;
#144 = DIRECTION ( 'NONE',  ( -2.799192683765378812E-17, 1.000000000000000000, -0.000000000000000000 ) ) ;
#145 = AXIS2_PLACEMENT_3D ( 'NONE', #334, #306, #329 ) ;
#146 = FILL_AREA_STYLE ('',( #200 ) ) ;
#147 = EDGE_CURVE ( 'NONE', #184, #281, #66, .T. ) ;
#148 = FILL_AREA_STYLE ('',( #237 ) ) ;
#149 =( NAMED_UNIT ( * ) PLANE_ANGLE_UNIT ( ) SI_UNIT ( $, .RADIAN. ) );
#150 = STYLED_ITEM ( 'NONE', ( #141 ), #109 ) ;
#151 = STYLED_ITEM ( 'NONE', ( #78 ), #336 ) ;
#152 = DIRECTION ( 'NONE',  ( 0.000000000000000000, 0.000000000000000000, -1.000000000000000000 ) ) ;
#153 = EDGE_CURVE ( 'NONE', #130, #124, #318, .T. ) ;
#154 = SURFACE_STYLE_USAGE ( .BOTH. , #40 ) ;
#155 =( CONVERSION_BASED_UNIT ( 'INCH', #67 ) LENGTH_UNIT ( ) NAMED_UNIT ( #82 ) );
#156 = AXIS2_PLACEMENT_3D ( 'NONE', #122, #346, #43 ) ;
#157 = DIRECTION ( 'NONE',  ( -0.000000000000000000, -1.000000000000000000, -0.000000000000000000 ) ) ;
#158 = EDGE_CURVE ( 'NONE', #335, #131, #88, .T. ) ;
#159 =( NAMED_UNIT ( * ) SI_UNIT ( $, .STERADIAN. ) SOLID_ANGLE_UNIT ( ) );
#160 = EDGE_LOOP ( 'NONE', ( #69, #353, #219, #218 ) ) ;
#161 = CARTESIAN_POINT ( 'NONE',  ( 3.827021247335478772E-18, 0.000000000000000000, 0.03125000000000000000 ) ) ;
#162 = APPLICATION_CONTEXT ( 'automotive_design' ) ;
#163 = ORIENTED_EDGE ( 'NONE', *, *, #275, .T. ) ;
#164 = FILL_AREA_STYLE ('',( #103 ) ) ;
#165 = COLOUR_RGB ( '',0.7921568627450980005, 0.8196078431372548767, 0.9333333333333333481 ) ;
#166 = EDGE_CURVE ( 'NONE', #304, #271, #233, .T. ) ;
#167 = SURFACE_STYLE_USAGE ( .BOTH. , #192 ) ;
#168 = EDGE_LOOP ( 'NONE', ( #29, #211 ) ) ;
#169 = DIRECTION ( 'NONE',  ( -0.000000000000000000, -1.000000000000000000, -0.000000000000000000 ) ) ;
#170 = AXIS2_PLACEMENT_3D ( 'NONE', #75, #189, #248 ) ;
#171 = DIRECTION ( 'NONE',  ( -2.799192683765378812E-17, 1.000000000000000000, -0.000000000000000000 ) ) ;
#172 = PRESENTATION_LAYER_ASSIGNMENT (  '', '', ( #343 ) ) ;
#173 = AXIS2_PLACEMENT_3D ( 'NONE', #38, #171, #7 ) ;
#174 = PRESENTATION_STYLE_ASSIGNMENT (( #196 ) ) ;
#175 = DIRECTION ( 'NONE',  ( -0.000000000000000000, -1.000000000000000000, -0.000000000000000000 ) ) ;
#176 = COLOUR_RGB ( '',1.000000000000000000, 0.000000000000000000, 0.000000000000000000 ) ;
#177 = AXIS2_PLACEMENT_3D ( 'NONE', #68, #179, #123 ) ;
#178 = SHAPE_DEFINITION_REPRESENTATION ( #294, #327 ) ;
#179 = DIRECTION ( 'NONE',  ( 0.000000000000000000, -1.000000000000000000, -0.000000000000000000 ) ) ;
#180 = ORIENTED_EDGE ( 'NONE', *, *, #118, .T. ) ;
#181 = LENGTH_MEASURE_WITH_UNIT ( LENGTH_MEASURE( 0.02539999999999999897 ), #61 );
#182 = CIRCLE ( 'NONE', #32, 0.03125000000000000000 ) ;
#183 = CARTESIAN_POINT ( 'NONE',  ( 0.000000000000000000, 0.000000000000000000, 0.000000000000000000 ) ) ;
#184 = VERTEX_POINT ( 'NONE', #63 ) ;
#185 = DIRECTION ( 'NONE',  ( 0.000000000000000000, 0.000000000000000000, -1.000000000000000000 ) ) ;
#186 = DIRECTION ( 'NONE',  ( 0.000000000000000000, 1.000000000000000000, 0.000000000000000000 ) ) ;
#187 = SURFACE_SIDE_STYLE ('',( #73 ) ) ;
#188 = EDGE_LOOP ( 'NONE', ( #351, #134 ) ) ;
#189 = DIRECTION ( 'NONE',  ( -2.799192683765378812E-17, 1.000000000000000000, -0.000000000000000000 ) ) ;
#190 = CARTESIAN_POINT ( 'NONE',  ( 0.000000000000000000, 0.000000000000000000, 0.000000000000000000 ) ) ;
#191 =( NAMED_UNIT ( * ) PLANE_ANGLE_UNIT ( ) SI_UNIT ( $, .RADIAN. ) );
#192 = SURFACE_SIDE_STYLE ('',( #136 ) ) ;
#193 = VECTOR ( 'NONE', #157, 39.37007874015748143 ) ;
#194 = ORIENTED_EDGE ( 'NONE', *, *, #153, .F. ) ;
#195 =( GEOMETRIC_REPRESENTATION_CONTEXT ( 3 ) GLOBAL_UNCERTAINTY_ASSIGNED_CONTEXT ( ( #58 ) ) GLOBAL_UNIT_ASSIGNED_CONTEXT ( ( #359, #301, #106 ) ) REPRESENTATION_CONTEXT ( 'NONE', 'WORKASPACE' ) );
#196 = SURFACE_STYLE_USAGE ( .BOTH. , #187 ) ;
#197 = EDGE_CURVE ( 'NONE', #281, #184, #80, .T. ) ;
#198 = DIRECTION ( 'NONE',  ( 0.000000000000000000, 0.000000000000000000, -1.000000000000000000 ) ) ;
#199 = MECHANICAL_DESIGN_GEOMETRIC_PRESENTATION_REPRESENTATION (  '', ( #150 ), #45 ) ;
#200 = FILL_AREA_STYLE_COLOUR ( '', #312 ) ;
#201 = CARTESIAN_POINT ( 'NONE',  ( 0.1250000000000000278, 2.500000000000000000, 1.530808498934192125E-17 ) ) ;
#202 = DIRECTION ( 'NONE',  ( -0.000000000000000000, -1.000000000000000000, -0.000000000000000000 ) ) ;
#203 = ADVANCED_FACE ( 'NONE', ( #236 ), #324, .T. ) ;
#204 = MECHANICAL_DESIGN_GEOMETRIC_PRESENTATION_REPRESENTATION (  '', ( #225 ), #232 ) ;
#205 = AXIS2_PLACEMENT_3D ( 'NONE', #340, #144, #34 ) ;
#206 = CARTESIAN_POINT ( 'NONE',  ( 0.03125000000000000000, 0.3125000000000000000, 9.567553118338697316E-18 ) ) ;
#207 =( GEOMETRIC_REPRESENTATION_CONTEXT ( 3 ) GLOBAL_UNCERTAINTY_ASSIGNED_CONTEXT ( ( #8 ) ) GLOBAL_UNIT_ASSIGNED_CONTEXT ( ( #208, #295, #39 ) ) REPRESENTATION_CONTEXT ( 'NONE', 'WORKASPACE' ) );
#208 =( CONVERSION_BASED_UNIT ( 'INCH', #267 ) LENGTH_UNIT ( ) NAMED_UNIT ( #316 ) );
#209 = PRODUCT_CONTEXT ( 'NONE', #114, 'mechanical' ) ;
#210 = ORIENTED_EDGE ( 'NONE', *, *, #86, .T. ) ;
#211 = ORIENTED_EDGE ( 'NONE', *, *, #166, .T. ) ;
#212 =( NAMED_UNIT ( * ) SI_UNIT ( $, .STERADIAN. ) SOLID_ANGLE_UNIT ( ) );
#213 = CARTESIAN_POINT ( 'NONE',  ( 0.000000000000000000, 0.3125000000000000000, 0.000000000000000000 ) ) ;
#214 = VECTOR ( 'NONE', #49, 39.37007874015748143 ) ;
#215 = FILL_AREA_STYLE ('',( #100 ) ) ;
#216 = ORIENTED_EDGE ( 'NONE', *, *, #263, .T. ) ;
#217 = DIRECTION ( 'NONE',  ( 0.000000000000000000, 0.000000000000000000, -1.000000000000000000 ) ) ;
#218 = ORIENTED_EDGE ( 'NONE', *, *, #323, .F. ) ;
#219 = ORIENTED_EDGE ( 'NONE', *, *, #245, .F. ) ;
#220 = CARTESIAN_POINT ( 'NONE',  ( 0.000000000000000000, 0.000000000000000000, -0.03125000000000000000 ) ) ;
#221 = VERTEX_POINT ( 'NONE', #206 ) ;
#222 =( CONVERSION_BASED_UNIT ( 'INCH', #337 ) LENGTH_UNIT ( ) NAMED_UNIT ( #255 ) );
#223 = COLOUR_RGB ( '',1.000000000000000000, 0.000000000000000000, 0.000000000000000000 ) ;
#224 = CARTESIAN_POINT ( 'NONE',  ( 0.000000000000000000, 0.3125000000000000000, 0.000000000000000000 ) ) ;
#225 = STYLED_ITEM ( 'NONE', ( #5 ), #3 ) ;
#226 = CARTESIAN_POINT ( 'NONE',  ( 0.000000000000000000, 0.000000000000000000, 0.000000000000000000 ) ) ;
#227 = MECHANICAL_DESIGN_GEOMETRIC_PRESENTATION_REPRESENTATION (  '', ( #151 ), #41 ) ;
#228 = CARTESIAN_POINT ( 'NONE',  ( 0.03125000000000000000, 0.3125000000000000000, 3.827021247335478772E-18 ) ) ;
#229 = ADVANCED_FACE ( 'NONE', ( #320 ), #91, .F. ) ;
#230 = MANIFOLD_SOLID_BREP ( 'Revolve - Cutting Edge', #11 ) ;
#231 = CARTESIAN_POINT ( 'NONE',  ( -6.123233995736766036E-17, 2.500000000000000000, 0.000000000000000000 ) ) ;
#232 =( GEOMETRIC_REPRESENTATION_CONTEXT ( 3 ) GLOBAL_UNCERTAINTY_ASSIGNED_CONTEXT ( ( #259 ) ) GLOBAL_UNIT_ASSIGNED_CONTEXT ( ( #222, #191, #212 ) ) REPRESENTATION_CONTEXT ( 'NONE', 'WORKASPACE' ) );
#233 = CIRCLE ( 'NONE', #300, 0.03125000000000000000 ) ;
#234 = ADVANCED_FACE ( 'NONE', ( #42 ), #268, .T. ) ;
#235 = FILL_AREA_STYLE_COLOUR ( '', #176 ) ;
#236 = FACE_OUTER_BOUND ( 'NONE', #247, .T. ) ;
#237 = FILL_AREA_STYLE_COLOUR ( '', #165 ) ;
#238 = AXIS2_PLACEMENT_3D ( 'NONE', #143, #33, #254 ) ;
#239 = FILL_AREA_STYLE ('',( #274 ) ) ;
#240 = DIRECTION ( 'NONE',  ( 0.000000000000000000, 0.000000000000000000, 1.000000000000000000 ) ) ;
#241 = PLANE ( 'NONE',  #140 ) ;
#242 = ORIENTED_EDGE ( 'NONE', *, *, #197, .F. ) ;
#243 = STYLED_ITEM ( 'NONE', ( #174 ), #338 ) ;
#244 = AXIS2_PLACEMENT_3D ( 'NONE', #273, #240, #94 ) ;
#245 = EDGE_CURVE ( 'NONE', #271, #304, #92, .T. ) ;
#246 = DIRECTION ( 'NONE',  ( -0.000000000000000000, -1.000000000000000000, -0.000000000000000000 ) ) ;
#247 = EDGE_LOOP ( 'NONE', ( #137, #163, #303, #19 ) ) ;
#248 = DIRECTION ( 'NONE',  ( -1.000000000000000000, 0.000000000000000000, 0.000000000000000000 ) ) ;
#249 = CARTESIAN_POINT ( 'NONE',  ( 7.582401355855259480E-33, 0.3125000000000000000, 0.000000000000000000 ) ) ;
#250 = DIMENSIONAL_EXPONENTS ( 1.000000000000000000, 0.000000000000000000, 0.000000000000000000, 0.000000000000000000, 0.000000000000000000, 0.000000000000000000, 0.000000000000000000 ) ;
#251 = ORIENTED_EDGE ( 'NONE', *, *, #315, .T. ) ;
#252 = LENGTH_MEASURE_WITH_UNIT ( LENGTH_MEASURE( 0.02539999999999999897 ), #26 );
#253 = AXIS2_PLACEMENT_3D ( 'NONE', #257, #9, #113 ) ;
#254 = DIRECTION ( 'NONE',  ( 1.000000000000000000, 2.799192683765378812E-17, 0.000000000000000000 ) ) ;
#255 = DIMENSIONAL_EXPONENTS ( 1.000000000000000000, 0.000000000000000000, 0.000000000000000000, 0.000000000000000000, 0.000000000000000000, 0.000000000000000000, 0.000000000000000000 ) ;
#256 = DIRECTION ( 'NONE',  ( -2.799192683765378812E-17, 1.000000000000000000, -0.000000000000000000 ) ) ;
#257 = CARTESIAN_POINT ( 'NONE',  ( -9.793808733738228127E-18, 0.6623797632095812515, 0.000000000000000000 ) ) ;
#258 = EDGE_CURVE ( 'NONE', #335, #124, #309, .T. ) ;
#259 = UNCERTAINTY_MEASURE_WITH_UNIT (LENGTH_MEASURE( 1.000000000000000082E-05 ), #222, 'distance_accuracy_value', 'NONE');
#260 = FACE_OUTER_BOUND ( 'NONE', #22, .T. ) ;
#261 = MECHANICAL_DESIGN_GEOMETRIC_PRESENTATION_REPRESENTATION (  '', ( #343 ), #266 ) ;
#262 =( LENGTH_UNIT ( ) NAMED_UNIT ( * ) SI_UNIT ( $, .METRE. ) );
#263 = EDGE_CURVE ( 'NONE', #221, #355, #182, .T. ) ;
#264 = DIRECTION ( 'NONE',  ( -0.000000000000000000, -1.000000000000000000, -0.000000000000000000 ) ) ;
#265 = VECTOR ( 'NONE', #202, 39.37007874015748143 ) ;
#266 =( GEOMETRIC_REPRESENTATION_CONTEXT ( 3 ) GLOBAL_UNCERTAINTY_ASSIGNED_CONTEXT ( ( #105 ) ) GLOBAL_UNIT_ASSIGNED_CONTEXT ( ( #155, #149, #62 ) ) REPRESENTATION_CONTEXT ( 'NONE', 'WORKASPACE' ) );
#267 = LENGTH_MEASURE_WITH_UNIT ( LENGTH_MEASURE( 0.02539999999999999897 ), #262 );
#268 = CYLINDRICAL_SURFACE ( 'NONE', #348, 0.03125000000000000000 ) ;
#269 =( NAMED_UNIT ( * ) SI_UNIT ( $, .STERADIAN. ) SOLID_ANGLE_UNIT ( ) );
#270 = DIRECTION ( 'NONE',  ( -1.000000000000000000, -2.799192683765378812E-17, 0.000000000000000000 ) ) ;
#271 = VERTEX_POINT ( 'NONE', #220 ) ;
#272 =( LENGTH_UNIT ( ) NAMED_UNIT ( * ) SI_UNIT ( $, .METRE. ) );
#273 = CARTESIAN_POINT ( 'NONE',  ( 0.000000000000000000, 0.000000000000000000, 0.000000000000000000 ) ) ;
#274 = FILL_AREA_STYLE_COLOUR ( '', #313 ) ;
#275 = EDGE_CURVE ( 'NONE', #131, #130, #276, .T. ) ;
#276 = LINE ( 'NONE', #352, #308 ) ;
#277 = ORIENTED_EDGE ( 'NONE', *, *, #126, .T. ) ;
#278 = SURFACE_SIDE_STYLE ('',( #108 ) ) ;
#279 = PRESENTATION_LAYER_ASSIGNMENT (  '', '', ( #16 ) ) ;
#280 = CARTESIAN_POINT ( 'NONE',  ( 0.000000000000000000, 0.000000000000000000, -0.03125000000000000000 ) ) ;
#281 = VERTEX_POINT ( 'NONE', #76 ) ;
#282 = DIMENSIONAL_EXPONENTS ( 1.000000000000000000, 0.000000000000000000, 0.000000000000000000, 0.000000000000000000, 0.000000000000000000, 0.000000000000000000, 0.000000000000000000 ) ;
#283 = LINE ( 'NONE', #228, #291 ) ;
#284 = CONICAL_SURFACE ( 'NONE', #70, 0.03125000000000000000, 0.2617993877991501850 ) ;
#285 = CONICAL_SURFACE ( 'NONE', #170, 0.03125000000000000000, 0.2617993877991501850 ) ;
#286 = CIRCLE ( 'NONE', #205, 0.1250000000000000555 ) ;
#287 = CYLINDRICAL_SURFACE ( 'NONE', #99, 0.1250000000000000278 ) ;
#288 = DIRECTION ( 'NONE',  ( 0.2588190451025214611, 0.9659258262890679791, 3.169619151431773569E-17 ) ) ;
#289 = LENGTH_MEASURE_WITH_UNIT ( LENGTH_MEASURE( 0.02539999999999999897 ), #111 );
#290 = DIRECTION ( 'NONE',  ( -1.000000000000000000, 0.000000000000000000, 0.000000000000000000 ) ) ;
#291 = VECTOR ( 'NONE', #288, 39.37007874015748143 ) ;
#292 = PRODUCT_DEFINITION_FORMATION_WITH_SPECIFIED_SOURCE ( 'ANY', '', #344, .NOT_KNOWN. ) ;
#293 = SURFACE_STYLE_USAGE ( .BOTH. , #317 ) ;
#294 = PRODUCT_DEFINITION_SHAPE ( 'NONE', 'NONE',  #64 ) ;
#295 =( NAMED_UNIT ( * ) PLANE_ANGLE_UNIT ( ) SI_UNIT ( $, .RADIAN. ) );
#296 = COLOUR_RGB ( '',1.000000000000000000, 0.000000000000000000, 0.000000000000000000 ) ;
#297 = PRESENTATION_STYLE_ASSIGNMENT (( #293 ) ) ;
#298 = EDGE_CURVE ( 'NONE', #355, #221, #101, .T. ) ;
#299 = LINE ( 'NONE', #20, #214 ) ;
#300 = AXIS2_PLACEMENT_3D ( 'NONE', #226, #347, #152 ) ;
#301 =( NAMED_UNIT ( * ) PLANE_ANGLE_UNIT ( ) SI_UNIT ( $, .RADIAN. ) );
#302 = DIRECTION ( 'NONE',  ( -2.799192683765378812E-17, 1.000000000000000000, -0.000000000000000000 ) ) ;
#303 = ORIENTED_EDGE ( 'NONE', *, *, #118, .F. ) ;
#304 = VERTEX_POINT ( 'NONE', #161 ) ;
#305 = CARTESIAN_POINT ( 'NONE',  ( -0.03125000000000000000, 0.3125000000000000000, 0.000000000000000000 ) ) ;
#306 = DIRECTION ( 'NONE',  ( -2.799192683765378812E-17, 1.000000000000000000, -0.000000000000000000 ) ) ;
#307 = ORIENTED_EDGE ( 'NONE', *, *, #258, .T. ) ;
#308 = VECTOR ( 'NONE', #47, 39.37007874015748143 ) ;
#309 = LINE ( 'NONE', #133, #72 ) ;
#310 = CYLINDRICAL_SURFACE ( 'NONE', #139, 0.03125000000000000000 ) ;
#311 =( NAMED_UNIT ( * ) SI_UNIT ( $, .STERADIAN. ) SOLID_ANGLE_UNIT ( ) );
#312 = COLOUR_RGB ( '',0.7921568627450980005, 0.8196078431372548767, 0.9333333333333333481 ) ;
#313 = COLOUR_RGB ( '',1.000000000000000000, 0.000000000000000000, 0.000000000000000000 ) ;
#314 =( CONVERSION_BASED_UNIT ( 'INCH', #289 ) LENGTH_UNIT ( ) NAMED_UNIT ( #110 ) );
#315 = EDGE_CURVE ( 'NONE', #355, #335, #299, .T. ) ;
#316 = DIMENSIONAL_EXPONENTS ( 1.000000000000000000, 0.000000000000000000, 0.000000000000000000, 0.000000000000000000, 0.000000000000000000, 0.000000000000000000, 0.000000000000000000 ) ;
#317 = SURFACE_SIDE_STYLE ('',( #345 ) ) ;
#318 = CIRCLE ( 'NONE', #173, 0.1250000000000000555 ) ;
#319 = FILL_AREA_STYLE ('',( #235 ) ) ;
#320 = FACE_OUTER_BOUND ( 'NONE', #188, .T. ) ;
#321 = CARTESIAN_POINT ( 'NONE',  ( 0.000000000000000000, 0.3125000000000000000, 0.000000000000000000 ) ) ;
#322 = AXIS2_PLACEMENT_3D ( 'NONE', #350, #90, #270 ) ;
#323 = EDGE_CURVE ( 'NONE', #281, #271, #52, .T. ) ;
#324 = CYLINDRICAL_SURFACE ( 'NONE', #156, 0.1250000000000000278 ) ;
#325 = APPLICATION_PROTOCOL_DEFINITION ( 'draft international standard', 'automotive_design', 1998, #162 ) ;
#326 = PLANE ( 'NONE',  #177 ) ;
#327 = ADVANCED_BREP_SHAPE_REPRESENTATION ( '84086', ( #230, #109, #244 ), #121 ) ;
#328 = ORIENTED_EDGE ( 'NONE', *, *, #147, .F. ) ;
#329 = DIRECTION ( 'NONE',  ( -1.000000000000000000, 0.000000000000000000, 0.000000000000000000 ) ) ;
#330 = ORIENTED_EDGE ( 'NONE', *, *, #126, .F. ) ;
#331 = EDGE_LOOP ( 'NONE', ( #180, #97 ) ) ;
#332 = DIRECTION ( 'NONE',  ( 0.000000000000000000, 0.000000000000000000, -1.000000000000000000 ) ) ;
#333 = PRODUCT_DEFINITION_CONTEXT ( 'detailed design', #162, 'design' ) ;
#334 = CARTESIAN_POINT ( 'NONE',  ( 7.582401355855259480E-33, 0.3125000000000000000, 0.000000000000000000 ) ) ;
#335 = VERTEX_POINT ( 'NONE', #1 ) ;
#336 = ADVANCED_FACE ( 'NONE', ( #107 ), #326, .T. ) ;
#337 = LENGTH_MEASURE_WITH_UNIT ( LENGTH_MEASURE( 0.02539999999999999897 ), #272 );
#338 = ADVANCED_FACE ( 'NONE', ( #127 ), #241, .T. ) ;
#339 = CARTESIAN_POINT ( 'NONE',  ( 7.582401355855259480E-33, 0.3125000000000000000, 0.000000000000000000 ) ) ;
#340 = CARTESIAN_POINT ( 'NONE',  ( -6.123233995736766036E-17, 2.500000000000000000, 0.000000000000000000 ) ) ;
#341 = SURFACE_STYLE_FILL_AREA ( #146 ) ;
#342 = SURFACE_STYLE_USAGE ( .BOTH. , #6 ) ;
#343 = STYLED_ITEM ( 'NONE', ( #297 ), #234 ) ;
#344 = PRODUCT ( '84086', '84086', '', ( #209 ) ) ;
#345 = SURFACE_STYLE_FILL_AREA ( #319 ) ;
#346 = DIRECTION ( 'NONE',  ( -2.799192683765378812E-17, 1.000000000000000000, -0.000000000000000000 ) ) ;
#347 = DIRECTION ( 'NONE',  ( -0.000000000000000000, -1.000000000000000000, -0.000000000000000000 ) ) ;
#348 = AXIS2_PLACEMENT_3D ( 'NONE', #190, #354, #217 ) ;
#349 = DIRECTION ( 'NONE',  ( 0.000000000000000000, -0.000000000000000000, 1.000000000000000000 ) ) ;
#350 = CARTESIAN_POINT ( 'NONE',  ( 1.224293700132128738E-35, 0.3125000000000000000, 0.000000000000000000 ) ) ;
#351 = ORIENTED_EDGE ( 'NONE', *, *, #298, .F. ) ;
#352 = CARTESIAN_POINT ( 'NONE',  ( 0.1249999999999999584, 2.500000000000000000, 1.530808498934191817E-17 ) ) ;
#353 = ORIENTED_EDGE ( 'NONE', *, *, #93, .T. ) ;
#354 = DIRECTION ( 'NONE',  ( -0.000000000000000000, -1.000000000000000000, -0.000000000000000000 ) ) ;
#355 = VERTEX_POINT ( 'NONE', #305 ) ;
#356 = PRESENTATION_LAYER_ASSIGNMENT (  '', '', ( #150 ) ) ;
#357 = EDGE_LOOP ( 'NONE', ( #242, #328 ) ) ;
#358 = FACE_OUTER_BOUND ( 'NONE', #74, .T. ) ;
#359 =( CONVERSION_BASED_UNIT ( 'INCH', #181 ) LENGTH_UNIT ( ) NAMED_UNIT ( #250 ) );
ENDSEC;
END-ISO-10303-21;
