ISO-10303-21;
HEADER;
FILE_DESCRIPTION (( 'STEP AP214' ),
    '1' );
FILE_NAME ('00032.STEP',
    '2023-06-22T14:02:18',
    ( '' ),
    ( '' ),
    'SwSTEP 2.0',
    'SolidWorks 2023',
    '' );
FILE_SCHEMA (( 'AUTOMOTIVE_DESIGN' ));
ENDSEC;

DATA;
#1 = CARTESIAN_POINT ( 'NONE',  ( 0.000000000000000000, 0.000000000000000000, 0.000000000000000000 ) ) ;
#2 = CIRCLE ( 'NONE', #165, 0.06250000000000000000 ) ;
#3 = PRODUCT_DEFINITION_FORMATION_WITH_SPECIFIED_SOURCE ( 'ANY', '', #111, .NOT_KNOWN. ) ;
#4 = DIRECTION ( 'NONE',  ( -3.768143997376469510E-17, 1.000000000000000000, -0.000000000000000000 ) ) ;
#5 = CARTESIAN_POINT ( 'NONE',  ( 7.654042494670957545E-18, 0.000000000000000000, 0.06250000000000000000 ) ) ;
#6 = COLOUR_RGB ( '',0.7921568627450980005, 0.8196078431372548767, 0.9333333333333333481 ) ;
#7 = FACE_OUTER_BOUND ( 'NONE', #202, .T. ) ;
#8 = DIRECTION ( 'NONE',  ( -3.768143997376469510E-17, 1.000000000000000000, -0.000000000000000000 ) ) ;
#9 = SURFACE_STYLE_USAGE ( .BOTH. , #63 ) ;
#10 = DIMENSIONAL_EXPONENTS ( 1.000000000000000000, 0.000000000000000000, 0.000000000000000000, 0.000000000000000000, 0.000000000000000000, 0.000000000000000000, 0.000000000000000000 ) ;
#11 = CIRCLE ( 'NONE', #93, 0.06250000000000000000 ) ;
#12 = CARTESIAN_POINT ( 'NONE',  ( -6.123233995736763571E-17, 2.000000000000000000, 0.000000000000000000 ) ) ;
#13 =( GEOMETRIC_REPRESENTATION_CONTEXT ( 3 ) GLOBAL_UNCERTAINTY_ASSIGNED_CONTEXT ( ( #68 ) ) GLOBAL_UNIT_ASSIGNED_CONTEXT ( ( #299, #155, #249 ) ) REPRESENTATION_CONTEXT ( 'NONE', 'WORKASPACE' ) );
#14 = DIMENSIONAL_EXPONENTS ( 1.000000000000000000, 0.000000000000000000, 0.000000000000000000, 0.000000000000000000, 0.000000000000000000, 0.000000000000000000, 0.000000000000000000 ) ;
#15 = FILL_AREA_STYLE ('',( #270 ) ) ;
#16 = ADVANCED_FACE ( 'NONE', ( #179 ), #117, .T. ) ;
#17 = LENGTH_MEASURE_WITH_UNIT ( LENGTH_MEASURE( 0.02539999999999999897 ), #46 );
#18 = AXIS2_PLACEMENT_3D ( 'NONE', #292, #8, #263 ) ;
#19 = AXIS2_PLACEMENT_3D ( 'NONE', #216, #171, #62 ) ;
#20 = EDGE_CURVE ( 'NONE', #73, #116, #99, .T. ) ;
#21 = DIRECTION ( 'NONE',  ( 1.000000000000000000, 0.000000000000000000, 0.000000000000000000 ) ) ;
#22 = DIRECTION ( 'NONE',  ( 0.000000000000000000, 1.000000000000000000, 0.000000000000000000 ) ) ;
#23 = CARTESIAN_POINT ( 'NONE',  ( 0.000000000000000000, 0.000000000000000000, 0.000000000000000000 ) ) ;
#24 =( NAMED_UNIT ( * ) PLANE_ANGLE_UNIT ( ) SI_UNIT ( $, .RADIAN. ) );
#25 =( NAMED_UNIT ( * ) SI_UNIT ( $, .STERADIAN. ) SOLID_ANGLE_UNIT ( ) );
#26 = MECHANICAL_DESIGN_GEOMETRIC_PRESENTATION_REPRESENTATION (  '', ( #197 ), #13 ) ;
#27 = ORIENTED_EDGE ( 'NONE', *, *, #38, .F. ) ;
#28 = ORIENTED_EDGE ( 'NONE', *, *, #185, .F. ) ;
#29 = FILL_AREA_STYLE ('',( #54 ) ) ;
#30 = CLOSED_SHELL ( 'NONE', ( #118, #225, #206, #133 ) ) ;
#31 = FACE_OUTER_BOUND ( 'NONE', #253, .T. ) ;
#32 = AXIS2_PLACEMENT_3D ( 'NONE', #168, #268, #269 ) ;
#33 = DIRECTION ( 'NONE',  ( -1.000000000000000000, 0.000000000000000000, 0.000000000000000000 ) ) ;
#34 = DIMENSIONAL_EXPONENTS ( 1.000000000000000000, 0.000000000000000000, 0.000000000000000000, 0.000000000000000000, 0.000000000000000000, 0.000000000000000000, 0.000000000000000000 ) ;
#35 = APPLICATION_CONTEXT ( 'automotive_design' ) ;
#36 = DIRECTION ( 'NONE',  ( -0.000000000000000000, -1.000000000000000000, -0.000000000000000000 ) ) ;
#37 = DIRECTION ( 'NONE',  ( -0.000000000000000000, -1.000000000000000000, -0.000000000000000000 ) ) ;
#38 = EDGE_CURVE ( 'NONE', #94, #306, #40, .T. ) ;
#39 = PRESENTATION_LAYER_ASSIGNMENT (  '', '', ( #44 ) ) ;
#40 = CIRCLE ( 'NONE', #265, 0.06250000000000005551 ) ;
#41 = PRESENTATION_STYLE_ASSIGNMENT (( #9 ) ) ;
#42 = DIMENSIONAL_EXPONENTS ( 1.000000000000000000, 0.000000000000000000, 0.000000000000000000, 0.000000000000000000, 0.000000000000000000, 0.000000000000000000, 0.000000000000000000 ) ;
#43 = CARTESIAN_POINT ( 'NONE',  ( 0.06249999999999997224, 2.000000000000000000, 7.654042494670960626E-18 ) ) ;
#44 = STYLED_ITEM ( 'NONE', ( #305 ), #16 ) ;
#45 = AXIS2_PLACEMENT_3D ( 'NONE', #64, #69, #21 ) ;
#46 =( LENGTH_UNIT ( ) NAMED_UNIT ( * ) SI_UNIT ( $, .METRE. ) );
#47 = ORIENTED_EDGE ( 'NONE', *, *, #236, .T. ) ;
#48 = CIRCLE ( 'NONE', #112, 0.06250000000000000000 ) ;
#49 = ORIENTED_EDGE ( 'NONE', *, *, #236, .F. ) ;
#50 = CARTESIAN_POINT ( 'NONE',  ( 0.000000000000000000, 0.3750000000000000555, -0.06250000000000000000 ) ) ;
#51 = DIRECTION ( 'NONE',  ( -1.000000000000000000, 0.000000000000000000, 0.000000000000000000 ) ) ;
#52 = ORIENTED_EDGE ( 'NONE', *, *, #288, .T. ) ;
#53 = CARTESIAN_POINT ( 'NONE',  ( -6.123233995736763571E-17, 2.000000000000000000, 0.000000000000000000 ) ) ;
#54 = FILL_AREA_STYLE_COLOUR ( '', #146 ) ;
#55 = EDGE_CURVE ( 'NONE', #116, #306, #205, .T. ) ;
#56 = CIRCLE ( 'NONE', #217, 0.06250000000000000000 ) ;
#57 =( NAMED_UNIT ( * ) PLANE_ANGLE_UNIT ( ) SI_UNIT ( $, .RADIAN. ) );
#58 = FILL_AREA_STYLE ('',( #127 ) ) ;
#59 = FILL_AREA_STYLE ('',( #83 ) ) ;
#60 = STYLED_ITEM ( 'NONE', ( #41 ), #219 ) ;
#61 = SURFACE_STYLE_USAGE ( .BOTH. , #84 ) ;
#62 = DIRECTION ( 'NONE',  ( -1.000000000000000000, 0.000000000000000000, 0.000000000000000000 ) ) ;
#63 = SURFACE_SIDE_STYLE ('',( #89 ) ) ;
#64 = CARTESIAN_POINT ( 'NONE',  ( 0.000000000000000000, 0.000000000000000000, 0.000000000000000000 ) ) ;
#65 = MANIFOLD_SOLID_BREP ( 'Revolve - Tool Body (Straight Shanked)', #30 ) ;
#66 = EDGE_CURVE ( 'NONE', #70, #95, #48, .T. ) ;
#67 =( NAMED_UNIT ( * ) PLANE_ANGLE_UNIT ( ) SI_UNIT ( $, .RADIAN. ) );
#68 = UNCERTAINTY_MEASURE_WITH_UNIT (LENGTH_MEASURE( 1.000000000000000082E-05 ), #299, 'distance_accuracy_value', 'NONE');
#69 = DIRECTION ( 'NONE',  ( 0.000000000000000000, 0.000000000000000000, 1.000000000000000000 ) ) ;
#70 = VERTEX_POINT ( 'NONE', #188 ) ;
#71 = SURFACE_STYLE_FILL_AREA ( #307 ) ;
#72 =( GEOMETRIC_REPRESENTATION_CONTEXT ( 3 ) GLOBAL_UNCERTAINTY_ASSIGNED_CONTEXT ( ( #91 ) ) GLOBAL_UNIT_ASSIGNED_CONTEXT ( ( #76, #230, #163 ) ) REPRESENTATION_CONTEXT ( 'NONE', 'WORKASPACE' ) );
#73 = VERTEX_POINT ( 'NONE', #208 ) ;
#74 = MECHANICAL_DESIGN_GEOMETRIC_PRESENTATION_REPRESENTATION (  '', ( #60 ), #183 ) ;
#75 =( LENGTH_UNIT ( ) NAMED_UNIT ( * ) SI_UNIT ( $, .METRE. ) );
#76 =( CONVERSION_BASED_UNIT ( 'INCH', #279 ) LENGTH_UNIT ( ) NAMED_UNIT ( #192 ) );
#77 = ORIENTED_EDGE ( 'NONE', *, *, #66, .T. ) ;
#78 = EDGE_CURVE ( 'NONE', #116, #73, #11, .T. ) ;
#79 = SURFACE_STYLE_USAGE ( .BOTH. , #145 ) ;
#80 = SURFACE_STYLE_FILL_AREA ( #58 ) ;
#81 =( LENGTH_UNIT ( ) NAMED_UNIT ( * ) SI_UNIT ( $, .METRE. ) );
#82 = CARTESIAN_POINT ( 'NONE',  ( 0.000000000000000000, 0.3750000000000000555, 0.000000000000000000 ) ) ;
#83 = FILL_AREA_STYLE_COLOUR ( '', #193 ) ;
#84 = SURFACE_SIDE_STYLE ('',( #148 ) ) ;
#85 = EDGE_CURVE ( 'NONE', #309, #95, #124, .T. ) ;
#86 = MECHANICAL_DESIGN_GEOMETRIC_PRESENTATION_REPRESENTATION (  '', ( #232 ), #151 ) ;
#87 = EDGE_CURVE ( 'NONE', #204, #70, #287, .T. ) ;
#88 = VECTOR ( 'NONE', #256, 39.37007874015748143 ) ;
#89 = SURFACE_STYLE_FILL_AREA ( #15 ) ;
#90 = FACE_OUTER_BOUND ( 'NONE', #137, .T. ) ;
#91 = UNCERTAINTY_MEASURE_WITH_UNIT (LENGTH_MEASURE( 1.000000000000000082E-05 ), #76, 'distance_accuracy_value', 'NONE');
#92 = DIRECTION ( 'NONE',  ( -0.000000000000000000, -1.000000000000000000, -0.000000000000000000 ) ) ;
#93 = AXIS2_PLACEMENT_3D ( 'NONE', #167, #4, #33 ) ;
#94 = VERTEX_POINT ( 'NONE', #237 ) ;
#95 = VERTEX_POINT ( 'NONE', #209 ) ;
#96 = ORIENTED_EDGE ( 'NONE', *, *, #104, .F. ) ;
#97 = PRESENTATION_STYLE_ASSIGNMENT (( #199 ) ) ;
#98 = ORIENTED_EDGE ( 'NONE', *, *, #105, .T. ) ;
#99 = CIRCLE ( 'NONE', #243, 0.06250000000000000000 ) ;
#100 = DIRECTION ( 'NONE',  ( -0.000000000000000000, -1.000000000000000000, -0.000000000000000000 ) ) ;
#101 = LENGTH_MEASURE_WITH_UNIT ( LENGTH_MEASURE( 0.02539999999999999897 ), #81 );
#102 = PRODUCT_DEFINITION ( 'UNKNOWN', '', #3, #277 ) ;
#103 = DIRECTION ( 'NONE',  ( 0.000000000000000000, 0.000000000000000000, -1.000000000000000000 ) ) ;
#104 = EDGE_CURVE ( 'NONE', #204, #309, #189, .T. ) ;
#105 = EDGE_CURVE ( 'NONE', #309, #204, #2, .T. ) ;
#106 = VECTOR ( 'NONE', #195, 39.37007874015748143 ) ;
#107 = DIRECTION ( 'NONE',  ( -3.768143997376469510E-17, 1.000000000000000000, 0.000000000000000000 ) ) ;
#108 = LENGTH_MEASURE_WITH_UNIT ( LENGTH_MEASURE( 0.02539999999999999897 ), #241 );
#109 = PLANE ( 'NONE',  #32 ) ;
#110 = UNCERTAINTY_MEASURE_WITH_UNIT (LENGTH_MEASURE( 1.000000000000000082E-05 ), #173, 'distance_accuracy_value', 'NONE');
#111 = PRODUCT ( '00032', '00032', '', ( #139 ) ) ;
#112 = AXIS2_PLACEMENT_3D ( 'NONE', #1, #36, #234 ) ;
#113 =( GEOMETRIC_REPRESENTATION_CONTEXT ( 3 ) GLOBAL_UNCERTAINTY_ASSIGNED_CONTEXT ( ( #194 ) ) GLOBAL_UNIT_ASSIGNED_CONTEXT ( ( #190, #212, #129 ) ) REPRESENTATION_CONTEXT ( 'NONE', 'WORKASPACE' ) );
#114 = FILL_AREA_STYLE_COLOUR ( '', #123 ) ;
#115 = EDGE_LOOP ( 'NONE', ( #248, #96 ) ) ;
#116 = VERTEX_POINT ( 'NONE', #261 ) ;
#117 = CYLINDRICAL_SURFACE ( 'NONE', #276, 0.06250000000000000000 ) ;
#118 = ADVANCED_FACE ( 'NONE', ( #7 ), #238, .T. ) ;
#119 = ORIENTED_EDGE ( 'NONE', *, *, #104, .T. ) ;
#120 = SURFACE_SIDE_STYLE ('',( #71 ) ) ;
#121 = CARTESIAN_POINT ( 'NONE',  ( 0.000000000000000000, 0.3749999999999999445, 0.000000000000000000 ) ) ;
#122 = CLOSED_SHELL ( 'NONE', ( #16, #280, #169, #219 ) ) ;
#123 = COLOUR_RGB ( '',1.000000000000000000, 0.000000000000000000, 0.000000000000000000 ) ;
#124 = LINE ( 'NONE', #258, #135 ) ;
#125 = STYLED_ITEM ( 'NONE', ( #132 ), #169 ) ;
#126 = PRESENTATION_STYLE_ASSIGNMENT (( #164 ) ) ;
#127 = FILL_AREA_STYLE_COLOUR ( '', #6 ) ;
#128 = DIRECTION ( 'NONE',  ( 0.000000000000000000, 0.000000000000000000, -1.000000000000000000 ) ) ;
#129 =( NAMED_UNIT ( * ) SI_UNIT ( $, .STERADIAN. ) SOLID_ANGLE_UNIT ( ) );
#130 = APPLICATION_CONTEXT ( 'automotive_design' ) ;
#131 = DIRECTION ( 'NONE',  ( 0.000000000000000000, 0.000000000000000000, -1.000000000000000000 ) ) ;
#132 = PRESENTATION_STYLE_ASSIGNMENT (( #61 ) ) ;
#133 = ADVANCED_FACE ( 'NONE', ( #31 ), #286, .F. ) ;
#134 = ORIENTED_EDGE ( 'NONE', *, *, #185, .T. ) ;
#135 = VECTOR ( 'NONE', #37, 39.37007874015748143 ) ;
#136 = PRESENTATION_LAYER_ASSIGNMENT (  '', '', ( #197 ) ) ;
#137 = EDGE_LOOP ( 'NONE', ( #284, #158 ) ) ;
#138 = DIRECTION ( 'NONE',  ( 0.000000000000000000, -0.000000000000000000, 1.000000000000000000 ) ) ;
#139 = PRODUCT_CONTEXT ( 'NONE', #130, 'mechanical' ) ;
#140 =( LENGTH_UNIT ( ) NAMED_UNIT ( * ) SI_UNIT ( $, .METRE. ) );
#141 = PRODUCT_RELATED_PRODUCT_CATEGORY ( 'part', '', ( #111 ) ) ;
#142 = CARTESIAN_POINT ( 'NONE',  ( -0.06250000000000009714, 2.000000000000000000, 0.000000000000000000 ) ) ;
#143 = PRESENTATION_LAYER_ASSIGNMENT (  '', '', ( #60 ) ) ;
#144 = ORIENTED_EDGE ( 'NONE', *, *, #288, .F. ) ;
#145 = SURFACE_SIDE_STYLE ('',( #184 ) ) ;
#146 = COLOUR_RGB ( '',0.7921568627450980005, 0.8196078431372548767, 0.9333333333333333481 ) ;
#147 = AXIS2_PLACEMENT_3D ( 'NONE', #293, #214, #131 ) ;
#148 = SURFACE_STYLE_FILL_AREA ( #59 ) ;
#149 = LINE ( 'NONE', #43, #106 ) ;
#150 = FACE_OUTER_BOUND ( 'NONE', #182, .T. ) ;
#151 =( GEOMETRIC_REPRESENTATION_CONTEXT ( 3 ) GLOBAL_UNCERTAINTY_ASSIGNED_CONTEXT ( ( #295 ) ) GLOBAL_UNIT_ASSIGNED_CONTEXT ( ( #176, #24, #25 ) ) REPRESENTATION_CONTEXT ( 'NONE', 'WORKASPACE' ) );
#152 = MECHANICAL_DESIGN_GEOMETRIC_PRESENTATION_REPRESENTATION (  '', ( #125 ), #272 ) ;
#153 = CARTESIAN_POINT ( 'NONE',  ( 0.000000000000000000, 0.3750000000000000555, 0.000000000000000000 ) ) ;
#154 = ORIENTED_EDGE ( 'NONE', *, *, #87, .T. ) ;
#155 =( NAMED_UNIT ( * ) PLANE_ANGLE_UNIT ( ) SI_UNIT ( $, .RADIAN. ) );
#156 = CARTESIAN_POINT ( 'NONE',  ( 0.000000000000000000, 0.000000000000000000, 0.000000000000000000 ) ) ;
#157 = ORIENTED_EDGE ( 'NONE', *, *, #87, .F. ) ;
#158 = ORIENTED_EDGE ( 'NONE', *, *, #20, .F. ) ;
#159 = FILL_AREA_STYLE_COLOUR ( '', #267 ) ;
#160 = DIRECTION ( 'NONE',  ( -1.000000000000000000, 0.000000000000000000, 0.000000000000000000 ) ) ;
#161 = MANIFOLD_SOLID_BREP ( 'Revolve - Cutting Edge', #122 ) ;
#162 = DIRECTION ( 'NONE',  ( -3.768143997376469510E-17, 1.000000000000000000, -0.000000000000000000 ) ) ;
#163 =( NAMED_UNIT ( * ) SI_UNIT ( $, .STERADIAN. ) SOLID_ANGLE_UNIT ( ) );
#164 = SURFACE_STYLE_USAGE ( .BOTH. , #235 ) ;
#165 = AXIS2_PLACEMENT_3D ( 'NONE', #186, #166, #103 ) ;
#166 = DIRECTION ( 'NONE',  ( -0.000000000000000000, -1.000000000000000000, -0.000000000000000000 ) ) ;
#167 = CARTESIAN_POINT ( 'NONE',  ( 0.000000000000000000, 0.3749999999999999445, 0.000000000000000000 ) ) ;
#168 = CARTESIAN_POINT ( 'NONE',  ( 0.000000000000000000, 0.000000000000000000, 0.000000000000000000 ) ) ;
#169 = ADVANCED_FACE ( 'NONE', ( #191 ), #291, .T. ) ;
#170 = UNCERTAINTY_MEASURE_WITH_UNIT (LENGTH_MEASURE( 1.000000000000000082E-05 ), #187, 'distance_accuracy_value', 'NONE');
#171 = DIRECTION ( 'NONE',  ( -3.768143997376469510E-17, 1.000000000000000000, -0.000000000000000000 ) ) ;
#172 = STYLED_ITEM ( 'NONE', ( #126 ), #161 ) ;
#173 =( CONVERSION_BASED_UNIT ( 'INCH', #17 ) LENGTH_UNIT ( ) NAMED_UNIT ( #14 ) );
#174 = PLANE ( 'NONE',  #233 ) ;
#175 = EDGE_LOOP ( 'NONE', ( #52, #77 ) ) ;
#176 =( CONVERSION_BASED_UNIT ( 'INCH', #231 ) LENGTH_UNIT ( ) NAMED_UNIT ( #215 ) );
#177 = AXIS2_PLACEMENT_3D ( 'NONE', #153, #22, #138 ) ;
#178 = DIRECTION ( 'NONE',  ( -0.000000000000000000, -1.000000000000000000, -0.000000000000000000 ) ) ;
#179 = FACE_OUTER_BOUND ( 'NONE', #281, .T. ) ;
#180 = FACE_OUTER_BOUND ( 'NONE', #115, .T. ) ;
#181 = DIRECTION ( 'NONE',  ( -3.768143997376469510E-17, 1.000000000000000000, -0.000000000000000000 ) ) ;
#182 = EDGE_LOOP ( 'NONE', ( #49, #224, #229, #27 ) ) ;
#183 =( GEOMETRIC_REPRESENTATION_CONTEXT ( 3 ) GLOBAL_UNCERTAINTY_ASSIGNED_CONTEXT ( ( #110 ) ) GLOBAL_UNIT_ASSIGNED_CONTEXT ( ( #173, #273, #242 ) ) REPRESENTATION_CONTEXT ( 'NONE', 'WORKASPACE' ) );
#184 = SURFACE_STYLE_FILL_AREA ( #29 ) ;
#185 = EDGE_CURVE ( 'NONE', #306, #94, #303, .T. ) ;
#186 = CARTESIAN_POINT ( 'NONE',  ( 0.000000000000000000, 0.3750000000000000555, 0.000000000000000000 ) ) ;
#187 =( CONVERSION_BASED_UNIT ( 'INCH', #101 ) LENGTH_UNIT ( ) NAMED_UNIT ( #294 ) );
#188 = CARTESIAN_POINT ( 'NONE',  ( 7.654042494670957545E-18, 0.000000000000000000, 0.06250000000000000000 ) ) ;
#189 = CIRCLE ( 'NONE', #259, 0.06250000000000000000 ) ;
#190 =( CONVERSION_BASED_UNIT ( 'INCH', #244 ) LENGTH_UNIT ( ) NAMED_UNIT ( #42 ) );
#191 = FACE_OUTER_BOUND ( 'NONE', #300, .T. ) ;
#192 = DIMENSIONAL_EXPONENTS ( 1.000000000000000000, 0.000000000000000000, 0.000000000000000000, 0.000000000000000000, 0.000000000000000000, 0.000000000000000000, 0.000000000000000000 ) ;
#193 = COLOUR_RGB ( '',1.000000000000000000, 0.000000000000000000, 0.000000000000000000 ) ;
#194 = UNCERTAINTY_MEASURE_WITH_UNIT (LENGTH_MEASURE( 1.000000000000000082E-05 ), #190, 'distance_accuracy_value', 'NONE');
#195 = DIRECTION ( 'NONE',  ( -3.768143997376469510E-17, 1.000000000000000000, -0.000000000000000000 ) ) ;
#196 =( CONVERSION_BASED_UNIT ( 'INCH', #108 ) LENGTH_UNIT ( ) NAMED_UNIT ( #10 ) );
#197 = STYLED_ITEM ( 'NONE', ( #97 ), #280 ) ;
#198 = FACE_OUTER_BOUND ( 'NONE', #175, .T. ) ;
#199 = SURFACE_STYLE_USAGE ( .BOTH. , #120 ) ;
#200 = ORIENTED_EDGE ( 'NONE', *, *, #78, .T. ) ;
#201 = DIRECTION ( 'NONE',  ( 0.000000000000000000, 0.000000000000000000, -1.000000000000000000 ) ) ;
#202 = EDGE_LOOP ( 'NONE', ( #200, #47, #28, #221 ) ) ;
#203 = FILL_AREA_STYLE ('',( #114 ) ) ;
#204 = VERTEX_POINT ( 'NONE', #296 ) ;
#205 = LINE ( 'NONE', #142, #88 ) ;
#206 = ADVANCED_FACE ( 'NONE', ( #150 ), #245, .T. ) ;
#207 = MECHANICAL_DESIGN_GEOMETRIC_PRESENTATION_REPRESENTATION (  '', ( #172 ), #289 ) ;
#208 = CARTESIAN_POINT ( 'NONE',  ( 0.06250000000000000000, 0.3749999999999999445, 7.654042494670963708E-18 ) ) ;
#209 = CARTESIAN_POINT ( 'NONE',  ( 0.000000000000000000, 0.000000000000000000, -0.06250000000000000000 ) ) ;
#210 =( LENGTH_UNIT ( ) NAMED_UNIT ( * ) SI_UNIT ( $, .METRE. ) );
#211 =( NAMED_UNIT ( * ) SI_UNIT ( $, .STERADIAN. ) SOLID_ANGLE_UNIT ( ) );
#212 =( NAMED_UNIT ( * ) PLANE_ANGLE_UNIT ( ) SI_UNIT ( $, .RADIAN. ) );
#213 = DIRECTION ( 'NONE',  ( -0.000000000000000000, -1.000000000000000000, -0.000000000000000000 ) ) ;
#214 = DIRECTION ( 'NONE',  ( -0.000000000000000000, -1.000000000000000000, -0.000000000000000000 ) ) ;
#215 = DIMENSIONAL_EXPONENTS ( 1.000000000000000000, 0.000000000000000000, 0.000000000000000000, 0.000000000000000000, 0.000000000000000000, 0.000000000000000000, 0.000000000000000000 ) ;
#216 = CARTESIAN_POINT ( 'NONE',  ( -6.123233995736763571E-17, 2.000000000000000000, 0.000000000000000000 ) ) ;
#217 = AXIS2_PLACEMENT_3D ( 'NONE', #23, #178, #278 ) ;
#218 = DIRECTION ( 'NONE',  ( -1.000000000000000000, 0.000000000000000000, 0.000000000000000000 ) ) ;
#219 = ADVANCED_FACE ( 'NONE', ( #198 ), #109, .T. ) ;
#220 = APPLICATION_PROTOCOL_DEFINITION ( 'draft international standard', 'automotive_design', 1998, #35 ) ;
#221 = ORIENTED_EDGE ( 'NONE', *, *, #55, .F. ) ;
#222 = PRODUCT_DEFINITION_SHAPE ( 'NONE', 'NONE',  #102 ) ;
#223 = LENGTH_MEASURE_WITH_UNIT ( LENGTH_MEASURE( 0.02539999999999999897 ), #255 );
#224 = ORIENTED_EDGE ( 'NONE', *, *, #20, .T. ) ;
#225 = ADVANCED_FACE ( 'NONE', ( #90 ), #174, .F. ) ;
#226 = MECHANICAL_DESIGN_GEOMETRIC_PRESENTATION_REPRESENTATION (  '', ( #44 ), #72 ) ;
#227 = AXIS2_PLACEMENT_3D ( 'NONE', #12, #247, #218 ) ;
#228 = SURFACE_STYLE_FILL_AREA ( #203 ) ;
#229 = ORIENTED_EDGE ( 'NONE', *, *, #55, .T. ) ;
#230 =( NAMED_UNIT ( * ) PLANE_ANGLE_UNIT ( ) SI_UNIT ( $, .RADIAN. ) );
#231 = LENGTH_MEASURE_WITH_UNIT ( LENGTH_MEASURE( 0.02539999999999999897 ), #140 );
#232 = STYLED_ITEM ( 'NONE', ( #257 ), #65 ) ;
#233 = AXIS2_PLACEMENT_3D ( 'NONE', #274, #107, #240 ) ;
#234 = DIRECTION ( 'NONE',  ( 0.000000000000000000, 0.000000000000000000, -1.000000000000000000 ) ) ;
#235 = SURFACE_SIDE_STYLE ('',( #80 ) ) ;
#236 = EDGE_CURVE ( 'NONE', #73, #94, #149, .T. ) ;
#237 = CARTESIAN_POINT ( 'NONE',  ( 0.06250000000000000000, 2.000000000000000000, 7.654042494670963708E-18 ) ) ;
#238 = CYLINDRICAL_SURFACE ( 'NONE', #18, 0.06250000000000002776 ) ;
#239 = PRESENTATION_LAYER_ASSIGNMENT (  '', '', ( #125 ) ) ;
#240 = DIRECTION ( 'NONE',  ( -1.000000000000000000, -3.768143997376469510E-17, 0.000000000000000000 ) ) ;
#241 =( LENGTH_UNIT ( ) NAMED_UNIT ( * ) SI_UNIT ( $, .METRE. ) );
#242 =( NAMED_UNIT ( * ) SI_UNIT ( $, .STERADIAN. ) SOLID_ANGLE_UNIT ( ) );
#243 = AXIS2_PLACEMENT_3D ( 'NONE', #121, #181, #160 ) ;
#244 = LENGTH_MEASURE_WITH_UNIT ( LENGTH_MEASURE( 0.02539999999999999897 ), #210 );
#245 = CYLINDRICAL_SURFACE ( 'NONE', #19, 0.06250000000000002776 ) ;
#246 = APPLICATION_PROTOCOL_DEFINITION ( 'draft international standard', 'automotive_design', 1998, #130 ) ;
#247 = DIRECTION ( 'NONE',  ( -3.768143997376469510E-17, 1.000000000000000000, -0.000000000000000000 ) ) ;
#248 = ORIENTED_EDGE ( 'NONE', *, *, #105, .F. ) ;
#249 =( NAMED_UNIT ( * ) SI_UNIT ( $, .STERADIAN. ) SOLID_ANGLE_UNIT ( ) );
#250 = SURFACE_SIDE_STYLE ('',( #228 ) ) ;
#251 = ORIENTED_EDGE ( 'NONE', *, *, #38, .T. ) ;
#252 = CARTESIAN_POINT ( 'NONE',  ( -0.06250000000000012490, 2.000000000000000000, 0.000000000000000000 ) ) ;
#253 = EDGE_LOOP ( 'NONE', ( #134, #251 ) ) ;
#254 = PRESENTATION_LAYER_ASSIGNMENT (  '', '', ( #232 ) ) ;
#255 =( LENGTH_UNIT ( ) NAMED_UNIT ( * ) SI_UNIT ( $, .METRE. ) );
#256 = DIRECTION ( 'NONE',  ( -3.768143997376469510E-17, 1.000000000000000000, -0.000000000000000000 ) ) ;
#257 = PRESENTATION_STYLE_ASSIGNMENT (( #79 ) ) ;
#258 = CARTESIAN_POINT ( 'NONE',  ( 0.000000000000000000, 0.000000000000000000, -0.06250000000000000000 ) ) ;
#259 = AXIS2_PLACEMENT_3D ( 'NONE', #82, #100, #128 ) ;
#260 = COLOUR_RGB ( '',1.000000000000000000, 0.000000000000000000, 0.000000000000000000 ) ;
#261 = CARTESIAN_POINT ( 'NONE',  ( -0.06250000000000000000, 0.3749999999999999445, 0.000000000000000000 ) ) ;
#262 = DIRECTION ( 'NONE',  ( 3.768143997376469510E-17, -1.000000000000000000, 0.000000000000000000 ) ) ;
#263 = DIRECTION ( 'NONE',  ( -1.000000000000000000, 0.000000000000000000, 0.000000000000000000 ) ) ;
#264 = ADVANCED_BREP_SHAPE_REPRESENTATION ( '00032', ( #161, #65, #45 ), #113 ) ;
#265 = AXIS2_PLACEMENT_3D ( 'NONE', #53, #162, #51 ) ;
#266 = DIRECTION ( 'NONE',  ( 1.000000000000000000, 3.768143997376469510E-17, 0.000000000000000000 ) ) ;
#267 = COLOUR_RGB ( '',1.000000000000000000, 0.000000000000000000, 0.000000000000000000 ) ;
#268 = DIRECTION ( 'NONE',  ( 0.000000000000000000, -1.000000000000000000, -0.000000000000000000 ) ) ;
#269 = DIRECTION ( 'NONE',  ( 0.000000000000000000, 0.000000000000000000, -1.000000000000000000 ) ) ;
#270 = FILL_AREA_STYLE_COLOUR ( '', #260 ) ;
#271 = AXIS2_PLACEMENT_3D ( 'NONE', #290, #262, #266 ) ;
#272 =( GEOMETRIC_REPRESENTATION_CONTEXT ( 3 ) GLOBAL_UNCERTAINTY_ASSIGNED_CONTEXT ( ( #275 ) ) GLOBAL_UNIT_ASSIGNED_CONTEXT ( ( #196, #67, #297 ) ) REPRESENTATION_CONTEXT ( 'NONE', 'WORKASPACE' ) );
#273 =( NAMED_UNIT ( * ) PLANE_ANGLE_UNIT ( ) SI_UNIT ( $, .RADIAN. ) );
#274 = CARTESIAN_POINT ( 'NONE',  ( 4.437159120301349476E-35, 0.3750000000000000555, 0.000000000000000000 ) ) ;
#275 = UNCERTAINTY_MEASURE_WITH_UNIT (LENGTH_MEASURE( 1.000000000000000082E-05 ), #196, 'distance_accuracy_value', 'NONE');
#276 = AXIS2_PLACEMENT_3D ( 'NONE', #156, #92, #201 ) ;
#277 = PRODUCT_DEFINITION_CONTEXT ( 'detailed design', #35, 'design' ) ;
#278 = DIRECTION ( 'NONE',  ( 0.000000000000000000, 0.000000000000000000, -1.000000000000000000 ) ) ;
#279 = LENGTH_MEASURE_WITH_UNIT ( LENGTH_MEASURE( 0.02539999999999999897 ), #75 );
#280 = ADVANCED_FACE ( 'NONE', ( #180 ), #285, .T. ) ;
#281 = EDGE_LOOP ( 'NONE', ( #98, #154, #144, #301 ) ) ;
#282 = ORIENTED_EDGE ( 'NONE', *, *, #66, .F. ) ;
#283 = PRESENTATION_LAYER_ASSIGNMENT (  '', '', ( #172 ) ) ;
#284 = ORIENTED_EDGE ( 'NONE', *, *, #78, .F. ) ;
#285 = PLANE ( 'NONE',  #177 ) ;
#286 = PLANE ( 'NONE',  #271 ) ;
#287 = LINE ( 'NONE', #5, #302 ) ;
#288 = EDGE_CURVE ( 'NONE', #95, #70, #56, .T. ) ;
#289 =( GEOMETRIC_REPRESENTATION_CONTEXT ( 3 ) GLOBAL_UNCERTAINTY_ASSIGNED_CONTEXT ( ( #170 ) ) GLOBAL_UNIT_ASSIGNED_CONTEXT ( ( #187, #57, #211 ) ) REPRESENTATION_CONTEXT ( 'NONE', 'WORKASPACE' ) );
#290 = CARTESIAN_POINT ( 'NONE',  ( 0.06250000000000000000, 2.000000000000000000, 0.000000000000000000 ) ) ;
#291 = CYLINDRICAL_SURFACE ( 'NONE', #147, 0.06250000000000000000 ) ;
#292 = CARTESIAN_POINT ( 'NONE',  ( -6.123233995736763571E-17, 2.000000000000000000, 0.000000000000000000 ) ) ;
#293 = CARTESIAN_POINT ( 'NONE',  ( 0.000000000000000000, 0.000000000000000000, 0.000000000000000000 ) ) ;
#294 = DIMENSIONAL_EXPONENTS ( 1.000000000000000000, 0.000000000000000000, 0.000000000000000000, 0.000000000000000000, 0.000000000000000000, 0.000000000000000000, 0.000000000000000000 ) ;
#295 = UNCERTAINTY_MEASURE_WITH_UNIT (LENGTH_MEASURE( 1.000000000000000082E-05 ), #176, 'distance_accuracy_value', 'NONE');
#296 = CARTESIAN_POINT ( 'NONE',  ( 7.654042494670957545E-18, 0.3750000000000000555, 0.06250000000000000000 ) ) ;
#297 =( NAMED_UNIT ( * ) SI_UNIT ( $, .STERADIAN. ) SOLID_ANGLE_UNIT ( ) );
#298 = ORIENTED_EDGE ( 'NONE', *, *, #85, .T. ) ;
#299 =( CONVERSION_BASED_UNIT ( 'INCH', #223 ) LENGTH_UNIT ( ) NAMED_UNIT ( #34 ) );
#300 = EDGE_LOOP ( 'NONE', ( #157, #119, #298, #282 ) ) ;
#301 = ORIENTED_EDGE ( 'NONE', *, *, #85, .F. ) ;
#302 = VECTOR ( 'NONE', #213, 39.37007874015748143 ) ;
#303 = CIRCLE ( 'NONE', #227, 0.06250000000000005551 ) ;
#304 = SHAPE_DEFINITION_REPRESENTATION ( #222, #264 ) ;
#305 = PRESENTATION_STYLE_ASSIGNMENT (( #308 ) ) ;
#306 = VERTEX_POINT ( 'NONE', #252 ) ;
#307 = FILL_AREA_STYLE ('',( #159 ) ) ;
#308 = SURFACE_STYLE_USAGE ( .BOTH. , #250 ) ;
#309 = VERTEX_POINT ( 'NONE', #50 ) ;
ENDSEC;
END-ISO-10303-21;
