ISO-10303-21;
HEADER;
FILE_DESCRIPTION (( 'STEP AP214' ),
    '1' );
FILE_NAME ('84600.STEP',
    '2023-07-12T13:10:12',
    ( '' ),
    ( '' ),
    'SwSTEP 2.0',
    'SolidWorks 2023',
    '' );
FILE_SCHEMA (( 'AUTOMOTIVE_DESIGN' ));
ENDSEC;

DATA;
#1 = AXIS2_PLACEMENT_3D ( 'NONE', #275, #61, #151 ) ;
#2 =( NAMED_UNIT ( * ) SI_UNIT ( $, .STERADIAN. ) SOLID_ANGLE_UNIT ( ) );
#3 = DIRECTION ( 'NONE',  ( 1.218900715719354978E-16, -1.000000000000000000, 0.000000000000000000 ) ) ;
#4 = APPLICATION_PROTOCOL_DEFINITION ( 'draft international standard', 'automotive_design', 1998, #177 ) ;
#5 = FILL_AREA_STYLE_COLOUR ( '', #78 ) ;
#6 = MECHANICAL_DESIGN_GEOMETRIC_PRESENTATION_REPRESENTATION (  '', ( #277 ), #127 ) ;
#7 =( NAMED_UNIT ( * ) SI_UNIT ( $, .STERADIAN. ) SOLID_ANGLE_UNIT ( ) );
#8 = CARTESIAN_POINT ( 'NONE',  ( -2.369500423704768587E-34, 0.03969283100678656917, 0.000000000000000000 ) ) ;
#9 = CARTESIAN_POINT ( 'NONE',  ( -2.369500423704768587E-34, 0.03969283100678656917, 0.000000000000000000 ) ) ;
#10 =( GEOMETRIC_REPRESENTATION_CONTEXT ( 3 ) GLOBAL_UNCERTAINTY_ASSIGNED_CONTEXT ( ( #126 ) ) GLOBAL_UNIT_ASSIGNED_CONTEXT ( ( #218, #82, #200 ) ) REPRESENTATION_CONTEXT ( 'NONE', 'WORKASPACE' ) );
#11 =( LENGTH_UNIT ( ) NAMED_UNIT ( * ) SI_UNIT ( $, .METRE. ) );
#12 = SURFACE_SIDE_STYLE ('',( #128 ) ) ;
#13 = DIRECTION ( 'NONE',  ( -1.218900715719354978E-16, 1.000000000000000000, -0.000000000000000000 ) ) ;
#14 = DIRECTION ( 'NONE',  ( -1.000000000000000000, 0.000000000000000000, 0.000000000000000000 ) ) ;
#15 = SURFACE_STYLE_FILL_AREA ( #261 ) ;
#16 =( NAMED_UNIT ( * ) PLANE_ANGLE_UNIT ( ) SI_UNIT ( $, .RADIAN. ) );
#17 = DIRECTION ( 'NONE',  ( -1.218900715719354978E-16, 1.000000000000000000, -0.000000000000000000 ) ) ;
#18 = DIRECTION ( 'NONE',  ( -1.218900715719354978E-16, 1.000000000000000000, -0.000000000000000000 ) ) ;
#19 = CONICAL_SURFACE ( 'NONE', #297, 0.02500000000000000139, 1.047197551196600074 ) ;
#20 = CARTESIAN_POINT ( 'NONE',  ( 0.09375000000000001388, 2.000000000000000000, 0.000000000000000000 ) ) ;
#21 = ORIENTED_EDGE ( 'NONE', *, *, #158, .T. ) ;
#22 = FILL_AREA_STYLE_COLOUR ( '', #194 ) ;
#23 = CLOSED_SHELL ( 'NONE', ( #235, #260, #74, #279 ) ) ;
#24 = MECHANICAL_DESIGN_GEOMETRIC_PRESENTATION_REPRESENTATION (  '', ( #299 ), #71 ) ;
#25 = COLOUR_RGB ( '',0.7921568627450980005, 0.8196078431372548767, 0.9333333333333333481 ) ;
#26 =( LENGTH_UNIT ( ) NAMED_UNIT ( * ) SI_UNIT ( $, .METRE. ) );
#27 = UNCERTAINTY_MEASURE_WITH_UNIT (LENGTH_MEASURE( 1.000000000000000082E-05 ), #178, 'distance_accuracy_value', 'NONE');
#28 = DIRECTION ( 'NONE',  ( -1.218900715719354978E-16, 1.000000000000000000, -0.000000000000000000 ) ) ;
#29 = LENGTH_MEASURE_WITH_UNIT ( LENGTH_MEASURE( 0.02539999999999999897 ), #26 );
#30 = EDGE_CURVE ( 'NONE', #131, #251, #88, .T. ) ;
#31 =( LENGTH_UNIT ( ) NAMED_UNIT ( * ) SI_UNIT ( $, .METRE. ) );
#32 = AXIS2_PLACEMENT_3D ( 'NONE', #20, #3, #169 ) ;
#33 = DIRECTION ( 'NONE',  ( 0.000000000000000000, 0.000000000000000000, 1.000000000000000000 ) ) ;
#34 = FILL_AREA_STYLE_COLOUR ( '', #83 ) ;
#35 = AXIS2_PLACEMENT_3D ( 'NONE', #187, #109, #287 ) ;
#36 = AXIS2_PLACEMENT_3D ( 'NONE', #309, #112, #264 ) ;
#37 = CYLINDRICAL_SURFACE ( 'NONE', #53, 0.09374999999999995837 ) ;
#38 = PRODUCT_RELATED_PRODUCT_CATEGORY ( 'part', '', ( #286 ) ) ;
#39 = FILL_AREA_STYLE_COLOUR ( '', #25 ) ;
#40 = ORIENTED_EDGE ( 'NONE', *, *, #30, .T. ) ;
#41 = CARTESIAN_POINT ( 'NONE',  ( -6.123233995736763571E-17, 2.000000000000000000, 0.000000000000000000 ) ) ;
#42 = ORIENTED_EDGE ( 'NONE', *, *, #244, .T. ) ;
#43 = AXIS2_PLACEMENT_3D ( 'NONE', #55, #289, #45 ) ;
#44 = CARTESIAN_POINT ( 'NONE',  ( -0.02500000000000000139, -2.984796452663754538E-34, 0.000000000000000000 ) ) ;
#45 = DIRECTION ( 'NONE',  ( -1.000000000000000000, -9.106159978880893419E-17, 0.000000000000000000 ) ) ;
#46 = LINE ( 'NONE', #163, #57 ) ;
#47 = LINE ( 'NONE', #267, #98 ) ;
#48 = SURFACE_STYLE_USAGE ( .BOTH. , #111 ) ;
#49 = ORIENTED_EDGE ( 'NONE', *, *, #244, .F. ) ;
#50 = ADVANCED_BREP_SHAPE_REPRESENTATION ( '84600', ( #197, #198, #104 ), #195 ) ;
#51 = EDGE_LOOP ( 'NONE', ( #110, #132, #236, #208 ) ) ;
#52 = PRESENTATION_LAYER_ASSIGNMENT (  '', '', ( #290 ) ) ;
#53 = AXIS2_PLACEMENT_3D ( 'NONE', #41, #13, #14 ) ;
#54 = DIRECTION ( 'NONE',  ( 5.969592905327508222E-33, -1.000000000000000000, -0.000000000000000000 ) ) ;
#55 = CARTESIAN_POINT ( 'NONE',  ( 1.777096411741933739E-16, 0.03969283100678664550, 0.000000000000000000 ) ) ;
#56 = LENGTH_MEASURE_WITH_UNIT ( LENGTH_MEASURE( 0.02539999999999999897 ), #31 );
#57 = VECTOR ( 'NONE', #137, 39.37007874015748854 ) ;
#58 = APPLICATION_PROTOCOL_DEFINITION ( 'draft international standard', 'automotive_design', 1998, #66 ) ;
#59 = SURFACE_STYLE_USAGE ( .BOTH. , #80 ) ;
#60 = STYLED_ITEM ( 'NONE', ( #94 ), #164 ) ;
#61 = DIRECTION ( 'NONE',  ( -5.969592905327508906E-33, 1.000000000000000000, 0.000000000000000000 ) ) ;
#62 = DIRECTION ( 'NONE',  ( -1.000000000000000000, -5.969592905327508222E-33, 0.000000000000000000 ) ) ;
#63 = ORIENTED_EDGE ( 'NONE', *, *, #30, .F. ) ;
#64 = ORIENTED_EDGE ( 'NONE', *, *, #247, .T. ) ;
#65 = PRESENTATION_LAYER_ASSIGNMENT (  '', '', ( #249 ) ) ;
#66 = APPLICATION_CONTEXT ( 'automotive_design' ) ;
#67 = DIRECTION ( 'NONE',  ( -0.8660254037844397068, 0.4999999999999979461, 0.000000000000000000 ) ) ;
#68 = ORIENTED_EDGE ( 'NONE', *, *, #85, .T. ) ;
#69 = VERTEX_POINT ( 'NONE', #162 ) ;
#70 = LINE ( 'NONE', #231, #189 ) ;
#71 =( GEOMETRIC_REPRESENTATION_CONTEXT ( 3 ) GLOBAL_UNCERTAINTY_ASSIGNED_CONTEXT ( ( #27 ) ) GLOBAL_UNIT_ASSIGNED_CONTEXT ( ( #178, #16, #227 ) ) REPRESENTATION_CONTEXT ( 'NONE', 'WORKASPACE' ) );
#72 = DIMENSIONAL_EXPONENTS ( 1.000000000000000000, 0.000000000000000000, 0.000000000000000000, 0.000000000000000000, 0.000000000000000000, 0.000000000000000000, 0.000000000000000000 ) ;
#73 = DIRECTION ( 'NONE',  ( -5.969592905327508906E-33, 1.000000000000000000, 0.000000000000000000 ) ) ;
#74 = ADVANCED_FACE ( 'NONE', ( #91 ), #160, .T. ) ;
#75 =( LENGTH_UNIT ( ) NAMED_UNIT ( * ) SI_UNIT ( $, .METRE. ) );
#76 = PRESENTATION_STYLE_ASSIGNMENT (( #291 ) ) ;
#77 = CARTESIAN_POINT ( 'NONE',  ( 0.000000000000000000, 0.000000000000000000, 0.000000000000000000 ) ) ;
#78 = COLOUR_RGB ( '',1.000000000000000000, 0.000000000000000000, 0.000000000000000000 ) ;
#79 = CIRCLE ( 'NONE', #116, 0.02500000000000000139 ) ;
#80 = SURFACE_SIDE_STYLE ('',( #120 ) ) ;
#81 = UNCERTAINTY_MEASURE_WITH_UNIT (LENGTH_MEASURE( 1.000000000000000082E-05 ), #100, 'distance_accuracy_value', 'NONE');
#82 =( NAMED_UNIT ( * ) PLANE_ANGLE_UNIT ( ) SI_UNIT ( $, .RADIAN. ) );
#83 = COLOUR_RGB ( '',0.7921568627450980005, 0.8196078431372548767, 0.9333333333333333481 ) ;
#84 = EDGE_LOOP ( 'NONE', ( #64, #40, #278, #49 ) ) ;
#85 = EDGE_CURVE ( 'NONE', #175, #136, #142, .T. ) ;
#86 = ORIENTED_EDGE ( 'NONE', *, *, #292, .F. ) ;
#87 = UNCERTAINTY_MEASURE_WITH_UNIT (LENGTH_MEASURE( 1.000000000000000082E-05 ), #171, 'distance_accuracy_value', 'NONE');
#88 = LINE ( 'NONE', #182, #225 ) ;
#89 = DIRECTION ( 'NONE',  ( 5.969592905327508906E-33, -1.000000000000000000, -0.000000000000000000 ) ) ;
#90 = MECHANICAL_DESIGN_GEOMETRIC_PRESENTATION_REPRESENTATION (  '', ( #60 ), #256 ) ;
#91 = FACE_OUTER_BOUND ( 'NONE', #186, .T. ) ;
#92 = ORIENTED_EDGE ( 'NONE', *, *, #107, .T. ) ;
#93 = CARTESIAN_POINT ( 'NONE',  ( 0.09374999999999998612, 2.000000000000000000, 1.148106374200643555E-17 ) ) ;
#94 = PRESENTATION_STYLE_ASSIGNMENT (( #220 ) ) ;
#95 = PRESENTATION_LAYER_ASSIGNMENT (  '', '', ( #190 ) ) ;
#96 =( NAMED_UNIT ( * ) PLANE_ANGLE_UNIT ( ) SI_UNIT ( $, .RADIAN. ) );
#97 = AXIS2_PLACEMENT_3D ( 'NONE', #239, #18, #268 ) ;
#98 = VECTOR ( 'NONE', #216, 39.37007874015748143 ) ;
#99 =( CONVERSION_BASED_UNIT ( 'INCH', #56 ) LENGTH_UNIT ( ) NAMED_UNIT ( #72 ) );
#100 =( CONVERSION_BASED_UNIT ( 'INCH', #193 ) LENGTH_UNIT ( ) NAMED_UNIT ( #170 ) );
#101 =( NAMED_UNIT ( * ) PLANE_ANGLE_UNIT ( ) SI_UNIT ( $, .RADIAN. ) );
#102 = SHAPE_DEFINITION_REPRESENTATION ( #237, #50 ) ;
#103 = DIRECTION ( 'NONE',  ( 5.969592905327508906E-33, -1.000000000000000000, -0.000000000000000000 ) ) ;
#104 = AXIS2_PLACEMENT_3D ( 'NONE', #77, #33, #253 ) ;
#105 = ORIENTED_EDGE ( 'NONE', *, *, #153, .F. ) ;
#106 = PRESENTATION_STYLE_ASSIGNMENT (( #152 ) ) ;
#107 = EDGE_CURVE ( 'NONE', #213, #69, #211, .T. ) ;
#108 = COLOUR_RGB ( '',1.000000000000000000, 0.000000000000000000, 0.000000000000000000 ) ;
#109 = DIRECTION ( 'NONE',  ( 5.969592905327508906E-33, -1.000000000000000000, -0.000000000000000000 ) ) ;
#110 = ORIENTED_EDGE ( 'NONE', *, *, #85, .F. ) ;
#111 = SURFACE_SIDE_STYLE ('',( #15 ) ) ;
#112 = DIRECTION ( 'NONE',  ( -1.218900715719354978E-16, 1.000000000000000000, -0.000000000000000000 ) ) ;
#113 = PLANE ( 'NONE',  #32 ) ;
#114 = CIRCLE ( 'NONE', #36, 0.09375000000000006939 ) ;
#115 = AXIS2_PLACEMENT_3D ( 'NONE', #192, #54, #172 ) ;
#116 = AXIS2_PLACEMENT_3D ( 'NONE', #303, #89, #181 ) ;
#117 = CARTESIAN_POINT ( 'NONE',  ( -2.369500423704768587E-34, 0.03969283100678656917, 0.000000000000000000 ) ) ;
#118 = SURFACE_STYLE_FILL_AREA ( #271 ) ;
#119 = DIMENSIONAL_EXPONENTS ( 1.000000000000000000, 0.000000000000000000, 0.000000000000000000, 0.000000000000000000, 0.000000000000000000, 0.000000000000000000, 0.000000000000000000 ) ;
#120 = SURFACE_STYLE_FILL_AREA ( #191 ) ;
#121 =( GEOMETRIC_REPRESENTATION_CONTEXT ( 3 ) GLOBAL_UNCERTAINTY_ASSIGNED_CONTEXT ( ( #199 ) ) GLOBAL_UNIT_ASSIGNED_CONTEXT ( ( #130, #258, #7 ) ) REPRESENTATION_CONTEXT ( 'NONE', 'WORKASPACE' ) );
#122 = EDGE_CURVE ( 'NONE', #136, #213, #70, .T. ) ;
#123 = DIMENSIONAL_EXPONENTS ( 1.000000000000000000, 0.000000000000000000, 0.000000000000000000, 0.000000000000000000, 0.000000000000000000, 0.000000000000000000, 0.000000000000000000 ) ;
#124 = CARTESIAN_POINT ( 'NONE',  ( -0.09374999999999966693, 0.03969283100678663162, 0.000000000000000000 ) ) ;
#125 = FILL_AREA_STYLE ('',( #5 ) ) ;
#126 = UNCERTAINTY_MEASURE_WITH_UNIT (LENGTH_MEASURE( 1.000000000000000082E-05 ), #218, 'distance_accuracy_value', 'NONE');
#127 =( GEOMETRIC_REPRESENTATION_CONTEXT ( 3 ) GLOBAL_UNCERTAINTY_ASSIGNED_CONTEXT ( ( #173 ) ) GLOBAL_UNIT_ASSIGNED_CONTEXT ( ( #176, #101, #204 ) ) REPRESENTATION_CONTEXT ( 'NONE', 'WORKASPACE' ) );
#128 = SURFACE_STYLE_FILL_AREA ( #298 ) ;
#129 = DIRECTION ( 'NONE',  ( -1.000000000000000000, 0.000000000000000000, 0.000000000000000000 ) ) ;
#130 =( CONVERSION_BASED_UNIT ( 'INCH', #228 ) LENGTH_UNIT ( ) NAMED_UNIT ( #250 ) );
#131 = VERTEX_POINT ( 'NONE', #263 ) ;
#132 = ORIENTED_EDGE ( 'NONE', *, *, #153, .T. ) ;
#133 = MECHANICAL_DESIGN_GEOMETRIC_PRESENTATION_REPRESENTATION (  '', ( #190 ), #10 ) ;
#134 = FACE_OUTER_BOUND ( 'NONE', #51, .T. ) ;
#135 = SURFACE_STYLE_USAGE ( .BOTH. , #234 ) ;
#136 = VERTEX_POINT ( 'NONE', #44 ) ;
#137 = DIRECTION ( 'NONE',  ( 0.8660254037844397068, 0.4999999999999979461, 1.060575238724908024E-16 ) ) ;
#138 = AXIS2_PLACEMENT_3D ( 'NONE', #117, #180, #288 ) ;
#139 = AXIS2_PLACEMENT_3D ( 'NONE', #9, #226, #62 ) ;
#140 = CARTESIAN_POINT ( 'NONE',  ( 8.909009863834132142E-67, -1.492398226331877269E-34, 0.000000000000000000 ) ) ;
#141 = FACE_OUTER_BOUND ( 'NONE', #280, .T. ) ;
#142 = CIRCLE ( 'NONE', #35, 0.02500000000000000139 ) ;
#143 = DIMENSIONAL_EXPONENTS ( 1.000000000000000000, 0.000000000000000000, 0.000000000000000000, 0.000000000000000000, 0.000000000000000000, 0.000000000000000000, 0.000000000000000000 ) ;
#144 = CIRCLE ( 'NONE', #166, 0.09375000000000001388 ) ;
#145 = FACE_OUTER_BOUND ( 'NONE', #146, .T. ) ;
#146 = EDGE_LOOP ( 'NONE', ( #156, #207 ) ) ;
#147 =( NAMED_UNIT ( * ) SI_UNIT ( $, .STERADIAN. ) SOLID_ANGLE_UNIT ( ) );
#148 = EDGE_CURVE ( 'NONE', #308, #251, #114, .T. ) ;
#149 = CIRCLE ( 'NONE', #203, 0.09375000000000006939 ) ;
#150 = CARTESIAN_POINT ( 'NONE',  ( -0.09375000000000013878, 2.000000000000000000, 0.000000000000000000 ) ) ;
#151 = DIRECTION ( 'NONE',  ( -1.000000000000000000, -5.969592905327508906E-33, 0.000000000000000000 ) ) ;
#152 = SURFACE_STYLE_USAGE ( .BOTH. , #12 ) ;
#153 = EDGE_CURVE ( 'NONE', #175, #69, #46, .T. ) ;
#154 = MECHANICAL_DESIGN_GEOMETRIC_PRESENTATION_REPRESENTATION (  '', ( #290 ), #294 ) ;
#155 = ORIENTED_EDGE ( 'NONE', *, *, #272, .F. ) ;
#156 = ORIENTED_EDGE ( 'NONE', *, *, #107, .F. ) ;
#157 = UNCERTAINTY_MEASURE_WITH_UNIT (LENGTH_MEASURE( 1.000000000000000082E-05 ), #99, 'distance_accuracy_value', 'NONE');
#158 = EDGE_CURVE ( 'NONE', #131, #302, #212, .T. ) ;
#159 = COLOUR_RGB ( '',1.000000000000000000, 0.000000000000000000, 0.000000000000000000 ) ;
#160 = CYLINDRICAL_SURFACE ( 'NONE', #306, 0.09374999999999995837 ) ;
#161 = FACE_OUTER_BOUND ( 'NONE', #210, .T. ) ;
#162 = CARTESIAN_POINT ( 'NONE',  ( 0.09375000000000002776, 0.03969283100678656917, 1.148106374200643863E-17 ) ) ;
#163 = CARTESIAN_POINT ( 'NONE',  ( 0.02500000000000000139, 0.000000000000000000, 3.061616997868383172E-18 ) ) ;
#164 = ADVANCED_FACE ( 'NONE', ( #214 ), #217, .T. ) ;
#165 = ORIENTED_EDGE ( 'NONE', *, *, #148, .T. ) ;
#166 = AXIS2_PLACEMENT_3D ( 'NONE', #8, #103, #232 ) ;
#167 = CARTESIAN_POINT ( 'NONE',  ( 0.02500000000000000139, 0.000000000000000000, 7.271340369937408974E-18 ) ) ;
#168 = LENGTH_MEASURE_WITH_UNIT ( LENGTH_MEASURE( 0.02539999999999999897 ), #11 );
#169 = DIRECTION ( 'NONE',  ( 1.000000000000000000, 1.218900715719354978E-16, 0.000000000000000000 ) ) ;
#170 = DIMENSIONAL_EXPONENTS ( 1.000000000000000000, 0.000000000000000000, 0.000000000000000000, 0.000000000000000000, 0.000000000000000000, 0.000000000000000000, 0.000000000000000000 ) ;
#171 =( CONVERSION_BASED_UNIT ( 'INCH', #29 ) LENGTH_UNIT ( ) NAMED_UNIT ( #143 ) );
#172 = DIRECTION ( 'NONE',  ( 1.000000000000000000, 5.969592905327508222E-33, 0.000000000000000000 ) ) ;
#173 = UNCERTAINTY_MEASURE_WITH_UNIT (LENGTH_MEASURE( 1.000000000000000082E-05 ), #176, 'distance_accuracy_value', 'NONE');
#174 = PRESENTATION_LAYER_ASSIGNMENT (  '', '', ( #60 ) ) ;
#175 = VERTEX_POINT ( 'NONE', #167 ) ;
#176 =( CONVERSION_BASED_UNIT ( 'INCH', #201 ) LENGTH_UNIT ( ) NAMED_UNIT ( #119 ) );
#177 = APPLICATION_CONTEXT ( 'automotive_design' ) ;
#178 =( CONVERSION_BASED_UNIT ( 'INCH', #184 ) LENGTH_UNIT ( ) NAMED_UNIT ( #242 ) );
#179 = ADVANCED_FACE ( 'NONE', ( #188 ), #19, .T. ) ;
#180 = DIRECTION ( 'NONE',  ( 5.969592905327508906E-33, -1.000000000000000000, -0.000000000000000000 ) ) ;
#181 = DIRECTION ( 'NONE',  ( 1.000000000000000000, 5.969592905327508906E-33, 0.000000000000000000 ) ) ;
#182 = CARTESIAN_POINT ( 'NONE',  ( 0.09374999999999988898, 2.000000000000000000, 1.148106374200643092E-17 ) ) ;
#183 = ADVANCED_FACE ( 'NONE', ( #145 ), #245, .T. ) ;
#184 = LENGTH_MEASURE_WITH_UNIT ( LENGTH_MEASURE( 0.02539999999999999897 ), #238 );
#185 = ORIENTED_EDGE ( 'NONE', *, *, #272, .T. ) ;
#186 = EDGE_LOOP ( 'NONE', ( #63, #21, #42, #86 ) ) ;
#187 = CARTESIAN_POINT ( 'NONE',  ( 8.909009863834132142E-67, -1.492398226331877269E-34, 0.000000000000000000 ) ) ;
#188 = FACE_OUTER_BOUND ( 'NONE', #296, .T. ) ;
#189 = VECTOR ( 'NONE', #67, 39.37007874015748854 ) ;
#190 = STYLED_ITEM ( 'NONE', ( #304 ), #205 ) ;
#191 = FILL_AREA_STYLE ('',( #22 ) ) ;
#192 = CARTESIAN_POINT ( 'NONE',  ( 4.454504931917066071E-67, -7.461991131659386346E-35, 0.000000000000000000 ) ) ;
#193 = LENGTH_MEASURE_WITH_UNIT ( LENGTH_MEASURE( 0.02539999999999999897 ), #276 );
#194 = COLOUR_RGB ( '',1.000000000000000000, 0.000000000000000000, 0.000000000000000000 ) ;
#195 =( GEOMETRIC_REPRESENTATION_CONTEXT ( 3 ) GLOBAL_UNCERTAINTY_ASSIGNED_CONTEXT ( ( #81 ) ) GLOBAL_UNIT_ASSIGNED_CONTEXT ( ( #100, #96, #147 ) ) REPRESENTATION_CONTEXT ( 'NONE', 'WORKASPACE' ) );
#196 = PRODUCT_CONTEXT ( 'NONE', #177, 'mechanical' ) ;
#197 = MANIFOLD_SOLID_BREP ( 'Revolve - Cutting Edge', #262 ) ;
#198 = MANIFOLD_SOLID_BREP ( 'Revolve - Tool Body (Tipped Off)', #23 ) ;
#199 = UNCERTAINTY_MEASURE_WITH_UNIT (LENGTH_MEASURE( 1.000000000000000082E-05 ), #130, 'distance_accuracy_value', 'NONE');
#200 =( NAMED_UNIT ( * ) SI_UNIT ( $, .STERADIAN. ) SOLID_ANGLE_UNIT ( ) );
#201 = LENGTH_MEASURE_WITH_UNIT ( LENGTH_MEASURE( 0.02539999999999999897 ), #206 );
#202 = ORIENTED_EDGE ( 'NONE', *, *, #158, .F. ) ;
#203 = AXIS2_PLACEMENT_3D ( 'NONE', #221, #28, #129 ) ;
#204 =( NAMED_UNIT ( * ) SI_UNIT ( $, .STERADIAN. ) SOLID_ANGLE_UNIT ( ) );
#205 = ADVANCED_FACE ( 'NONE', ( #134 ), #223, .T. ) ;
#206 =( LENGTH_UNIT ( ) NAMED_UNIT ( * ) SI_UNIT ( $, .METRE. ) );
#207 = ORIENTED_EDGE ( 'NONE', *, *, #233, .F. ) ;
#208 = ORIENTED_EDGE ( 'NONE', *, *, #122, .F. ) ;
#209 = CARTESIAN_POINT ( 'NONE',  ( 1.777096411741933493E-16, 0.03969283100678655529, 0.000000000000000000 ) ) ;
#210 = EDGE_LOOP ( 'NONE', ( #165, #241 ) ) ;
#211 = CIRCLE ( 'NONE', #138, 0.09375000000000001388 ) ;
#212 = CIRCLE ( 'NONE', #97, 0.09374999999999983347 ) ;
#213 = VERTEX_POINT ( 'NONE', #224 ) ;
#214 = FACE_OUTER_BOUND ( 'NONE', #259, .T. ) ;
#215 = SURFACE_SIDE_STYLE ('',( #118 ) ) ;
#216 = DIRECTION ( 'NONE',  ( -1.218900715719354978E-16, 1.000000000000000000, -0.000000000000000000 ) ) ;
#217 = PLANE ( 'NONE',  #115 ) ;
#218 =( CONVERSION_BASED_UNIT ( 'INCH', #168 ) LENGTH_UNIT ( ) NAMED_UNIT ( #123 ) );
#219 = SURFACE_STYLE_FILL_AREA ( #125 ) ;
#220 = SURFACE_STYLE_USAGE ( .BOTH. , #274 ) ;
#221 = CARTESIAN_POINT ( 'NONE',  ( -6.123233995736763571E-17, 2.000000000000000000, 0.000000000000000000 ) ) ;
#222 = DIRECTION ( 'NONE',  ( -1.000000000000000000, -5.969592905327508906E-33, 0.000000000000000000 ) ) ;
#223 = CONICAL_SURFACE ( 'NONE', #1, 0.02500000000000000139, 1.047197551196600074 ) ;
#224 = CARTESIAN_POINT ( 'NONE',  ( -0.09375000000000002776, 0.03969283100678656917, 0.000000000000000000 ) ) ;
#225 = VECTOR ( 'NONE', #17, 39.37007874015748143 ) ;
#226 = DIRECTION ( 'NONE',  ( -5.969592905327508222E-33, 1.000000000000000000, 0.000000000000000000 ) ) ;
#227 =( NAMED_UNIT ( * ) SI_UNIT ( $, .STERADIAN. ) SOLID_ANGLE_UNIT ( ) );
#228 = LENGTH_MEASURE_WITH_UNIT ( LENGTH_MEASURE( 0.02539999999999999897 ), #75 );
#229 = SURFACE_STYLE_FILL_AREA ( #307 ) ;
#230 = ORIENTED_EDGE ( 'NONE', *, *, #122, .T. ) ;
#231 = CARTESIAN_POINT ( 'NONE',  ( -0.02500000000000000139, -2.984796452663754538E-34, 0.000000000000000000 ) ) ;
#232 = DIRECTION ( 'NONE',  ( 1.000000000000000000, 0.000000000000000000, 0.000000000000000000 ) ) ;
#233 = EDGE_CURVE ( 'NONE', #69, #213, #144, .T. ) ;
#234 = SURFACE_SIDE_STYLE ('',( #229 ) ) ;
#235 = ADVANCED_FACE ( 'NONE', ( #255 ), #37, .T. ) ;
#236 = ORIENTED_EDGE ( 'NONE', *, *, #233, .T. ) ;
#237 = PRODUCT_DEFINITION_SHAPE ( 'NONE', 'NONE',  #265 ) ;
#238 =( LENGTH_UNIT ( ) NAMED_UNIT ( * ) SI_UNIT ( $, .METRE. ) );
#239 = CARTESIAN_POINT ( 'NONE',  ( 1.777096411741933739E-16, 0.03969283100678664550, 0.000000000000000000 ) ) ;
#240 = CIRCLE ( 'NONE', #43, 0.09374999999999983347 ) ;
#241 = ORIENTED_EDGE ( 'NONE', *, *, #292, .T. ) ;
#242 = DIMENSIONAL_EXPONENTS ( 1.000000000000000000, 0.000000000000000000, 0.000000000000000000, 0.000000000000000000, 0.000000000000000000, 0.000000000000000000, 0.000000000000000000 ) ;
#243 =( NAMED_UNIT ( * ) SI_UNIT ( $, .STERADIAN. ) SOLID_ANGLE_UNIT ( ) );
#244 = EDGE_CURVE ( 'NONE', #302, #308, #47, .T. ) ;
#245 = PLANE ( 'NONE',  #139 ) ;
#246 = PLANE ( 'NONE',  #257 ) ;
#247 = EDGE_CURVE ( 'NONE', #302, #131, #240, .T. ) ;
#248 =( NAMED_UNIT ( * ) PLANE_ANGLE_UNIT ( ) SI_UNIT ( $, .RADIAN. ) );
#249 = STYLED_ITEM ( 'NONE', ( #293 ), #183 ) ;
#250 = DIMENSIONAL_EXPONENTS ( 1.000000000000000000, 0.000000000000000000, 0.000000000000000000, 0.000000000000000000, 0.000000000000000000, 0.000000000000000000, 0.000000000000000000 ) ;
#251 = VERTEX_POINT ( 'NONE', #93 ) ;
#252 = PRESENTATION_LAYER_ASSIGNMENT (  '', '', ( #277 ) ) ;
#253 = DIRECTION ( 'NONE',  ( 1.000000000000000000, 0.000000000000000000, 0.000000000000000000 ) ) ;
#254 = FILL_AREA_STYLE_COLOUR ( '', #108 ) ;
#255 = FACE_OUTER_BOUND ( 'NONE', #84, .T. ) ;
#256 =( GEOMETRIC_REPRESENTATION_CONTEXT ( 3 ) GLOBAL_UNCERTAINTY_ASSIGNED_CONTEXT ( ( #157 ) ) GLOBAL_UNIT_ASSIGNED_CONTEXT ( ( #99, #248, #243 ) ) REPRESENTATION_CONTEXT ( 'NONE', 'WORKASPACE' ) );
#257 = AXIS2_PLACEMENT_3D ( 'NONE', #209, #270, #266 ) ;
#258 =( NAMED_UNIT ( * ) PLANE_ANGLE_UNIT ( ) SI_UNIT ( $, .RADIAN. ) );
#259 = EDGE_LOOP ( 'NONE', ( #185, #68 ) ) ;
#260 = ADVANCED_FACE ( 'NONE', ( #141 ), #246, .F. ) ;
#261 = FILL_AREA_STYLE ('',( #254 ) ) ;
#262 = CLOSED_SHELL ( 'NONE', ( #205, #183, #179, #164 ) ) ;
#263 = CARTESIAN_POINT ( 'NONE',  ( 0.09374999999999998612, 0.03969283100678665244, 1.148106374200643555E-17 ) ) ;
#264 = DIRECTION ( 'NONE',  ( -1.000000000000000000, 0.000000000000000000, 0.000000000000000000 ) ) ;
#265 = PRODUCT_DEFINITION ( 'UNKNOWN', '', #282, #269 ) ;
#266 = DIRECTION ( 'NONE',  ( -1.000000000000000000, -1.218900715719354978E-16, 0.000000000000000000 ) ) ;
#267 = CARTESIAN_POINT ( 'NONE',  ( -0.09375000000000002776, 2.000000000000000000, 0.000000000000000000 ) ) ;
#268 = DIRECTION ( 'NONE',  ( -1.000000000000000000, -9.106159978880893419E-17, 0.000000000000000000 ) ) ;
#269 = PRODUCT_DEFINITION_CONTEXT ( 'detailed design', #66, 'design' ) ;
#270 = DIRECTION ( 'NONE',  ( -1.218900715719354978E-16, 1.000000000000000000, 0.000000000000000000 ) ) ;
#271 = FILL_AREA_STYLE ('',( #295 ) ) ;
#272 = EDGE_CURVE ( 'NONE', #136, #175, #79, .T. ) ;
#273 =( NAMED_UNIT ( * ) PLANE_ANGLE_UNIT ( ) SI_UNIT ( $, .RADIAN. ) );
#274 = SURFACE_SIDE_STYLE ('',( #219 ) ) ;
#275 = CARTESIAN_POINT ( 'NONE',  ( 8.909009863834132142E-67, -1.492398226331877269E-34, 0.000000000000000000 ) ) ;
#276 =( LENGTH_UNIT ( ) NAMED_UNIT ( * ) SI_UNIT ( $, .METRE. ) );
#277 = STYLED_ITEM ( 'NONE', ( #106 ), #197 ) ;
#278 = ORIENTED_EDGE ( 'NONE', *, *, #148, .F. ) ;
#279 = ADVANCED_FACE ( 'NONE', ( #161 ), #113, .F. ) ;
#280 = EDGE_LOOP ( 'NONE', ( #284, #202 ) ) ;
#281 = MECHANICAL_DESIGN_GEOMETRIC_PRESENTATION_REPRESENTATION (  '', ( #249 ), #121 ) ;
#282 = PRODUCT_DEFINITION_FORMATION_WITH_SPECIFIED_SOURCE ( 'ANY', '', #286, .NOT_KNOWN. ) ;
#283 = DIRECTION ( 'NONE',  ( -1.218900715719354978E-16, 1.000000000000000000, -0.000000000000000000 ) ) ;
#284 = ORIENTED_EDGE ( 'NONE', *, *, #247, .F. ) ;
#285 = PRESENTATION_LAYER_ASSIGNMENT (  '', '', ( #299 ) ) ;
#286 = PRODUCT ( '84600', '84600', '', ( #196 ) ) ;
#287 = DIRECTION ( 'NONE',  ( 1.000000000000000000, 5.969592905327508906E-33, 0.000000000000000000 ) ) ;
#288 = DIRECTION ( 'NONE',  ( 1.000000000000000000, 0.000000000000000000, 0.000000000000000000 ) ) ;
#289 = DIRECTION ( 'NONE',  ( -1.218900715719354978E-16, 1.000000000000000000, -0.000000000000000000 ) ) ;
#290 = STYLED_ITEM ( 'NONE', ( #76 ), #179 ) ;
#291 = SURFACE_STYLE_USAGE ( .BOTH. , #215 ) ;
#292 = EDGE_CURVE ( 'NONE', #251, #308, #149, .T. ) ;
#293 = PRESENTATION_STYLE_ASSIGNMENT (( #59 ) ) ;
#294 =( GEOMETRIC_REPRESENTATION_CONTEXT ( 3 ) GLOBAL_UNCERTAINTY_ASSIGNED_CONTEXT ( ( #87 ) ) GLOBAL_UNIT_ASSIGNED_CONTEXT ( ( #171, #273, #2 ) ) REPRESENTATION_CONTEXT ( 'NONE', 'WORKASPACE' ) );
#295 = FILL_AREA_STYLE_COLOUR ( '', #159 ) ;
#296 = EDGE_LOOP ( 'NONE', ( #105, #155, #230, #92 ) ) ;
#297 = AXIS2_PLACEMENT_3D ( 'NONE', #140, #73, #222 ) ;
#298 = FILL_AREA_STYLE ('',( #39 ) ) ;
#299 = STYLED_ITEM ( 'NONE', ( #300 ), #198 ) ;
#300 = PRESENTATION_STYLE_ASSIGNMENT (( #135 ) ) ;
#301 = DIRECTION ( 'NONE',  ( -1.000000000000000000, 0.000000000000000000, 0.000000000000000000 ) ) ;
#302 = VERTEX_POINT ( 'NONE', #124 ) ;
#303 = CARTESIAN_POINT ( 'NONE',  ( 8.909009863834132142E-67, -1.492398226331877269E-34, 0.000000000000000000 ) ) ;
#304 = PRESENTATION_STYLE_ASSIGNMENT (( #48 ) ) ;
#305 = CARTESIAN_POINT ( 'NONE',  ( -6.123233995736763571E-17, 2.000000000000000000, 0.000000000000000000 ) ) ;
#306 = AXIS2_PLACEMENT_3D ( 'NONE', #305, #283, #301 ) ;
#307 = FILL_AREA_STYLE ('',( #34 ) ) ;
#308 = VERTEX_POINT ( 'NONE', #150 ) ;
#309 = CARTESIAN_POINT ( 'NONE',  ( -6.123233995736763571E-17, 2.000000000000000000, 0.000000000000000000 ) ) ;
ENDSEC;
END-ISO-10303-21;
