ISO-10303-21;
HEADER;
FILE_DESCRIPTION (( 'STEP AP214' ),
    '1' );
FILE_NAME ('Micro_SFBM-020-9X.STEP',
    '2021-09-03T16:40:07',
    ( '' ),
    ( '' ),
    'SwSTEP 2.0',
    'SolidWorks 2020',
    '' );
FILE_SCHEMA (( 'AUTOMOTIVE_DESIGN' ));
ENDSEC;

DATA;
#1 = AXIS2_PLACEMENT_3D ( 'NONE', #183, #83, #297 ) ;
#2 = EDGE_CURVE ( 'NONE', #138, #97, #95, .T. ) ;
#3 = VECTOR ( 'NONE', #356, 39.37007874015748143 ) ;
#4 = CYLINDRICAL_SURFACE ( 'NONE', #131, 0.03838600000000003121 ) ;
#5 = ORIENTED_EDGE ( 'NONE', *, *, #261, .F. ) ;
#6 = ORIENTED_EDGE ( 'NONE', *, *, #222, .T. ) ;
#7 = DIRECTION ( 'NONE',  ( -1.000000000000000000, 0.0000000000000000000, 0.0000000000000000000 ) ) ;
#8 = EDGE_LOOP ( 'NONE', ( #127, #38, #9, #309 ) ) ;
#9 = ORIENTED_EDGE ( 'NONE', *, *, #194, .F. ) ;
#10 = MANIFOLD_SOLID_BREP ( 'Cut-Revolve1', #265 ) ;
#11 = CONICAL_SURFACE ( 'NONE', #349, 0.1031100000000002570, 0.7853981633974318477 ) ;
#12 = ADVANCED_FACE ( 'NONE', ( #99 ), #4, .T. ) ;
#13 = ORIENTED_EDGE ( 'NONE', *, *, #136, .T. ) ;
#14 = DIRECTION ( 'NONE',  ( 0.0000000000000000000, 0.0000000000000000000, -1.000000000000000000 ) ) ;
#15 = LINE ( 'NONE', #351, #167 ) ;
#16 = CYLINDRICAL_SURFACE ( 'NONE', #26, 0.1181100000000000066 ) ;
#17 = VECTOR ( 'NONE', #144, 39.37007874015748143 ) ;
#18 = ORIENTED_EDGE ( 'NONE', *, *, #42, .T. ) ;
#19 = COLOUR_RGB ( '',0.7921568627450980005, 0.8196078431372548767, 0.9333333333333333481 ) ;
#20 = DIRECTION ( 'NONE',  ( -0.0000000000000000000, -0.0000000000000000000, -1.000000000000000000 ) ) ;
#21 = DIRECTION ( 'NONE',  ( -1.000000000000000000, 0.0000000000000000000, 0.0000000000000000000 ) ) ;
#22 = DIRECTION ( 'NONE',  ( -1.000000000000000000, 0.0000000000000000000, 0.0000000000000000000 ) ) ;
#23 = FACE_OUTER_BOUND ( 'NONE', #193, .T. ) ;
#24 = CARTESIAN_POINT ( 'NONE',  ( 0.0000000000000000000, 0.0000000000000000000, 0.0000000000000000000 ) ) ;
#25 = PLANE ( 'NONE',  #158 ) ;
#26 = AXIS2_PLACEMENT_3D ( 'NONE', #78, #260, #49 ) ;
#27 = LINE ( 'NONE', #152, #75 ) ;
#28 = CARTESIAN_POINT ( 'NONE',  ( 0.0000000000000000000, 0.0000000000000000000, 0.0000000000000000000 ) ) ;
#29 = DIRECTION ( 'NONE',  ( -1.000000000000000000, 0.0000000000000000000, 0.0000000000000000000 ) ) ;
#30 = APPLICATION_PROTOCOL_DEFINITION ( 'draft international standard', 'automotive_design', 1998, #240 ) ;
#31 = EDGE_LOOP ( 'NONE', ( #91, #257 ) ) ;
#32 = FACE_OUTER_BOUND ( 'NONE', #221, .T. ) ;
#33 = EDGE_CURVE ( 'NONE', #130, #253, #282, .T. ) ;
#34 = VERTEX_POINT ( 'NONE', #192 ) ;
#35 = PRODUCT_DEFINITION ( 'UNKNOWN', '', #350, #319 ) ;
#36 = MECHANICAL_DESIGN_GEOMETRIC_PRESENTATION_REPRESENTATION (  '', ( #322 ), #81 ) ;
#37 = AXIS2_PLACEMENT_3D ( 'NONE', #264, #114, #233 ) ;
#38 = ORIENTED_EDGE ( 'NONE', *, *, #281, .T. ) ;
#39 = ORIENTED_EDGE ( 'NONE', *, *, #51, .T. ) ;
#40 = PRESENTATION_STYLE_ASSIGNMENT (( #251 ) ) ;
#41 =( NAMED_UNIT ( * ) PLANE_ANGLE_UNIT ( ) SI_UNIT ( $, .RADIAN. ) );
#42 = EDGE_CURVE ( 'NONE', #73, #223, #280, .T. ) ;
#43 = APPLICATION_CONTEXT ( 'automotive_design' ) ;
#44 = SURFACE_SIDE_STYLE ('',( #128 ) ) ;
#45 = CIRCLE ( 'NONE', #117, 0.03936606300000000669 ) ;
#46 = ORIENTED_EDGE ( 'NONE', *, *, #201, .F. ) ;
#47 = CARTESIAN_POINT ( 'NONE',  ( 0.03936606300000000669, 4.820952304798306567E-18, 0.0000000000000000000 ) ) ;
#48 = DIRECTION ( 'NONE',  ( -0.1736481776669304700, 0.0000000000000000000, -0.9848077530122080203 ) ) ;
#49 = DIRECTION ( 'NONE',  ( -1.000000000000000000, 0.0000000000000000000, 0.0000000000000000000 ) ) ;
#50 = EDGE_LOOP ( 'NONE', ( #103, #197, #68, #304 ) ) ;
#51 = EDGE_CURVE ( 'NONE', #161, #250, #146, .T. ) ;
#52 = CARTESIAN_POINT ( 'NONE',  ( -0.03936606300000000669, 0.0000000000000000000, 0.09842500000000001248 ) ) ;
#53 = CARTESIAN_POINT ( 'NONE',  ( 0.03838600000000005202, 0.0000000000000000000, 0.3740160000000000151 ) ) ;
#54 = VECTOR ( 'NONE', #59, 39.37007874015748854 ) ;
#55 = CYLINDRICAL_SURFACE ( 'NONE', #306, 0.03936606300000000669 ) ;
#56 = CARTESIAN_POINT ( 'NONE',  ( 0.0000000000000000000, 0.0000000000000000000, 2.244094000000000033 ) ) ;
#57 = LINE ( 'NONE', #121, #219 ) ;
#58 = ADVANCED_FACE ( 'NONE', ( #82 ), #11, .T. ) ;
#59 = DIRECTION ( 'NONE',  ( -0.7071067811865358044, 0.0000000000000000000, -0.7071067811865590080 ) ) ;
#60 = DIRECTION ( 'NONE',  ( -1.000000000000000000, 0.0000000000000000000, 0.0000000000000000000 ) ) ;
#61 = EDGE_CURVE ( 'NONE', #71, #130, #235, .T. ) ;
#62 = CARTESIAN_POINT ( 'NONE',  ( 0.0000000000000000000, 0.0000000000000000000, 2.229093999999999465 ) ) ;
#63 = DIMENSIONAL_EXPONENTS ( 1.000000000000000000, 0.0000000000000000000, 0.0000000000000000000, 0.0000000000000000000, 0.0000000000000000000, 0.0000000000000000000, 0.0000000000000000000 ) ;
#64 = CIRCLE ( 'NONE', #335, 0.1181100000000000066 ) ;
#65 =( GEOMETRIC_REPRESENTATION_CONTEXT ( 3 ) GLOBAL_UNCERTAINTY_ASSIGNED_CONTEXT ( ( #300 ) ) GLOBAL_UNIT_ASSIGNED_CONTEXT ( ( #357, #149, #328 ) ) REPRESENTATION_CONTEXT ( 'NONE', 'WORKASPACE' ) );
#66 = ORIENTED_EDGE ( 'NONE', *, *, #230, .T. ) ;
#67 = EDGE_CURVE ( 'NONE', #217, #97, #15, .T. ) ;
#68 = ORIENTED_EDGE ( 'NONE', *, *, #353, .T. ) ;
#69 = ORIENTED_EDGE ( 'NONE', *, *, #353, .F. ) ;
#70 = AXIS2_PLACEMENT_3D ( 'NONE', #317, #343, #22 ) ;
#71 = VERTEX_POINT ( 'NONE', #266 ) ;
#72 = PRODUCT ( 'Micro_SFBM-020-9X', 'Micro_SFBM-020-9X', '', ( #120 ) ) ;
#73 = VERTEX_POINT ( 'NONE', #105 ) ;
#74 = DIRECTION ( 'NONE',  ( -1.000000000000000000, 0.0000000000000000000, 0.0000000000000000000 ) ) ;
#75 = VECTOR ( 'NONE', #207, 39.37007874015748143 ) ;
#76 = DIRECTION ( 'NONE',  ( -0.0000000000000000000, -0.0000000000000000000, -1.000000000000000000 ) ) ;
#77 = DIRECTION ( 'NONE',  ( 0.1736481776669304700, 2.126576849575773147E-17, -0.9848077530122080203 ) ) ;
#78 = CARTESIAN_POINT ( 'NONE',  ( 0.0000000000000000000, 0.0000000000000000000, 2.244094000000000033 ) ) ;
#79 = ORIENTED_EDGE ( 'NONE', *, *, #115, .T. ) ;
#80 = FACE_OUTER_BOUND ( 'NONE', #31, .T. ) ;
#81 =( GEOMETRIC_REPRESENTATION_CONTEXT ( 3 ) GLOBAL_UNCERTAINTY_ASSIGNED_CONTEXT ( ( #94 ) ) GLOBAL_UNIT_ASSIGNED_CONTEXT ( ( #332, #41, #277 ) ) REPRESENTATION_CONTEXT ( 'NONE', 'WORKASPACE' ) );
#82 = FACE_OUTER_BOUND ( 'NONE', #245, .T. ) ;
#83 = DIRECTION ( 'NONE',  ( -0.0000000000000000000, -0.0000000000000000000, -1.000000000000000000 ) ) ;
#84 = LINE ( 'NONE', #288, #54 ) ;
#85 = DIMENSIONAL_EXPONENTS ( 1.000000000000000000, 0.0000000000000000000, 0.0000000000000000000, 0.0000000000000000000, 0.0000000000000000000, 0.0000000000000000000, 0.0000000000000000000 ) ;
#86 = DIRECTION ( 'NONE',  ( 1.000000000000000000, 0.0000000000000000000, 0.0000000000000000000 ) ) ;
#87 =( LENGTH_UNIT ( ) NAMED_UNIT ( * ) SI_UNIT ( $, .METRE. ) );
#88 = CONICAL_SURFACE ( 'NONE', #89, 0.1031100000000002570, 0.7853981633974318477 ) ;
#89 = AXIS2_PLACEMENT_3D ( 'NONE', #324, #157, #60 ) ;
#90 = ADVANCED_FACE ( 'NONE', ( #198 ), #139, .T. ) ;
#91 = ORIENTED_EDGE ( 'NONE', *, *, #247, .T. ) ;
#92 = APPLICATION_PROTOCOL_DEFINITION ( 'draft international standard', 'automotive_design', 1998, #43 ) ;
#93 = SHAPE_DEFINITION_REPRESENTATION ( #168, #101 ) ;
#94 = UNCERTAINTY_MEASURE_WITH_UNIT (LENGTH_MEASURE( 1.000000000000000082E-05 ), #332, 'distance_accuracy_value', 'NONE');
#95 = CIRCLE ( 'NONE', #321, 0.1181100000000000066 ) ;
#96 = AXIS2_PLACEMENT_3D ( 'NONE', #110, #291, #364 ) ;
#97 = VERTEX_POINT ( 'NONE', #228 ) ;
#98 = ORIENTED_EDGE ( 'NONE', *, *, #33, .T. ) ;
#99 = FACE_OUTER_BOUND ( 'NONE', #279, .T. ) ;
#100 = VECTOR ( 'NONE', #313, 39.37007874015748143 ) ;
#101 = ADVANCED_BREP_SHAPE_REPRESENTATION ( 'Micro_SFBM-020-9X', ( #10, #283 ), #258 ) ;
#102 = EDGE_CURVE ( 'NONE', #250, #223, #243, .T. ) ;
#103 = ORIENTED_EDGE ( 'NONE', *, *, #61, .F. ) ;
#104 = FILL_AREA_STYLE ('',( #165 ) ) ;
#105 = CARTESIAN_POINT ( 'NONE',  ( 0.03838600000000005202, 4.700929203207035352E-18, 0.3740160000000000151 ) ) ;
#106 = EDGE_LOOP ( 'NONE', ( #362, #333, #225, #69 ) ) ;
#107 = DIRECTION ( 'NONE',  ( 0.0000000000000000000, 0.0000000000000000000, 1.000000000000000000 ) ) ;
#108 = AXIS2_PLACEMENT_3D ( 'NONE', #208, #301, #29 ) ;
#109 = EDGE_LOOP ( 'NONE', ( #270, #135, #329, #164 ) ) ;
#110 = CARTESIAN_POINT ( 'NONE',  ( 0.0000000000000000000, 0.0000000000000000000, 2.244094000000000033 ) ) ;
#111 = CARTESIAN_POINT ( 'NONE',  ( -0.03936606300000000669, 0.0000000000000000000, 0.0000000000000000000 ) ) ;
#112 = ORIENTED_EDGE ( 'NONE', *, *, #51, .F. ) ;
#113 = CARTESIAN_POINT ( 'NONE',  ( -0.03838600000000003121, 0.0000000000000000000, 0.0000000000000000000 ) ) ;
#114 = DIRECTION ( 'NONE',  ( -0.0000000000000000000, -0.0000000000000000000, -1.000000000000000000 ) ) ;
#115 = EDGE_CURVE ( 'NONE', #250, #289, #310, .T. ) ;
#116 = DIRECTION ( 'NONE',  ( -1.000000000000000000, 0.0000000000000000000, 0.0000000000000000000 ) ) ;
#117 = AXIS2_PLACEMENT_3D ( 'NONE', #271, #140, #236 ) ;
#118 = DIRECTION ( 'NONE',  ( 1.000000000000000000, 0.0000000000000000000, 0.0000000000000000000 ) ) ;
#119 = CARTESIAN_POINT ( 'NONE',  ( 0.1031100000000002570, 1.354581824536888722E-17, 2.244094000000000033 ) ) ;
#120 = PRODUCT_CONTEXT ( 'NONE', #43, 'mechanical' ) ;
#121 = CARTESIAN_POINT ( 'NONE',  ( 0.03936606300000000669, 4.820952304798306567E-18, 0.09842500000000001248 ) ) ;
#122 =( CONVERSION_BASED_UNIT ( 'INCH', #298 ) LENGTH_UNIT ( ) NAMED_UNIT ( #63 ) );
#123 = CONICAL_SURFACE ( 'NONE', #276, 0.03936606300000000669, 0.1745329251994330866 ) ;
#124 =( LENGTH_UNIT ( ) NAMED_UNIT ( * ) SI_UNIT ( $, .METRE. ) );
#125 = EDGE_LOOP ( 'NONE', ( #338, #369, #79, #46 ) ) ;
#126 = AXIS2_PLACEMENT_3D ( 'NONE', #256, #107, #227 ) ;
#127 = ORIENTED_EDGE ( 'NONE', *, *, #102, .T. ) ;
#128 = SURFACE_STYLE_FILL_AREA ( #104 ) ;
#129 = ORIENTED_EDGE ( 'NONE', *, *, #274, .F. ) ;
#130 = VERTEX_POINT ( 'NONE', #47 ) ;
#131 = AXIS2_PLACEMENT_3D ( 'NONE', #218, #334, #163 ) ;
#132 = DIRECTION ( 'NONE',  ( -0.0000000000000000000, -0.0000000000000000000, -1.000000000000000000 ) ) ;
#133 = ORIENTED_EDGE ( 'NONE', *, *, #67, .F. ) ;
#134 = ORIENTED_EDGE ( 'NONE', *, *, #184, .F. ) ;
#135 = ORIENTED_EDGE ( 'NONE', *, *, #378, .T. ) ;
#136 = EDGE_CURVE ( 'NONE', #253, #130, #355, .T. ) ;
#137 = CARTESIAN_POINT ( 'NONE',  ( -0.03838600000000005202, 0.0000000000000000000, 0.3740160000000000151 ) ) ;
#138 = VERTEX_POINT ( 'NONE', #373 ) ;
#139 = CYLINDRICAL_SURFACE ( 'NONE', #96, 0.1181100000000000066 ) ;
#140 = DIRECTION ( 'NONE',  ( -0.0000000000000000000, -0.0000000000000000000, -1.000000000000000000 ) ) ;
#141 = CIRCLE ( 'NONE', #234, 0.03936606300000000669 ) ;
#142 = MECHANICAL_DESIGN_GEOMETRIC_PRESENTATION_REPRESENTATION (  '', ( #331 ), #65 ) ;
#143 = ORIENTED_EDGE ( 'NONE', *, *, #230, .F. ) ;
#144 = DIRECTION ( 'NONE',  ( -0.0000000000000000000, -0.0000000000000000000, -1.000000000000000000 ) ) ;
#145 = FACE_OUTER_BOUND ( 'NONE', #125, .T. ) ;
#146 = LINE ( 'NONE', #113, #100 ) ;
#147 = FACE_OUTER_BOUND ( 'NONE', #249, .T. ) ;
#148 = ADVANCED_FACE ( 'NONE', ( #180 ), #294, .F. ) ;
#149 =( NAMED_UNIT ( * ) PLANE_ANGLE_UNIT ( ) SI_UNIT ( $, .RADIAN. ) );
#150 = DIRECTION ( 'NONE',  ( -1.000000000000000000, 0.0000000000000000000, 0.0000000000000000000 ) ) ;
#151 = CIRCLE ( 'NONE', #1, 0.1181100000000000066 ) ;
#152 = CARTESIAN_POINT ( 'NONE',  ( 0.1181100000000000066, 1.446430334472939084E-17, 2.244094000000000033 ) ) ;
#153 = DIRECTION ( 'NONE',  ( 0.0000000000000000000, 0.0000000000000000000, 1.000000000000000000 ) ) ;
#154 = EDGE_CURVE ( 'NONE', #161, #73, #296, .T. ) ;
#155 =( NAMED_UNIT ( * ) PLANE_ANGLE_UNIT ( ) SI_UNIT ( $, .RADIAN. ) );
#156 = SURFACE_STYLE_FILL_AREA ( #211 ) ;
#157 = DIRECTION ( 'NONE',  ( 0.0000000000000000000, 0.0000000000000000000, -1.000000000000000000 ) ) ;
#158 = AXIS2_PLACEMENT_3D ( 'NONE', #56, #179, #229 ) ;
#159 = ADVANCED_FACE ( 'NONE', ( #232 ), #55, .T. ) ;
#160 = DIMENSIONAL_EXPONENTS ( 1.000000000000000000, 0.0000000000000000000, 0.0000000000000000000, 0.0000000000000000000, 0.0000000000000000000, 0.0000000000000000000, 0.0000000000000000000 ) ;
#161 = VERTEX_POINT ( 'NONE', #137 ) ;
#162 = PRESENTATION_LAYER_ASSIGNMENT (  '', '', ( #322 ) ) ;
#163 = DIRECTION ( 'NONE',  ( -1.000000000000000000, 0.0000000000000000000, 0.0000000000000000000 ) ) ;
#164 = ORIENTED_EDGE ( 'NONE', *, *, #2, .F. ) ;
#165 = FILL_AREA_STYLE_COLOUR ( '', #347 ) ;
#166 = ORIENTED_EDGE ( 'NONE', *, *, #261, .T. ) ;
#167 = VECTOR ( 'NONE', #205, 39.37007874015748143 ) ;
#168 = PRODUCT_DEFINITION_SHAPE ( 'NONE', 'NONE',  #35 ) ;
#169 = EDGE_CURVE ( 'NONE', #231, #187, #290, .T. ) ;
#170 = DIRECTION ( 'NONE',  ( -1.000000000000000000, 0.0000000000000000000, 0.0000000000000000000 ) ) ;
#171 = EDGE_LOOP ( 'NONE', ( #13, #98 ) ) ;
#172 = DIRECTION ( 'NONE',  ( -0.0000000000000000000, -0.0000000000000000000, -1.000000000000000000 ) ) ;
#173 = DIRECTION ( 'NONE',  ( 1.000000000000000000, 0.0000000000000000000, 0.0000000000000000000 ) ) ;
#174 = ORIENTED_EDGE ( 'NONE', *, *, #154, .T. ) ;
#175 = CARTESIAN_POINT ( 'NONE',  ( 0.0000000000000000000, 0.0000000000000000000, 0.0000000000000000000 ) ) ;
#176 = DIRECTION ( 'NONE',  ( -0.0000000000000000000, 0.0000000000000000000, -1.000000000000000000 ) ) ;
#177 = VECTOR ( 'NONE', #293, 39.37007874015748854 ) ;
#178 = CARTESIAN_POINT ( 'NONE',  ( 0.0000000000000000000, 0.0000000000000000000, 2.244094000000000033 ) ) ;
#179 = DIRECTION ( 'NONE',  ( 0.0000000000000000000, 0.0000000000000000000, 1.000000000000000000 ) ) ;
#180 = FACE_OUTER_BOUND ( 'NONE', #171, .T. ) ;
#181 = DIRECTION ( 'NONE',  ( -0.0000000000000000000, -0.0000000000000000000, -1.000000000000000000 ) ) ;
#182 = FILL_AREA_STYLE_COLOUR ( '', #19 ) ;
#183 = CARTESIAN_POINT ( 'NONE',  ( 0.0000000000000000000, 0.0000000000000000000, 0.3740159999999999041 ) ) ;
#184 = EDGE_CURVE ( 'NONE', #223, #250, #209, .T. ) ;
#185 = DIRECTION ( 'NONE',  ( 0.0000000000000000000, 0.0000000000000000000, -1.000000000000000000 ) ) ;
#186 = VECTOR ( 'NONE', #76, 39.37007874015748143 ) ;
#187 = VERTEX_POINT ( 'NONE', #367 ) ;
#188 = EDGE_LOOP ( 'NONE', ( #255, #214 ) ) ;
#189 = ORIENTED_EDGE ( 'NONE', *, *, #247, .F. ) ;
#190 = ADVANCED_FACE ( 'NONE', ( #263 ), #123, .T. ) ;
#191 = ORIENTED_EDGE ( 'NONE', *, *, #378, .F. ) ;
#192 = CARTESIAN_POINT ( 'NONE',  ( 0.1181100000000000066, 1.446430334472939084E-17, 2.229093999999999465 ) ) ;
#193 = EDGE_LOOP ( 'NONE', ( #215, #312 ) ) ;
#194 = EDGE_CURVE ( 'NONE', #289, #71, #45, .T. ) ;
#195 = AXIS2_PLACEMENT_3D ( 'NONE', #53, #176, #21 ) ;
#196 = CARTESIAN_POINT ( 'NONE',  ( 0.0000000000000000000, 0.0000000000000000000, 0.0000000000000000000 ) ) ;
#197 = ORIENTED_EDGE ( 'NONE', *, *, #201, .T. ) ;
#198 = FACE_OUTER_BOUND ( 'NONE', #109, .T. ) ;
#199 = CARTESIAN_POINT ( 'NONE',  ( -0.03936606300000000669, 0.0000000000000000000, 0.09842500000000001248 ) ) ;
#200 = FACE_BOUND ( 'NONE', #188, .T. ) ;
#201 = EDGE_CURVE ( 'NONE', #71, #289, #141, .T. ) ;
#202 = CARTESIAN_POINT ( 'NONE',  ( 0.0000000000000000000, 0.0000000000000000000, 0.09842500000000001248 ) ) ;
#203 = DIRECTION ( 'NONE',  ( -1.000000000000000000, 0.0000000000000000000, 0.0000000000000000000 ) ) ;
#204 = PRESENTATION_LAYER_ASSIGNMENT (  '', '', ( #331 ) ) ;
#205 = DIRECTION ( 'NONE',  ( -0.0000000000000000000, -0.0000000000000000000, -1.000000000000000000 ) ) ;
#206 = CYLINDRICAL_SURFACE ( 'NONE', #226, 0.03838600000000003121 ) ;
#207 = DIRECTION ( 'NONE',  ( -0.0000000000000000000, -0.0000000000000000000, -1.000000000000000000 ) ) ;
#208 = CARTESIAN_POINT ( 'NONE',  ( 0.0000000000000000000, 0.0000000000000000000, 0.0000000000000000000 ) ) ;
#209 = CIRCLE ( 'NONE', #360, 0.03838600000000001733 ) ;
#210 = CARTESIAN_POINT ( 'NONE',  ( -0.03936606300000000669, 0.0000000000000000000, 0.0000000000000000000 ) ) ;
#211 = FILL_AREA_STYLE ('',( #182 ) ) ;
#212 = EDGE_CURVE ( 'NONE', #34, #138, #27, .T. ) ;
#213 = CIRCLE ( 'NONE', #268, 0.03838600000000005202 ) ;
#214 = ORIENTED_EDGE ( 'NONE', *, *, #238, .F. ) ;
#215 = ORIENTED_EDGE ( 'NONE', *, *, #274, .T. ) ;
#216 =( LENGTH_UNIT ( ) NAMED_UNIT ( * ) SI_UNIT ( $, .METRE. ) );
#217 = VERTEX_POINT ( 'NONE', #239 ) ;
#218 = CARTESIAN_POINT ( 'NONE',  ( 0.0000000000000000000, 0.0000000000000000000, 0.0000000000000000000 ) ) ;
#219 = VECTOR ( 'NONE', #77, 39.37007874015748143 ) ;
#220 = CARTESIAN_POINT ( 'NONE',  ( 0.0000000000000000000, 0.0000000000000000000, 0.3740159999999999041 ) ) ;
#221 = EDGE_LOOP ( 'NONE', ( #361, #66, #262, #5 ) ) ;
#222 = EDGE_CURVE ( 'NONE', #217, #34, #64, .T. ) ;
#223 = VERTEX_POINT ( 'NONE', #267 ) ;
#224 = CARTESIAN_POINT ( 'NONE',  ( 0.0000000000000000000, 0.0000000000000000000, 0.3740160000000000151 ) ) ;
#225 = ORIENTED_EDGE ( 'NONE', *, *, #136, .F. ) ;
#226 = AXIS2_PLACEMENT_3D ( 'NONE', #318, #181, #150 ) ;
#227 = DIRECTION ( 'NONE',  ( 1.000000000000000000, 0.0000000000000000000, 0.0000000000000000000 ) ) ;
#228 = CARTESIAN_POINT ( 'NONE',  ( -0.1181100000000000066, 0.0000000000000000000, 0.3740159999999999041 ) ) ;
#229 = DIRECTION ( 'NONE',  ( 1.000000000000000000, 0.0000000000000000000, -0.0000000000000000000 ) ) ;
#230 = EDGE_CURVE ( 'NONE', #231, #34, #352, .T. ) ;
#231 = VERTEX_POINT ( 'NONE', #119 ) ;
#232 = FACE_OUTER_BOUND ( 'NONE', #106, .T. ) ;
#233 = DIRECTION ( 'NONE',  ( -1.000000000000000000, 0.0000000000000000000, 0.0000000000000000000 ) ) ;
#234 = AXIS2_PLACEMENT_3D ( 'NONE', #377, #368, #116 ) ;
#235 = LINE ( 'NONE', #292, #186 ) ;
#236 = DIRECTION ( 'NONE',  ( -1.000000000000000000, 0.0000000000000000000, 0.0000000000000000000 ) ) ;
#237 = AXIS2_PLACEMENT_3D ( 'NONE', #320, #344, #371 ) ;
#238 = EDGE_CURVE ( 'NONE', #73, #161, #213, .T. ) ;
#239 = CARTESIAN_POINT ( 'NONE',  ( -0.1181100000000000066, 0.0000000000000000000, 2.229093999999999465 ) ) ;
#240 = APPLICATION_CONTEXT ( 'automotive_design' ) ;
#241 = CARTESIAN_POINT ( 'NONE',  ( 0.0000000000000000000, 0.0000000000000000000, 2.229093999999999465 ) ) ;
#242 = SURFACE_SIDE_STYLE ('',( #156 ) ) ;
#243 = CIRCLE ( 'NONE', #70, 0.03838600000000001733 ) ;
#244 = UNCERTAINTY_MEASURE_WITH_UNIT (LENGTH_MEASURE( 1.000000000000000082E-05 ), #122, 'distance_accuracy_value', 'NONE');
#245 = EDGE_LOOP ( 'NONE', ( #143, #189, #166, #191 ) ) ;
#246 = CONICAL_SURFACE ( 'NONE', #37, 0.03936606300000000669, 0.1745329251994330866 ) ;
#247 = EDGE_CURVE ( 'NONE', #187, #231, #273, .T. ) ;
#248 = LENGTH_MEASURE_WITH_UNIT ( LENGTH_MEASURE( 0.02539999999999999897 ), #216 );
#249 = EDGE_LOOP ( 'NONE', ( #6, #285, #129, #133 ) ) ;
#250 = VERTEX_POINT ( 'NONE', #295 ) ;
#251 = SURFACE_STYLE_USAGE ( .BOTH. , #44 ) ;
#252 = CARTESIAN_POINT ( 'NONE',  ( 0.03838600000000003121, 4.700929203207033811E-18, 0.0000000000000000000 ) ) ;
#253 = VERTEX_POINT ( 'NONE', #111 ) ;
#254 = DIRECTION ( 'NONE',  ( 0.0000000000000000000, 0.0000000000000000000, 1.000000000000000000 ) ) ;
#255 = ORIENTED_EDGE ( 'NONE', *, *, #154, .F. ) ;
#256 = CARTESIAN_POINT ( 'NONE',  ( 0.0000000000000000000, 0.0000000000000000000, 2.244094000000000033 ) ) ;
#257 = ORIENTED_EDGE ( 'NONE', *, *, #169, .T. ) ;
#258 =( GEOMETRIC_REPRESENTATION_CONTEXT ( 3 ) GLOBAL_UNCERTAINTY_ASSIGNED_CONTEXT ( ( #244 ) ) GLOBAL_UNIT_ASSIGNED_CONTEXT ( ( #122, #155, #326 ) ) REPRESENTATION_CONTEXT ( 'NONE', 'WORKASPACE' ) );
#259 = DIRECTION ( 'NONE',  ( -1.000000000000000000, 0.0000000000000000000, 0.0000000000000000000 ) ) ;
#260 = DIRECTION ( 'NONE',  ( -0.0000000000000000000, -0.0000000000000000000, -1.000000000000000000 ) ) ;
#261 = EDGE_CURVE ( 'NONE', #187, #217, #84, .T. ) ;
#262 = ORIENTED_EDGE ( 'NONE', *, *, #222, .F. ) ;
#263 = FACE_OUTER_BOUND ( 'NONE', #8, .T. ) ;
#264 = CARTESIAN_POINT ( 'NONE',  ( 0.0000000000000000000, 0.0000000000000000000, 0.09842500000000001248 ) ) ;
#265 = CLOSED_SHELL ( 'NONE', ( #159, #12, #190, #372, #305, #90, #308, #58, #336, #340, #348, #358, #148 ) ) ;
#266 = CARTESIAN_POINT ( 'NONE',  ( 0.03936606300000000669, 4.820952304798306567E-18, 0.09842500000000001248 ) ) ;
#267 = CARTESIAN_POINT ( 'NONE',  ( 0.03838600000000001733, 4.760940754002669804E-18, 0.1039832134739799296 ) ) ;
#268 = AXIS2_PLACEMENT_3D ( 'NONE', #316, #269, #379 ) ;
#269 = DIRECTION ( 'NONE',  ( -0.0000000000000000000, -0.0000000000000000000, -1.000000000000000000 ) ) ;
#270 = ORIENTED_EDGE ( 'NONE', *, *, #212, .F. ) ;
#271 = CARTESIAN_POINT ( 'NONE',  ( 0.0000000000000000000, 0.0000000000000000000, 0.09842500000000001248 ) ) ;
#272 = LINE ( 'NONE', #210, #3 ) ;
#273 = CIRCLE ( 'NONE', #237, 0.1031100000000002570 ) ;
#274 = EDGE_CURVE ( 'NONE', #97, #138, #151, .T. ) ;
#275 = EDGE_LOOP ( 'NONE', ( #345, #337, #39, #134 ) ) ;
#276 = AXIS2_PLACEMENT_3D ( 'NONE', #202, #315, #203 ) ;
#277 =( NAMED_UNIT ( * ) SI_UNIT ( $, .STERADIAN. ) SOLID_ANGLE_UNIT ( ) );
#278 = CARTESIAN_POINT ( 'NONE',  ( 0.0000000000000000000, 0.0000000000000000000, 0.0000000000000000000 ) ) ;
#279 = EDGE_LOOP ( 'NONE', ( #174, #18, #284, #112 ) ) ;
#280 = LINE ( 'NONE', #252, #17 ) ;
#281 = EDGE_CURVE ( 'NONE', #223, #71, #57, .T. ) ;
#282 = CIRCLE ( 'NONE', #341, 0.03936606300000000669 ) ;
#283 = AXIS2_PLACEMENT_3D ( 'NONE', #28, #153, #118 ) ;
#284 = ORIENTED_EDGE ( 'NONE', *, *, #102, .F. ) ;
#285 = ORIENTED_EDGE ( 'NONE', *, *, #212, .T. ) ;
#286 = PRODUCT_RELATED_PRODUCT_CATEGORY ( 'part', '', ( #72 ) ) ;
#287 = DIRECTION ( 'NONE',  ( -1.000000000000000000, 0.0000000000000000000, 0.0000000000000000000 ) ) ;
#288 = CARTESIAN_POINT ( 'NONE',  ( -0.1031100000000002570, 0.0000000000000000000, 2.244094000000000033 ) ) ;
#289 = VERTEX_POINT ( 'NONE', #199 ) ;
#290 = CIRCLE ( 'NONE', #126, 0.1031100000000002570 ) ;
#291 = DIRECTION ( 'NONE',  ( -0.0000000000000000000, -0.0000000000000000000, -1.000000000000000000 ) ) ;
#292 = CARTESIAN_POINT ( 'NONE',  ( 0.03936606300000000669, 4.820952304798306567E-18, 0.0000000000000000000 ) ) ;
#293 = DIRECTION ( 'NONE',  ( 0.7071067811865358044, 8.659560562354788645E-17, -0.7071067811865590080 ) ) ;
#294 = PLANE ( 'NONE',  #330 ) ;
#295 = CARTESIAN_POINT ( 'NONE',  ( -0.03838600000000001733, 0.0000000000000000000, 0.1039832134739799296 ) ) ;
#296 = CIRCLE ( 'NONE', #376, 0.03838600000000005202 ) ;
#297 = DIRECTION ( 'NONE',  ( -1.000000000000000000, 0.0000000000000000000, 0.0000000000000000000 ) ) ;
#298 = LENGTH_MEASURE_WITH_UNIT ( LENGTH_MEASURE( 0.02539999999999999897 ), #124 );
#299 = FACE_OUTER_BOUND ( 'NONE', #50, .T. ) ;
#300 = UNCERTAINTY_MEASURE_WITH_UNIT (LENGTH_MEASURE( 1.000000000000000082E-05 ), #357, 'distance_accuracy_value', 'NONE');
#301 = DIRECTION ( 'NONE',  ( -0.0000000000000000000, -0.0000000000000000000, -1.000000000000000000 ) ) ;
#302 = DIRECTION ( 'NONE',  ( -0.0000000000000000000, -0.0000000000000000000, -1.000000000000000000 ) ) ;
#303 = AXIS2_PLACEMENT_3D ( 'NONE', #175, #20, #370 ) ;
#304 = ORIENTED_EDGE ( 'NONE', *, *, #33, .F. ) ;
#305 = ADVANCED_FACE ( 'NONE', ( #147 ), #16, .T. ) ;
#306 = AXIS2_PLACEMENT_3D ( 'NONE', #196, #307, #170 ) ;
#307 = DIRECTION ( 'NONE',  ( -0.0000000000000000000, -0.0000000000000000000, -1.000000000000000000 ) ) ;
#308 = ADVANCED_FACE ( 'NONE', ( #80 ), #25, .T. ) ;
#309 = ORIENTED_EDGE ( 'NONE', *, *, #115, .F. ) ;
#310 = LINE ( 'NONE', #52, #365 ) ;
#311 = DIRECTION ( 'NONE',  ( 0.0000000000000000000, 0.0000000000000000000, -1.000000000000000000 ) ) ;
#312 = ORIENTED_EDGE ( 'NONE', *, *, #2, .T. ) ;
#313 = DIRECTION ( 'NONE',  ( -0.0000000000000000000, -0.0000000000000000000, -1.000000000000000000 ) ) ;
#314 = PLANE ( 'NONE',  #195 ) ;
#315 = DIRECTION ( 'NONE',  ( -0.0000000000000000000, -0.0000000000000000000, -1.000000000000000000 ) ) ;
#316 = CARTESIAN_POINT ( 'NONE',  ( 0.0000000000000000000, 0.0000000000000000000, 0.3740160000000000151 ) ) ;
#317 = CARTESIAN_POINT ( 'NONE',  ( 0.0000000000000000000, 0.0000000000000000000, 0.1039832134739799296 ) ) ;
#318 = CARTESIAN_POINT ( 'NONE',  ( 0.0000000000000000000, 0.0000000000000000000, 0.0000000000000000000 ) ) ;
#319 = PRODUCT_DEFINITION_CONTEXT ( 'detailed design', #240, 'design' ) ;
#320 = CARTESIAN_POINT ( 'NONE',  ( 0.0000000000000000000, 0.0000000000000000000, 2.244094000000000033 ) ) ;
#321 = AXIS2_PLACEMENT_3D ( 'NONE', #220, #302, #359 ) ;
#322 = STYLED_ITEM ( 'NONE', ( #40 ), #10 ) ;
#323 = CIRCLE ( 'NONE', #366, 0.1181100000000000066 ) ;
#324 = CARTESIAN_POINT ( 'NONE',  ( 0.0000000000000000000, 0.0000000000000000000, 2.244094000000000033 ) ) ;
#325 = SURFACE_STYLE_USAGE ( .BOTH. , #242 ) ;
#326 =( NAMED_UNIT ( * ) SI_UNIT ( $, .STERADIAN. ) SOLID_ANGLE_UNIT ( ) );
#327 = CYLINDRICAL_SURFACE ( 'NONE', #108, 0.03936606300000000669 ) ;
#328 =( NAMED_UNIT ( * ) SI_UNIT ( $, .STERADIAN. ) SOLID_ANGLE_UNIT ( ) );
#329 = ORIENTED_EDGE ( 'NONE', *, *, #67, .T. ) ;
#330 = AXIS2_PLACEMENT_3D ( 'NONE', #24, #254, #363 ) ;
#331 = STYLED_ITEM ( 'NONE', ( #354 ), #101 ) ;
#332 =( CONVERSION_BASED_UNIT ( 'INCH', #248 ) LENGTH_UNIT ( ) NAMED_UNIT ( #160 ) );
#333 = ORIENTED_EDGE ( 'NONE', *, *, #61, .T. ) ;
#334 = DIRECTION ( 'NONE',  ( -0.0000000000000000000, -0.0000000000000000000, -1.000000000000000000 ) ) ;
#335 = AXIS2_PLACEMENT_3D ( 'NONE', #241, #311, #173 ) ;
#336 = ADVANCED_FACE ( 'NONE', ( #200, #23 ), #314, .T. ) ;
#337 = ORIENTED_EDGE ( 'NONE', *, *, #238, .T. ) ;
#338 = ORIENTED_EDGE ( 'NONE', *, *, #281, .F. ) ;
#339 = DIRECTION ( 'NONE',  ( -0.0000000000000000000, -0.0000000000000000000, -1.000000000000000000 ) ) ;
#340 = ADVANCED_FACE ( 'NONE', ( #145 ), #246, .T. ) ;
#341 = AXIS2_PLACEMENT_3D ( 'NONE', #278, #132, #7 ) ;
#342 = CARTESIAN_POINT ( 'NONE',  ( 0.0000000000000000000, 0.0000000000000000000, 0.1039832134739799296 ) ) ;
#343 = DIRECTION ( 'NONE',  ( -0.0000000000000000000, -0.0000000000000000000, -1.000000000000000000 ) ) ;
#344 = DIRECTION ( 'NONE',  ( 0.0000000000000000000, 0.0000000000000000000, 1.000000000000000000 ) ) ;
#345 = ORIENTED_EDGE ( 'NONE', *, *, #42, .F. ) ;
#346 = FACE_OUTER_BOUND ( 'NONE', #275, .T. ) ;
#347 = COLOUR_RGB ( '',0.7921568627450980005, 0.8196078431372548767, 0.9333333333333333481 ) ;
#348 = ADVANCED_FACE ( 'NONE', ( #346 ), #206, .T. ) ;
#349 = AXIS2_PLACEMENT_3D ( 'NONE', #178, #14, #259 ) ;
#350 = PRODUCT_DEFINITION_FORMATION_WITH_SPECIFIED_SOURCE ( 'ANY', '', #72, .NOT_KNOWN. ) ;
#351 = CARTESIAN_POINT ( 'NONE',  ( -0.1181100000000000066, 0.0000000000000000000, 2.244094000000000033 ) ) ;
#352 = LINE ( 'NONE', #374, #177 ) ;
#353 = EDGE_CURVE ( 'NONE', #289, #253, #272, .T. ) ;
#354 = PRESENTATION_STYLE_ASSIGNMENT (( #325 ) ) ;
#355 = CIRCLE ( 'NONE', #303, 0.03936606300000000669 ) ;
#356 = DIRECTION ( 'NONE',  ( -0.0000000000000000000, -0.0000000000000000000, -1.000000000000000000 ) ) ;
#357 =( CONVERSION_BASED_UNIT ( 'INCH', #375 ) LENGTH_UNIT ( ) NAMED_UNIT ( #85 ) );
#358 = ADVANCED_FACE ( 'NONE', ( #299 ), #327, .T. ) ;
#359 = DIRECTION ( 'NONE',  ( -1.000000000000000000, 0.0000000000000000000, 0.0000000000000000000 ) ) ;
#360 = AXIS2_PLACEMENT_3D ( 'NONE', #342, #172, #287 ) ;
#361 = ORIENTED_EDGE ( 'NONE', *, *, #169, .F. ) ;
#362 = ORIENTED_EDGE ( 'NONE', *, *, #194, .T. ) ;
#363 = DIRECTION ( 'NONE',  ( 1.000000000000000000, 0.0000000000000000000, -0.0000000000000000000 ) ) ;
#364 = DIRECTION ( 'NONE',  ( -1.000000000000000000, 0.0000000000000000000, 0.0000000000000000000 ) ) ;
#365 = VECTOR ( 'NONE', #48, 39.37007874015748143 ) ;
#366 = AXIS2_PLACEMENT_3D ( 'NONE', #62, #185, #86 ) ;
#367 = CARTESIAN_POINT ( 'NONE',  ( -0.1031100000000002570, 0.0000000000000000000, 2.244094000000000033 ) ) ;
#368 = DIRECTION ( 'NONE',  ( -0.0000000000000000000, -0.0000000000000000000, -1.000000000000000000 ) ) ;
#369 = ORIENTED_EDGE ( 'NONE', *, *, #184, .T. ) ;
#370 = DIRECTION ( 'NONE',  ( -1.000000000000000000, 0.0000000000000000000, 0.0000000000000000000 ) ) ;
#371 = DIRECTION ( 'NONE',  ( 1.000000000000000000, 0.0000000000000000000, 0.0000000000000000000 ) ) ;
#372 = ADVANCED_FACE ( 'NONE', ( #32 ), #88, .T. ) ;
#373 = CARTESIAN_POINT ( 'NONE',  ( 0.1181100000000000066, 1.446430334472939084E-17, 0.3740159999999999041 ) ) ;
#374 = CARTESIAN_POINT ( 'NONE',  ( 0.1031100000000002570, 1.262733314600838667E-17, 2.244094000000000033 ) ) ;
#375 = LENGTH_MEASURE_WITH_UNIT ( LENGTH_MEASURE( 0.02539999999999999897 ), #87 );
#376 = AXIS2_PLACEMENT_3D ( 'NONE', #224, #339, #74 ) ;
#377 = CARTESIAN_POINT ( 'NONE',  ( 0.0000000000000000000, 0.0000000000000000000, 0.09842500000000001248 ) ) ;
#378 = EDGE_CURVE ( 'NONE', #34, #217, #323, .T. ) ;
#379 = DIRECTION ( 'NONE',  ( -1.000000000000000000, 0.0000000000000000000, 0.0000000000000000000 ) ) ;
ENDSEC;
END-ISO-10303-21;
