ISO-10303-21;
HEADER;
FILE_DESCRIPTION (( 'STEP AP214' ),
    '1' );
FILE_NAME ('59769.STEP',
    '2023-07-24T15:36:22',
    ( '' ),
    ( '' ),
    'SwSTEP 2.0',
    'SolidWorks 2023',
    '' );
FILE_SCHEMA (( 'AUTOMOTIVE_DESIGN' ));
ENDSEC;

DATA;
#1 = FACE_OUTER_BOUND ( 'NONE', #258, .T. ) ;
#2 = EDGE_LOOP ( 'NONE', ( #266, #92, #314, #282 ) ) ;
#3 = DIRECTION ( 'NONE',  ( 0.000000000000000000, 0.000000000000000000, 1.000000000000000000 ) ) ;
#4 = ORIENTED_EDGE ( 'NONE', *, *, #129, .T. ) ;
#5 = DIRECTION ( 'NONE',  ( -1.000000000000000000, 0.000000000000000000, 0.000000000000000000 ) ) ;
#6 = CARTESIAN_POINT ( 'NONE',  ( 0.000000000000000000, 25.00000000000000000, -5.000000000000000000 ) ) ;
#7 = MECHANICAL_DESIGN_GEOMETRIC_PRESENTATION_REPRESENTATION (  '', ( #324 ), #157 ) ;
#8 = STYLED_ITEM ( 'NONE', ( #33 ), #34 ) ;
#9 =( LENGTH_UNIT ( ) NAMED_UNIT ( * ) SI_UNIT ( .MILLI., .METRE. ) );
#10 = DIRECTION ( 'NONE',  ( 0.000000000000000000, 0.000000000000000000, -1.000000000000000000 ) ) ;
#11 = FILL_AREA_STYLE ('',( #301 ) ) ;
#12 = PRESENTATION_STYLE_ASSIGNMENT (( #167 ) ) ;
#13 = ORIENTED_EDGE ( 'NONE', *, *, #118, .T. ) ;
#14 = VERTEX_POINT ( 'NONE', #363 ) ;
#15 = PRESENTATION_LAYER_ASSIGNMENT (  '', '', ( #187 ) ) ;
#16 = PRODUCT_DEFINITION_FORMATION_WITH_SPECIFIED_SOURCE ( 'ANY', '', #40, .NOT_KNOWN. ) ;
#17 = CARTESIAN_POINT ( 'NONE',  ( 6.123233995736762930E-15, 75.00000000000000000, 0.000000000000000000 ) ) ;
#18 =( NAMED_UNIT ( * ) SI_UNIT ( $, .STERADIAN. ) SOLID_ANGLE_UNIT ( ) );
#19 = PRODUCT_DEFINITION_CONTEXT ( 'detailed design', #319, 'design' ) ;
#20 = EDGE_CURVE ( 'NONE', #54, #304, #31, .T. ) ;
#21 = TOROIDAL_SURFACE ( 'NONE', #254, 4.500000000000000888, 0.5000000000000002220 ) ;
#22 = DIRECTION ( 'NONE',  ( -1.000000000000000000, 0.000000000000000000, 0.000000000000000000 ) ) ;
#23 = ORIENTED_EDGE ( 'NONE', *, *, #349, .T. ) ;
#24 = SURFACE_SIDE_STYLE ('',( #290 ) ) ;
#25 = ADVANCED_BREP_SHAPE_REPRESENTATION ( '59769', ( #365, #252, #208 ), #230 ) ;
#26 = VERTEX_POINT ( 'NONE', #239 ) ;
#27 = SURFACE_STYLE_USAGE ( .BOTH. , #259 ) ;
#28 = CIRCLE ( 'NONE', #276, 4.500000000000000888 ) ;
#29 = EDGE_LOOP ( 'NONE', ( #207, #210, #49, #223 ) ) ;
#30 = AXIS2_PLACEMENT_3D ( 'NONE', #274, #35, #320 ) ;
#31 = CIRCLE ( 'NONE', #84, 5.000000000000000000 ) ;
#32 = STYLED_ITEM ( 'NONE', ( #12 ), #164 ) ;
#33 = PRESENTATION_STYLE_ASSIGNMENT (( #184 ) ) ;
#34 = ADVANCED_FACE ( 'NONE', ( #341 ), #317, .T. ) ;
#35 = DIRECTION ( 'NONE',  ( -0.000000000000000000, -1.000000000000000000, -0.000000000000000000 ) ) ;
#36 = UNCERTAINTY_MEASURE_WITH_UNIT (LENGTH_MEASURE( 1.000000000000000082E-05 ), #342, 'distance_accuracy_value', 'NONE');
#37 = CARTESIAN_POINT ( 'NONE',  ( 0.000000000000000000, 0.5000000000000000000, -5.000000000000000888 ) ) ;
#38 = PRODUCT_RELATED_PRODUCT_CATEGORY ( 'part', '', ( #40 ) ) ;
#39 = DIRECTION ( 'NONE',  ( -1.203966067220177465E-16, 1.000000000000000000, 0.000000000000000000 ) ) ;
#40 = PRODUCT ( '59769', '59769', '', ( #74 ) ) ;
#41 = DIRECTION ( 'NONE',  ( 0.000000000000000000, 1.000000000000000000, 0.000000000000000000 ) ) ;
#42 = DIRECTION ( 'NONE',  ( 0.000000000000000000, 0.000000000000000000, -1.000000000000000000 ) ) ;
#43 =( NAMED_UNIT ( * ) SI_UNIT ( $, .STERADIAN. ) SOLID_ANGLE_UNIT ( ) );
#44 = CARTESIAN_POINT ( 'NONE',  ( 0.000000000000000000, 0.000000000000000000, 0.000000000000000000 ) ) ;
#45 = VECTOR ( 'NONE', #284, 1000.000000000000000 ) ;
#46 = STYLED_ITEM ( 'NONE', ( #132 ), #365 ) ;
#47 = CARTESIAN_POINT ( 'NONE',  ( -4.999999999999984901, 75.00000000000000000, 0.000000000000000000 ) ) ;
#48 = SURFACE_STYLE_FILL_AREA ( #202 ) ;
#49 = ORIENTED_EDGE ( 'NONE', *, *, #129, .F. ) ;
#50 =( GEOMETRIC_REPRESENTATION_CONTEXT ( 3 ) GLOBAL_UNCERTAINTY_ASSIGNED_CONTEXT ( ( #243 ) ) GLOBAL_UNIT_ASSIGNED_CONTEXT ( ( #226, #281, #110 ) ) REPRESENTATION_CONTEXT ( 'NONE', 'WORKASPACE' ) );
#51 =( GEOMETRIC_REPRESENTATION_CONTEXT ( 3 ) GLOBAL_UNCERTAINTY_ASSIGNED_CONTEXT ( ( #235 ) ) GLOBAL_UNIT_ASSIGNED_CONTEXT ( ( #294, #55, #315 ) ) REPRESENTATION_CONTEXT ( 'NONE', 'WORKASPACE' ) );
#52 = ADVANCED_FACE ( 'NONE', ( #322 ), #224, .T. ) ;
#53 = PRESENTATION_STYLE_ASSIGNMENT (( #211 ) ) ;
#54 = VERTEX_POINT ( 'NONE', #6 ) ;
#55 =( NAMED_UNIT ( * ) PLANE_ANGLE_UNIT ( ) SI_UNIT ( $, .RADIAN. ) );
#56 = VERTEX_POINT ( 'NONE', #328 ) ;
#57 = ADVANCED_FACE ( 'NONE', ( #248 ), #321, .F. ) ;
#58 = CARTESIAN_POINT ( 'NONE',  ( 0.000000000000000000, 0.5000000000000000000, 0.000000000000000000 ) ) ;
#59 = VERTEX_POINT ( 'NONE', #273 ) ;
#60 =( NAMED_UNIT ( * ) PLANE_ANGLE_UNIT ( ) SI_UNIT ( $, .RADIAN. ) );
#61 = SURFACE_STYLE_FILL_AREA ( #121 ) ;
#62 = UNCERTAINTY_MEASURE_WITH_UNIT (LENGTH_MEASURE( 1.000000000000000082E-05 ), #286, 'distance_accuracy_value', 'NONE');
#63 = PRESENTATION_LAYER_ASSIGNMENT (  '', '', ( #324 ) ) ;
#64 = FILL_AREA_STYLE ('',( #345 ) ) ;
#65 = AXIS2_PLACEMENT_3D ( 'NONE', #191, #166, #159 ) ;
#66 =( NAMED_UNIT ( * ) PLANE_ANGLE_UNIT ( ) SI_UNIT ( $, .RADIAN. ) );
#67 = CARTESIAN_POINT ( 'NONE',  ( 0.000000000000000000, 25.00000000000000000, 0.000000000000000000 ) ) ;
#68 = PLANE ( 'NONE',  #101 ) ;
#69 = UNCERTAINTY_MEASURE_WITH_UNIT (LENGTH_MEASURE( 1.000000000000000082E-05 ), #9, 'distance_accuracy_value', 'NONE');
#70 = CARTESIAN_POINT ( 'NONE',  ( 0.000000000000000000, 0.000000000000000000, 0.000000000000000000 ) ) ;
#71 = DIRECTION ( 'NONE',  ( 1.000000000000000000, 0.000000000000000000, 0.000000000000000000 ) ) ;
#72 =( GEOMETRIC_REPRESENTATION_CONTEXT ( 3 ) GLOBAL_UNCERTAINTY_ASSIGNED_CONTEXT ( ( #103 ) ) GLOBAL_UNIT_ASSIGNED_CONTEXT ( ( #163, #271, #245 ) ) REPRESENTATION_CONTEXT ( 'NONE', 'WORKASPACE' ) );
#73 = PRESENTATION_LAYER_ASSIGNMENT (  '', '', ( #46 ) ) ;
#74 = PRODUCT_CONTEXT ( 'NONE', #244, 'mechanical' ) ;
#75 = LINE ( 'NONE', #194, #297 ) ;
#76 =( NAMED_UNIT ( * ) SI_UNIT ( $, .STERADIAN. ) SOLID_ANGLE_UNIT ( ) );
#77 = CARTESIAN_POINT ( 'NONE',  ( 0.000000000000000000, 0.5000000000000000000, -4.500000000000000888 ) ) ;
#78 = DIRECTION ( 'NONE',  ( -0.000000000000000000, -1.000000000000000000, -0.000000000000000000 ) ) ;
#79 = AXIS2_PLACEMENT_3D ( 'NONE', #309, #331, #285 ) ;
#80 = COLOUR_RGB ( '',1.000000000000000000, 0.000000000000000000, 0.000000000000000000 ) ;
#81 = DIRECTION ( 'NONE',  ( 0.000000000000000000, 0.000000000000000000, -1.000000000000000000 ) ) ;
#82 = FACE_OUTER_BOUND ( 'NONE', #343, .T. ) ;
#83 = AXIS2_PLACEMENT_3D ( 'NONE', #70, #193, #299 ) ;
#84 = AXIS2_PLACEMENT_3D ( 'NONE', #212, #186, #236 ) ;
#85 = SURFACE_STYLE_USAGE ( .BOTH. , #144 ) ;
#86 = DIRECTION ( 'NONE',  ( -0.000000000000000000, -1.000000000000000000, -0.000000000000000000 ) ) ;
#87 = CARTESIAN_POINT ( 'NONE',  ( 0.000000000000000000, 0.000000000000000000, -5.000000000000000888 ) ) ;
#88 = UNCERTAINTY_MEASURE_WITH_UNIT (LENGTH_MEASURE( 1.000000000000000082E-05 ), #217, 'distance_accuracy_value', 'NONE');
#89 = ORIENTED_EDGE ( 'NONE', *, *, #215, .T. ) ;
#90 = EDGE_CURVE ( 'NONE', #304, #54, #293, .T. ) ;
#91 = AXIS2_PLACEMENT_3D ( 'NONE', #250, #300, #296 ) ;
#92 = ORIENTED_EDGE ( 'NONE', *, *, #90, .T. ) ;
#93 = PRESENTATION_STYLE_ASSIGNMENT (( #117 ) ) ;
#94 = VERTEX_POINT ( 'NONE', #218 ) ;
#95 = DIRECTION ( 'NONE',  ( -0.000000000000000000, -1.000000000000000000, -0.000000000000000000 ) ) ;
#96 = ORIENTED_EDGE ( 'NONE', *, *, #150, .F. ) ;
#97 = CARTESIAN_POINT ( 'NONE',  ( 0.000000000000000000, 0.000000000000000000, 0.000000000000000000 ) ) ;
#98 = EDGE_CURVE ( 'NONE', #366, #56, #203, .T. ) ;
#99 = AXIS2_PLACEMENT_3D ( 'NONE', #302, #346, #42 ) ;
#100 = SURFACE_STYLE_FILL_AREA ( #64 ) ;
#101 = AXIS2_PLACEMENT_3D ( 'NONE', #161, #39, #327 ) ;
#102 = SHAPE_DEFINITION_REPRESENTATION ( #134, #25 ) ;
#103 = UNCERTAINTY_MEASURE_WITH_UNIT (LENGTH_MEASURE( 1.000000000000000082E-05 ), #163, 'distance_accuracy_value', 'NONE');
#104 = FILL_AREA_STYLE ('',( #168 ) ) ;
#105 = SURFACE_STYLE_FILL_AREA ( #11 ) ;
#106 = DIRECTION ( 'NONE',  ( -1.203966067220177465E-16, 1.000000000000000000, -0.000000000000000000 ) ) ;
#107 = MECHANICAL_DESIGN_GEOMETRIC_PRESENTATION_REPRESENTATION (  '', ( #263 ), #198 ) ;
#108 = CIRCLE ( 'NONE', #325, 4.999999999999987566 ) ;
#109 = FACE_OUTER_BOUND ( 'NONE', #2, .T. ) ;
#110 =( NAMED_UNIT ( * ) SI_UNIT ( $, .STERADIAN. ) SOLID_ANGLE_UNIT ( ) );
#111 = CARTESIAN_POINT ( 'NONE',  ( 6.123233995736762930E-15, 75.00000000000000000, 0.000000000000000000 ) ) ;
#112 = EDGE_CURVE ( 'NONE', #59, #295, #75, .T. ) ;
#113 = MECHANICAL_DESIGN_GEOMETRIC_PRESENTATION_REPRESENTATION (  '', ( #187 ), #50 ) ;
#114 = ORIENTED_EDGE ( 'NONE', *, *, #90, .F. ) ;
#115 = PRESENTATION_LAYER_ASSIGNMENT (  '', '', ( #155 ) ) ;
#116 = FACE_OUTER_BOUND ( 'NONE', #29, .T. ) ;
#117 = SURFACE_STYLE_USAGE ( .BOTH. , #146 ) ;
#118 = EDGE_CURVE ( 'NONE', #56, #366, #28, .T. ) ;
#119 = DIRECTION ( 'NONE',  ( 0.000000000000000000, 0.000000000000000000, -1.000000000000000000 ) ) ;
#120 =( LENGTH_UNIT ( ) NAMED_UNIT ( * ) SI_UNIT ( .MILLI., .METRE. ) );
#121 = FILL_AREA_STYLE ('',( #292 ) ) ;
#122 = UNCERTAINTY_MEASURE_WITH_UNIT (LENGTH_MEASURE( 1.000000000000000082E-05 ), #120, 'distance_accuracy_value', 'NONE');
#123 = ORIENTED_EDGE ( 'NONE', *, *, #227, .F. ) ;
#124 = AXIS2_PLACEMENT_3D ( 'NONE', #17, #334, #257 ) ;
#125 = AXIS2_PLACEMENT_3D ( 'NONE', #291, #265, #119 ) ;
#126 = ORIENTED_EDGE ( 'NONE', *, *, #196, .F. ) ;
#127 = FACE_OUTER_BOUND ( 'NONE', #173, .T. ) ;
#128 = ORIENTED_EDGE ( 'NONE', *, *, #349, .F. ) ;
#129 = EDGE_CURVE ( 'NONE', #131, #94, #246, .T. ) ;
#130 = SURFACE_STYLE_USAGE ( .BOTH. , #267 ) ;
#131 = VERTEX_POINT ( 'NONE', #37 ) ;
#132 = PRESENTATION_STYLE_ASSIGNMENT (( #130 ) ) ;
#133 = AXIS2_PLACEMENT_3D ( 'NONE', #67, #41, #195 ) ;
#134 = PRODUCT_DEFINITION_SHAPE ( 'NONE', 'NONE',  #142 ) ;
#135 = DIRECTION ( 'NONE',  ( 1.000000000000000000, 1.203966067220177465E-16, 0.000000000000000000 ) ) ;
#136 = APPLICATION_PROTOCOL_DEFINITION ( 'draft international standard', 'automotive_design', 1998, #319 ) ;
#137 = LINE ( 'NONE', #351, #45 ) ;
#138 = CARTESIAN_POINT ( 'NONE',  ( 6.123233995736762930E-15, 75.00000000000000000, 0.000000000000000000 ) ) ;
#139 = PRESENTATION_LAYER_ASSIGNMENT (  '', '', ( #32 ) ) ;
#140 =( GEOMETRIC_REPRESENTATION_CONTEXT ( 3 ) GLOBAL_UNCERTAINTY_ASSIGNED_CONTEXT ( ( #69 ) ) GLOBAL_UNIT_ASSIGNED_CONTEXT ( ( #9, #66, #76 ) ) REPRESENTATION_CONTEXT ( 'NONE', 'WORKASPACE' ) );
#141 = EDGE_LOOP ( 'NONE', ( #182, #280, #316, #311 ) ) ;
#142 = PRODUCT_DEFINITION ( 'UNKNOWN', '', #16, #19 ) ;
#143 = DIRECTION ( 'NONE',  ( -1.203966067220177465E-16, 1.000000000000000000, -0.000000000000000000 ) ) ;
#144 = SURFACE_SIDE_STYLE ('',( #48 ) ) ;
#145 = CIRCLE ( 'NONE', #288, 4.999999999999987566 ) ;
#146 = SURFACE_SIDE_STYLE ('',( #306 ) ) ;
#147 = FILL_AREA_STYLE_COLOUR ( '', #283 ) ;
#148 = CARTESIAN_POINT ( 'NONE',  ( 6.123233995736766282E-16, 25.00000000000000000, 5.000000000000000000 ) ) ;
#149 = ORIENTED_EDGE ( 'NONE', *, *, #227, .T. ) ;
#150 = EDGE_CURVE ( 'NONE', #131, #366, #330, .T. ) ;
#151 = ORIENTED_EDGE ( 'NONE', *, *, #370, .T. ) ;
#152 = FILL_AREA_STYLE ('',( #338 ) ) ;
#153 =( NAMED_UNIT ( * ) SI_UNIT ( $, .STERADIAN. ) SOLID_ANGLE_UNIT ( ) );
#154 =( GEOMETRIC_REPRESENTATION_CONTEXT ( 3 ) GLOBAL_UNCERTAINTY_ASSIGNED_CONTEXT ( ( #122 ) ) GLOBAL_UNIT_ASSIGNED_CONTEXT ( ( #120, #312, #153 ) ) REPRESENTATION_CONTEXT ( 'NONE', 'WORKASPACE' ) );
#155 = STYLED_ITEM ( 'NONE', ( #233 ), #289 ) ;
#156 = CLOSED_SHELL ( 'NONE', ( #279, #336, #52, #57 ) ) ;
#157 =( GEOMETRIC_REPRESENTATION_CONTEXT ( 3 ) GLOBAL_UNCERTAINTY_ASSIGNED_CONTEXT ( ( #323 ) ) GLOBAL_UNIT_ASSIGNED_CONTEXT ( ( #253, #303, #18 ) ) REPRESENTATION_CONTEXT ( 'NONE', 'WORKASPACE' ) );
#158 = ORIENTED_EDGE ( 'NONE', *, *, #370, .F. ) ;
#159 = DIRECTION ( 'NONE',  ( -1.224646799147353454E-16, 0.000000000000000000, -1.000000000000000000 ) ) ;
#160 = CYLINDRICAL_SURFACE ( 'NONE', #83, 5.000000000000000888 ) ;
#161 = CARTESIAN_POINT ( 'NONE',  ( 1.214306433183764966E-14, 25.00000000000000000, 0.000000000000000000 ) ) ;
#162 = VECTOR ( 'NONE', #95, 1000.000000000000000 ) ;
#163 =( LENGTH_UNIT ( ) NAMED_UNIT ( * ) SI_UNIT ( .MILLI., .METRE. ) );
#164 = ADVANCED_FACE ( 'NONE', ( #109 ), #160, .T. ) ;
#165 = SURFACE_STYLE_FILL_AREA ( #104 ) ;
#166 = DIRECTION ( 'NONE',  ( 1.000000000000000000, 0.000000000000000000, -1.224646799147353207E-16 ) ) ;
#167 = SURFACE_STYLE_USAGE ( .BOTH. , #278 ) ;
#168 = FILL_AREA_STYLE_COLOUR ( '', #307 ) ;
#169 = AXIS2_PLACEMENT_3D ( 'NONE', #138, #106, #348 ) ;
#170 = MECHANICAL_DESIGN_GEOMETRIC_PRESENTATION_REPRESENTATION (  '', ( #155 ), #51 ) ;
#171 = SURFACE_STYLE_USAGE ( .BOTH. , #176 ) ;
#172 = DIRECTION ( 'NONE',  ( -1.203966067220177465E-16, 1.000000000000000000, -0.000000000000000000 ) ) ;
#173 = EDGE_LOOP ( 'NONE', ( #128, #126 ) ) ;
#174 = COLOUR_RGB ( '',1.000000000000000000, 0.000000000000000000, 0.000000000000000000 ) ;
#175 = MECHANICAL_DESIGN_GEOMETRIC_PRESENTATION_REPRESENTATION (  '', ( #46 ), #140 ) ;
#176 = SURFACE_SIDE_STYLE ('',( #356 ) ) ;
#177 = EDGE_CURVE ( 'NONE', #304, #94, #137, .T. ) ;
#178 = SURFACE_SIDE_STYLE ('',( #100 ) ) ;
#179 = CIRCLE ( 'NONE', #124, 4.999999999999993783 ) ;
#180 = CLOSED_SHELL ( 'NONE', ( #241, #269, #289, #313, #164, #34 ) ) ;
#181 = PLANE ( 'NONE',  #125 ) ;
#182 = ORIENTED_EDGE ( 'NONE', *, *, #112, .F. ) ;
#183 = DIRECTION ( 'NONE',  ( 0.000000000000000000, 0.000000000000000000, -1.000000000000000000 ) ) ;
#184 = SURFACE_STYLE_USAGE ( .BOTH. , #178 ) ;
#185 = DIRECTION ( 'NONE',  ( -1.203966067220177465E-16, 1.000000000000000000, -0.000000000000000000 ) ) ;
#186 = DIRECTION ( 'NONE',  ( -0.000000000000000000, -1.000000000000000000, -0.000000000000000000 ) ) ;
#187 = STYLED_ITEM ( 'NONE', ( #251 ), #241 ) ;
#188 = PRESENTATION_LAYER_ASSIGNMENT (  '', '', ( #361 ) ) ;
#189 = CARTESIAN_POINT ( 'NONE',  ( 6.123233995736762930E-15, 75.00000000000000000, 0.000000000000000000 ) ) ;
#190 = EDGE_LOOP ( 'NONE', ( #4, #151, #358, #96 ) ) ;
#191 = CARTESIAN_POINT ( 'NONE',  ( 5.510910596163089556E-16, 0.5000000000000000000, 4.500000000000000888 ) ) ;
#192 = DIRECTION ( 'NONE',  ( 1.203966067220177465E-16, -1.000000000000000000, 0.000000000000000000 ) ) ;
#193 = DIRECTION ( 'NONE',  ( -0.000000000000000000, -1.000000000000000000, -0.000000000000000000 ) ) ;
#194 = CARTESIAN_POINT ( 'NONE',  ( 4.999999999999996447, 75.00000000000000000, 6.123233995736754449E-16 ) ) ;
#195 = DIRECTION ( 'NONE',  ( 0.000000000000000000, -0.000000000000000000, 1.000000000000000000 ) ) ;
#196 = EDGE_CURVE ( 'NONE', #59, #26, #145, .T. ) ;
#197 = LINE ( 'NONE', #47, #318 ) ;
#198 =( GEOMETRIC_REPRESENTATION_CONTEXT ( 3 ) GLOBAL_UNCERTAINTY_ASSIGNED_CONTEXT ( ( #36 ) ) GLOBAL_UNIT_ASSIGNED_CONTEXT ( ( #342, #60, #364 ) ) REPRESENTATION_CONTEXT ( 'NONE', 'WORKASPACE' ) );
#199 = TOROIDAL_SURFACE ( 'NONE', #30, 4.500000000000000888, 0.5000000000000002220 ) ;
#200 = DIRECTION ( 'NONE',  ( -1.203966067220177465E-16, 1.000000000000000000, -0.000000000000000000 ) ) ;
#201 = FILL_AREA_STYLE ('',( #305 ) ) ;
#202 = FILL_AREA_STYLE ('',( #229 ) ) ;
#203 = CIRCLE ( 'NONE', #91, 4.500000000000000888 ) ;
#204 =( GEOMETRIC_REPRESENTATION_CONTEXT ( 3 ) GLOBAL_UNCERTAINTY_ASSIGNED_CONTEXT ( ( #62 ) ) GLOBAL_UNIT_ASSIGNED_CONTEXT ( ( #286, #362, #43 ) ) REPRESENTATION_CONTEXT ( 'NONE', 'WORKASPACE' ) );
#205 = AXIS2_PLACEMENT_3D ( 'NONE', #216, #192, #135 ) ;
#206 = DIRECTION ( 'NONE',  ( -1.000000000000000000, 0.000000000000000000, 0.000000000000000000 ) ) ;
#207 = ORIENTED_EDGE ( 'NONE', *, *, #20, .T. ) ;
#208 = AXIS2_PLACEMENT_3D ( 'NONE', #97, #3, #71 ) ;
#209 = EDGE_LOOP ( 'NONE', ( #368, #114 ) ) ;
#210 = ORIENTED_EDGE ( 'NONE', *, *, #177, .T. ) ;
#211 = SURFACE_STYLE_USAGE ( .BOTH. , #24 ) ;
#212 = CARTESIAN_POINT ( 'NONE',  ( 0.000000000000000000, 25.00000000000000000, 0.000000000000000000 ) ) ;
#213 = PRESENTATION_LAYER_ASSIGNMENT (  '', '', ( #263 ) ) ;
#214 = COLOUR_RGB ( '',1.000000000000000000, 0.000000000000000000, 0.000000000000000000 ) ;
#215 = EDGE_CURVE ( 'NONE', #94, #131, #333, .T. ) ;
#216 = CARTESIAN_POINT ( 'NONE',  ( 5.000000000000000000, 75.00000000000000000, 0.000000000000000000 ) ) ;
#217 =( LENGTH_UNIT ( ) NAMED_UNIT ( * ) SI_UNIT ( .MILLI., .METRE. ) );
#218 = CARTESIAN_POINT ( 'NONE',  ( 6.123233995736766282E-16, 0.5000000000000000000, 5.000000000000000888 ) ) ;
#219 = CARTESIAN_POINT ( 'NONE',  ( 1.214306433183764966E-14, 25.00000000000000000, 0.000000000000000000 ) ) ;
#220 = DIRECTION ( 'NONE',  ( -0.000000000000000000, -1.000000000000000000, -0.000000000000000000 ) ) ;
#221 = CIRCLE ( 'NONE', #353, 4.999999999999993783 ) ;
#222 = DIRECTION ( 'NONE',  ( 0.000000000000000000, 0.000000000000000000, -1.000000000000000000 ) ) ;
#223 = ORIENTED_EDGE ( 'NONE', *, *, #310, .F. ) ;
#224 = CYLINDRICAL_SURFACE ( 'NONE', #169, 4.999999999999990230 ) ;
#225 = FILL_AREA_STYLE ('',( #147 ) ) ;
#226 =( LENGTH_UNIT ( ) NAMED_UNIT ( * ) SI_UNIT ( .MILLI., .METRE. ) );
#227 = EDGE_CURVE ( 'NONE', #14, #295, #179, .T. ) ;
#228 = PRESENTATION_STYLE_ASSIGNMENT (( #171 ) ) ;
#229 = FILL_AREA_STYLE_COLOUR ( '', #174 ) ;
#230 =( GEOMETRIC_REPRESENTATION_CONTEXT ( 3 ) GLOBAL_UNCERTAINTY_ASSIGNED_CONTEXT ( ( #88 ) ) GLOBAL_UNIT_ASSIGNED_CONTEXT ( ( #217, #344, #240 ) ) REPRESENTATION_CONTEXT ( 'NONE', 'WORKASPACE' ) );
#231 = CARTESIAN_POINT ( 'NONE',  ( 5.000000000000000888, 75.00000000000000000, 6.123233995736757408E-16 ) ) ;
#232 = ORIENTED_EDGE ( 'NONE', *, *, #260, .T. ) ;
#233 = PRESENTATION_STYLE_ASSIGNMENT (( #27 ) ) ;
#234 = EDGE_LOOP ( 'NONE', ( #287, #13 ) ) ;
#235 = UNCERTAINTY_MEASURE_WITH_UNIT (LENGTH_MEASURE( 1.000000000000000082E-05 ), #294, 'distance_accuracy_value', 'NONE');
#236 = DIRECTION ( 'NONE',  ( 0.000000000000000000, 0.000000000000000000, -1.000000000000000000 ) ) ;
#237 = FACE_OUTER_BOUND ( 'NONE', #234, .T. ) ;
#238 = ORIENTED_EDGE ( 'NONE', *, *, #118, .F. ) ;
#239 = CARTESIAN_POINT ( 'NONE',  ( -4.999999999999976019, 25.00000000000000000, 0.000000000000000000 ) ) ;
#240 =( NAMED_UNIT ( * ) SI_UNIT ( $, .STERADIAN. ) SOLID_ANGLE_UNIT ( ) );
#241 = ADVANCED_FACE ( 'NONE', ( #116 ), #329, .T. ) ;
#242 = DIRECTION ( 'NONE',  ( -0.000000000000000000, -1.000000000000000000, -0.000000000000000000 ) ) ;
#243 = UNCERTAINTY_MEASURE_WITH_UNIT (LENGTH_MEASURE( 1.000000000000000082E-05 ), #226, 'distance_accuracy_value', 'NONE');
#244 = APPLICATION_CONTEXT ( 'automotive_design' ) ;
#245 =( NAMED_UNIT ( * ) SI_UNIT ( $, .STERADIAN. ) SOLID_ANGLE_UNIT ( ) );
#246 = CIRCLE ( 'NONE', #99, 5.000000000000000888 ) ;
#247 = COLOUR_RGB ( '',0.7921568627450980005, 0.8196078431372548767, 0.9333333333333333481 ) ;
#248 = FACE_OUTER_BOUND ( 'NONE', #268, .T. ) ;
#249 = AXIS2_PLACEMENT_3D ( 'NONE', #359, #78, #81 ) ;
#250 = CARTESIAN_POINT ( 'NONE',  ( 0.000000000000000000, 0.000000000000000000, 0.000000000000000000 ) ) ;
#251 = PRESENTATION_STYLE_ASSIGNMENT (( #85 ) ) ;
#252 = MANIFOLD_SOLID_BREP ( 'Revolve - Tool Body (Straight Shanked)', #156 ) ;
#253 =( LENGTH_UNIT ( ) NAMED_UNIT ( * ) SI_UNIT ( .MILLI., .METRE. ) );
#254 = AXIS2_PLACEMENT_3D ( 'NONE', #58, #86, #183 ) ;
#255 = CARTESIAN_POINT ( 'NONE',  ( 1.214306433183764966E-14, 25.00000000000000000, 0.000000000000000000 ) ) ;
#256 = EDGE_CURVE ( 'NONE', #26, #14, #197, .T. ) ;
#257 = DIRECTION ( 'NONE',  ( -1.000000000000000000, 0.000000000000000000, 0.000000000000000000 ) ) ;
#258 = EDGE_LOOP ( 'NONE', ( #158, #89, #261, #238 ) ) ;
#259 = SURFACE_SIDE_STYLE ('',( #61 ) ) ;
#260 = EDGE_CURVE ( 'NONE', #295, #14, #221, .T. ) ;
#261 = ORIENTED_EDGE ( 'NONE', *, *, #150, .T. ) ;
#262 = ORIENTED_EDGE ( 'NONE', *, *, #112, .T. ) ;
#263 = STYLED_ITEM ( 'NONE', ( #93 ), #269 ) ;
#264 = MECHANICAL_DESIGN_GEOMETRIC_PRESENTATION_REPRESENTATION (  '', ( #361 ), #204 ) ;
#265 = DIRECTION ( 'NONE',  ( 0.000000000000000000, -1.000000000000000000, -0.000000000000000000 ) ) ;
#266 = ORIENTED_EDGE ( 'NONE', *, *, #177, .F. ) ;
#267 = SURFACE_SIDE_STYLE ('',( #105 ) ) ;
#268 = EDGE_LOOP ( 'NONE', ( #149, #232 ) ) ;
#269 = ADVANCED_FACE ( 'NONE', ( #332 ), #21, .T. ) ;
#270 = PRESENTATION_LAYER_ASSIGNMENT (  '', '', ( #8 ) ) ;
#271 =( NAMED_UNIT ( * ) PLANE_ANGLE_UNIT ( ) SI_UNIT ( $, .RADIAN. ) );
#272 = CARTESIAN_POINT ( 'NONE',  ( 0.000000000000000000, 0.000000000000000000, -4.500000000000000888 ) ) ;
#273 = CARTESIAN_POINT ( 'NONE',  ( 5.000000000000000888, 25.00000000000000000, 6.123233995736757408E-16 ) ) ;
#274 = CARTESIAN_POINT ( 'NONE',  ( 0.000000000000000000, 0.5000000000000000000, 0.000000000000000000 ) ) ;
#275 = CARTESIAN_POINT ( 'NONE',  ( 0.000000000000000000, 25.00000000000000000, 0.000000000000000000 ) ) ;
#276 = AXIS2_PLACEMENT_3D ( 'NONE', #44, #220, #10 ) ;
#277 = COLOUR_RGB ( '',1.000000000000000000, 0.000000000000000000, 0.000000000000000000 ) ;
#278 = SURFACE_SIDE_STYLE ('',( #165 ) ) ;
#279 = ADVANCED_FACE ( 'NONE', ( #82 ), #367, .T. ) ;
#280 = ORIENTED_EDGE ( 'NONE', *, *, #196, .T. ) ;
#281 =( NAMED_UNIT ( * ) PLANE_ANGLE_UNIT ( ) SI_UNIT ( $, .RADIAN. ) );
#282 = ORIENTED_EDGE ( 'NONE', *, *, #215, .F. ) ;
#283 = COLOUR_RGB ( '',0.7921568627450980005, 0.8196078431372548767, 0.9333333333333333481 ) ;
#284 = DIRECTION ( 'NONE',  ( -0.000000000000000000, -1.000000000000000000, -0.000000000000000000 ) ) ;
#285 = DIRECTION ( 'NONE',  ( 0.000000000000000000, 0.000000000000000000, -1.000000000000000000 ) ) ;
#286 =( LENGTH_UNIT ( ) NAMED_UNIT ( * ) SI_UNIT ( .MILLI., .METRE. ) );
#287 = ORIENTED_EDGE ( 'NONE', *, *, #98, .T. ) ;
#288 = AXIS2_PLACEMENT_3D ( 'NONE', #255, #143, #206 ) ;
#289 = ADVANCED_FACE ( 'NONE', ( #237 ), #181, .T. ) ;
#290 = SURFACE_STYLE_FILL_AREA ( #152 ) ;
#291 = CARTESIAN_POINT ( 'NONE',  ( 0.000000000000000000, 0.000000000000000000, 0.000000000000000000 ) ) ;
#292 = FILL_AREA_STYLE_COLOUR ( '', #277 ) ;
#293 = CIRCLE ( 'NONE', #352, 5.000000000000000000 ) ;
#294 =( LENGTH_UNIT ( ) NAMED_UNIT ( * ) SI_UNIT ( .MILLI., .METRE. ) );
#295 = VERTEX_POINT ( 'NONE', #231 ) ;
#296 = DIRECTION ( 'NONE',  ( 0.000000000000000000, 0.000000000000000000, -1.000000000000000000 ) ) ;
#297 = VECTOR ( 'NONE', #355, 1000.000000000000000 ) ;
#298 = MECHANICAL_DESIGN_GEOMETRIC_PRESENTATION_REPRESENTATION (  '', ( #8 ), #154 ) ;
#299 = DIRECTION ( 'NONE',  ( 0.000000000000000000, 0.000000000000000000, -1.000000000000000000 ) ) ;
#300 = DIRECTION ( 'NONE',  ( -0.000000000000000000, -1.000000000000000000, -0.000000000000000000 ) ) ;
#301 = FILL_AREA_STYLE_COLOUR ( '', #247 ) ;
#302 = CARTESIAN_POINT ( 'NONE',  ( 0.000000000000000000, 0.5000000000000000000, 0.000000000000000000 ) ) ;
#303 =( NAMED_UNIT ( * ) PLANE_ANGLE_UNIT ( ) SI_UNIT ( $, .RADIAN. ) );
#304 = VERTEX_POINT ( 'NONE', #148 ) ;
#305 = FILL_AREA_STYLE_COLOUR ( '', #360 ) ;
#306 = SURFACE_STYLE_FILL_AREA ( #201 ) ;
#307 = COLOUR_RGB ( '',1.000000000000000000, 0.000000000000000000, 0.000000000000000000 ) ;
#308 = AXIS2_PLACEMENT_3D ( 'NONE', #77, #354, #326 ) ;
#309 = CARTESIAN_POINT ( 'NONE',  ( 0.000000000000000000, 0.000000000000000000, 0.000000000000000000 ) ) ;
#310 = EDGE_CURVE ( 'NONE', #54, #131, #337, .T. ) ;
#311 = ORIENTED_EDGE ( 'NONE', *, *, #260, .F. ) ;
#312 =( NAMED_UNIT ( * ) PLANE_ANGLE_UNIT ( ) SI_UNIT ( $, .RADIAN. ) );
#313 = ADVANCED_FACE ( 'NONE', ( #1 ), #199, .T. ) ;
#314 = ORIENTED_EDGE ( 'NONE', *, *, #310, .T. ) ;
#315 =( NAMED_UNIT ( * ) SI_UNIT ( $, .STERADIAN. ) SOLID_ANGLE_UNIT ( ) );
#316 = ORIENTED_EDGE ( 'NONE', *, *, #256, .T. ) ;
#317 = PLANE ( 'NONE',  #133 ) ;
#318 = VECTOR ( 'NONE', #172, 1000.000000000000000 ) ;
#319 = APPLICATION_CONTEXT ( 'automotive_design' ) ;
#320 = DIRECTION ( 'NONE',  ( 0.000000000000000000, 0.000000000000000000, -1.000000000000000000 ) ) ;
#321 = PLANE ( 'NONE',  #205 ) ;
#322 = FACE_OUTER_BOUND ( 'NONE', #141, .T. ) ;
#323 = UNCERTAINTY_MEASURE_WITH_UNIT (LENGTH_MEASURE( 1.000000000000000082E-05 ), #253, 'distance_accuracy_value', 'NONE');
#324 = STYLED_ITEM ( 'NONE', ( #228 ), #252 ) ;
#325 = AXIS2_PLACEMENT_3D ( 'NONE', #219, #350, #5 ) ;
#326 = DIRECTION ( 'NONE',  ( 0.000000000000000000, 0.000000000000000000, 1.000000000000000000 ) ) ;
#327 = DIRECTION ( 'NONE',  ( -1.000000000000000000, -1.203966067220177465E-16, 0.000000000000000000 ) ) ;
#328 = CARTESIAN_POINT ( 'NONE',  ( 5.817072295949928412E-16, 0.000000000000000000, 4.500000000000000888 ) ) ;
#329 = CYLINDRICAL_SURFACE ( 'NONE', #79, 5.000000000000000888 ) ;
#330 = CIRCLE ( 'NONE', #308, 0.5000000000000004441 ) ;
#331 = DIRECTION ( 'NONE',  ( -0.000000000000000000, -1.000000000000000000, -0.000000000000000000 ) ) ;
#332 = FACE_OUTER_BOUND ( 'NONE', #190, .T. ) ;
#333 = CIRCLE ( 'NONE', #249, 5.000000000000000888 ) ;
#334 = DIRECTION ( 'NONE',  ( -1.203966067220177465E-16, 1.000000000000000000, -0.000000000000000000 ) ) ;
#335 = AXIS2_PLACEMENT_3D ( 'NONE', #189, #185, #22 ) ;
#336 = ADVANCED_FACE ( 'NONE', ( #127 ), #68, .F. ) ;
#337 = LINE ( 'NONE', #87, #162 ) ;
#338 = FILL_AREA_STYLE_COLOUR ( '', #214 ) ;
#339 = MECHANICAL_DESIGN_GEOMETRIC_PRESENTATION_REPRESENTATION (  '', ( #32 ), #72 ) ;
#340 = ORIENTED_EDGE ( 'NONE', *, *, #256, .F. ) ;
#341 = FACE_OUTER_BOUND ( 'NONE', #209, .T. ) ;
#342 =( LENGTH_UNIT ( ) NAMED_UNIT ( * ) SI_UNIT ( .MILLI., .METRE. ) );
#343 = EDGE_LOOP ( 'NONE', ( #23, #262, #123, #340 ) ) ;
#344 =( NAMED_UNIT ( * ) PLANE_ANGLE_UNIT ( ) SI_UNIT ( $, .RADIAN. ) );
#345 = FILL_AREA_STYLE_COLOUR ( '', #80 ) ;
#346 = DIRECTION ( 'NONE',  ( -0.000000000000000000, -1.000000000000000000, -0.000000000000000000 ) ) ;
#347 = APPLICATION_PROTOCOL_DEFINITION ( 'draft international standard', 'automotive_design', 1998, #244 ) ;
#348 = DIRECTION ( 'NONE',  ( -1.000000000000000000, 0.000000000000000000, 0.000000000000000000 ) ) ;
#349 = EDGE_CURVE ( 'NONE', #26, #59, #108, .T. ) ;
#350 = DIRECTION ( 'NONE',  ( -1.203966067220177465E-16, 1.000000000000000000, -0.000000000000000000 ) ) ;
#351 = CARTESIAN_POINT ( 'NONE',  ( 6.123233995736767268E-16, 0.000000000000000000, 5.000000000000000888 ) ) ;
#352 = AXIS2_PLACEMENT_3D ( 'NONE', #275, #242, #222 ) ;
#353 = AXIS2_PLACEMENT_3D ( 'NONE', #111, #200, #357 ) ;
#354 = DIRECTION ( 'NONE',  ( -1.000000000000000000, 0.000000000000000000, 0.000000000000000000 ) ) ;
#355 = DIRECTION ( 'NONE',  ( -1.203966067220177465E-16, 1.000000000000000000, -0.000000000000000000 ) ) ;
#356 = SURFACE_STYLE_FILL_AREA ( #225 ) ;
#357 = DIRECTION ( 'NONE',  ( -1.000000000000000000, 0.000000000000000000, 0.000000000000000000 ) ) ;
#358 = ORIENTED_EDGE ( 'NONE', *, *, #98, .F. ) ;
#359 = CARTESIAN_POINT ( 'NONE',  ( 0.000000000000000000, 0.5000000000000000000, 0.000000000000000000 ) ) ;
#360 = COLOUR_RGB ( '',1.000000000000000000, 0.000000000000000000, 0.000000000000000000 ) ;
#361 = STYLED_ITEM ( 'NONE', ( #53 ), #313 ) ;
#362 =( NAMED_UNIT ( * ) PLANE_ANGLE_UNIT ( ) SI_UNIT ( $, .RADIAN. ) );
#363 = CARTESIAN_POINT ( 'NONE',  ( -4.999999999999987566, 75.00000000000000000, 0.000000000000000000 ) ) ;
#364 =( NAMED_UNIT ( * ) SI_UNIT ( $, .STERADIAN. ) SOLID_ANGLE_UNIT ( ) );
#365 = MANIFOLD_SOLID_BREP ( 'Revolve - Cutting Edge', #180 ) ;
#366 = VERTEX_POINT ( 'NONE', #272 ) ;
#367 = CYLINDRICAL_SURFACE ( 'NONE', #335, 4.999999999999990230 ) ;
#368 = ORIENTED_EDGE ( 'NONE', *, *, #20, .F. ) ;
#369 = CIRCLE ( 'NONE', #65, 0.5000000000000004441 ) ;
#370 = EDGE_CURVE ( 'NONE', #94, #56, #369, .T. ) ;
ENDSEC;
END-ISO-10303-21;
