ISO-10303-21;
HEADER;
FILE_DESCRIPTION (( 'STEP AP214' ),
    '1' );
FILE_NAME ('84052.STEP',
    '2023-06-23T11:11:53',
    ( '' ),
    ( '' ),
    'SwSTEP 2.0',
    'SolidWorks 2023',
    '' );
FILE_SCHEMA (( 'AUTOMOTIVE_DESIGN' ));
ENDSEC;

DATA;
#1 = STYLED_ITEM ( 'NONE', ( #27 ), #347 ) ;
#2 = SURFACE_STYLE_FILL_AREA ( #341 ) ;
#3 = EDGE_LOOP ( 'NONE', ( #148, #22, #287, #202 ) ) ;
#4 = LINE ( 'NONE', #146, #267 ) ;
#5 = SURFACE_SIDE_STYLE ('',( #306 ) ) ;
#6 = CARTESIAN_POINT ( 'NONE',  ( 0.1250000000000000000, 0.7332531754730542417, 1.530808498934191509E-17 ) ) ;
#7 = CIRCLE ( 'NONE', #271, 0.06250000000000000000 ) ;
#8 = STYLED_ITEM ( 'NONE', ( #339 ), #102 ) ;
#9 =( CONVERSION_BASED_UNIT ( 'INCH', #126 ) LENGTH_UNIT ( ) NAMED_UNIT ( #53 ) );
#10 = UNCERTAINTY_MEASURE_WITH_UNIT (LENGTH_MEASURE( 1.000000000000000082E-05 ), #158, 'distance_accuracy_value', 'NONE');
#11 = DIRECTION ( 'NONE',  ( 0.000000000000000000, -1.000000000000000000, -0.000000000000000000 ) ) ;
#12 = FILL_AREA_STYLE_COLOUR ( '', #162 ) ;
#13 = APPLICATION_PROTOCOL_DEFINITION ( 'draft international standard', 'automotive_design', 1998, #114 ) ;
#14 = EDGE_CURVE ( 'NONE', #145, #29, #276, .T. ) ;
#15 = DIRECTION ( 'NONE',  ( 0.000000000000000000, 0.000000000000000000, -1.000000000000000000 ) ) ;
#16 = ADVANCED_FACE ( 'NONE', ( #248 ), #254, .T. ) ;
#17 = UNCERTAINTY_MEASURE_WITH_UNIT (LENGTH_MEASURE( 1.000000000000000082E-05 ), #215, 'distance_accuracy_value', 'NONE');
#18 = CARTESIAN_POINT ( 'NONE',  ( -7.141318868350792852E-18, 0.7332531754730542417, 0.000000000000000000 ) ) ;
#19 = CONICAL_SURFACE ( 'NONE', #122, 0.06250000000000000000, 0.2617993877991502405 ) ;
#20 = ORIENTED_EDGE ( 'NONE', *, *, #307, .T. ) ;
#21 = EDGE_LOOP ( 'NONE', ( #219, #273, #332, #272 ) ) ;
#22 = ORIENTED_EDGE ( 'NONE', *, *, #67, .T. ) ;
#23 = ADVANCED_FACE ( 'NONE', ( #92 ), #174, .T. ) ;
#24 = AXIS2_PLACEMENT_3D ( 'NONE', #121, #95, #286 ) ;
#25 = VERTEX_POINT ( 'NONE', #49 ) ;
#26 = DIRECTION ( 'NONE',  ( 1.000000000000000000, 3.061616997868383018E-17, 0.000000000000000000 ) ) ;
#27 = PRESENTATION_STYLE_ASSIGNMENT (( #358 ) ) ;
#28 = DIRECTION ( 'NONE',  ( -3.061616997868383018E-17, 1.000000000000000000, -0.000000000000000000 ) ) ;
#29 = VERTEX_POINT ( 'NONE', #161 ) ;
#30 = CARTESIAN_POINT ( 'NONE',  ( 0.06250000000000000000, 0.5000000000000001110, 7.654042494670957545E-18 ) ) ;
#31 = PLANE ( 'NONE',  #230 ) ;
#32 = FILL_AREA_STYLE_COLOUR ( '', #42 ) ;
#33 = MECHANICAL_DESIGN_GEOMETRIC_PRESENTATION_REPRESENTATION (  '', ( #331 ), #143 ) ;
#34 = DIRECTION ( 'NONE',  ( -3.061616997868383018E-17, 1.000000000000000000, -0.000000000000000000 ) ) ;
#35 = SURFACE_STYLE_USAGE ( .BOTH. , #309 ) ;
#36 = ADVANCED_BREP_SHAPE_REPRESENTATION ( '84052', ( #102, #347, #130 ), #170 ) ;
#37 = DIRECTION ( 'NONE',  ( -0.000000000000000000, -1.000000000000000000, -0.000000000000000000 ) ) ;
#38 = SURFACE_SIDE_STYLE ('',( #227 ) ) ;
#39 = DIMENSIONAL_EXPONENTS ( 1.000000000000000000, 0.000000000000000000, 0.000000000000000000, 0.000000000000000000, 0.000000000000000000, 0.000000000000000000, 0.000000000000000000 ) ;
#40 = FILL_AREA_STYLE_COLOUR ( '', #141 ) ;
#41 =( NAMED_UNIT ( * ) SI_UNIT ( $, .STERADIAN. ) SOLID_ANGLE_UNIT ( ) );
#42 = COLOUR_RGB ( '',1.000000000000000000, 0.000000000000000000, 0.000000000000000000 ) ;
#43 = PRESENTATION_STYLE_ASSIGNMENT (( #181 ) ) ;
#44 = PRODUCT ( '84052', '84052', '', ( #52 ) ) ;
#45 = LENGTH_MEASURE_WITH_UNIT ( LENGTH_MEASURE( 0.02539999999999999897 ), #157 );
#46 =( NAMED_UNIT ( * ) SI_UNIT ( $, .STERADIAN. ) SOLID_ANGLE_UNIT ( ) );
#47 = PLANE ( 'NONE',  #24 ) ;
#48 = CARTESIAN_POINT ( 'NONE',  ( 0.06250000000000000000, 0.5000000000000001110, 1.148106374200643555E-17 ) ) ;
#49 = CARTESIAN_POINT ( 'NONE',  ( -0.1250000000000001388, 2.500000000000000000, 0.000000000000000000 ) ) ;
#50 = SURFACE_STYLE_FILL_AREA ( #71 ) ;
#51 = AXIS2_PLACEMENT_3D ( 'NONE', #311, #34, #255 ) ;
#52 = PRODUCT_CONTEXT ( 'NONE', #114, 'mechanical' ) ;
#53 = DIMENSIONAL_EXPONENTS ( 1.000000000000000000, 0.000000000000000000, 0.000000000000000000, 0.000000000000000000, 0.000000000000000000, 0.000000000000000000, 0.000000000000000000 ) ;
#54 = DIRECTION ( 'NONE',  ( 1.000000000000000000, 0.000000000000000000, 0.000000000000000000 ) ) ;
#55 = VERTEX_POINT ( 'NONE', #103 ) ;
#56 = EDGE_CURVE ( 'NONE', #29, #145, #7, .T. ) ;
#57 = VERTEX_POINT ( 'NONE', #231 ) ;
#58 = EDGE_LOOP ( 'NONE', ( #301, #20 ) ) ;
#59 = AXIS2_PLACEMENT_3D ( 'NONE', #335, #74, #89 ) ;
#60 =( CONVERSION_BASED_UNIT ( 'INCH', #118 ) LENGTH_UNIT ( ) NAMED_UNIT ( #193 ) );
#61 =( NAMED_UNIT ( * ) SI_UNIT ( $, .STERADIAN. ) SOLID_ANGLE_UNIT ( ) );
#62 = DIRECTION ( 'NONE',  ( -3.061616997868383018E-17, 1.000000000000000000, -0.000000000000000000 ) ) ;
#63 = DIRECTION ( 'NONE',  ( -0.000000000000000000, -1.000000000000000000, -0.000000000000000000 ) ) ;
#64 = FILL_AREA_STYLE ('',( #40 ) ) ;
#65 = DIRECTION ( 'NONE',  ( -1.000000000000000000, 0.000000000000000000, 0.000000000000000000 ) ) ;
#66 = DIRECTION ( 'NONE',  ( -3.061616997868383018E-17, 1.000000000000000000, -0.000000000000000000 ) ) ;
#67 = EDGE_CURVE ( 'NONE', #168, #57, #108, .T. ) ;
#68 = FACE_OUTER_BOUND ( 'NONE', #251, .T. ) ;
#69 = FACE_OUTER_BOUND ( 'NONE', #300, .T. ) ;
#70 = EDGE_CURVE ( 'NONE', #55, #240, #318, .T. ) ;
#71 = FILL_AREA_STYLE ('',( #12 ) ) ;
#72 = FILL_AREA_STYLE_COLOUR ( '', #199 ) ;
#73 = CIRCLE ( 'NONE', #59, 0.06250000000000000000 ) ;
#74 = DIRECTION ( 'NONE',  ( -3.061616997868383018E-17, 1.000000000000000000, -0.000000000000000000 ) ) ;
#75 = PRODUCT_DEFINITION_CONTEXT ( 'detailed design', #124, 'design' ) ;
#76 = PLANE ( 'NONE',  #291 ) ;
#77 =( CONVERSION_BASED_UNIT ( 'INCH', #289 ) LENGTH_UNIT ( ) NAMED_UNIT ( #268 ) );
#78 = DIRECTION ( 'NONE',  ( 0.000000000000000000, 0.000000000000000000, -1.000000000000000000 ) ) ;
#79 = UNCERTAINTY_MEASURE_WITH_UNIT (LENGTH_MEASURE( 1.000000000000000082E-05 ), #60, 'distance_accuracy_value', 'NONE');
#80 =( NAMED_UNIT ( * ) PLANE_ANGLE_UNIT ( ) SI_UNIT ( $, .RADIAN. ) );
#81 = LENGTH_MEASURE_WITH_UNIT ( LENGTH_MEASURE( 0.02539999999999999897 ), #328 );
#82 = ORIENTED_EDGE ( 'NONE', *, *, #184, .T. ) ;
#83 =( NAMED_UNIT ( * ) PLANE_ANGLE_UNIT ( ) SI_UNIT ( $, .RADIAN. ) );
#84 = VERTEX_POINT ( 'NONE', #107 ) ;
#85 =( GEOMETRIC_REPRESENTATION_CONTEXT ( 3 ) GLOBAL_UNCERTAINTY_ASSIGNED_CONTEXT ( ( #17 ) ) GLOBAL_UNIT_ASSIGNED_CONTEXT ( ( #215, #80, #46 ) ) REPRESENTATION_CONTEXT ( 'NONE', 'WORKASPACE' ) );
#86 = ORIENTED_EDGE ( 'NONE', *, *, #70, .F. ) ;
#87 = EDGE_LOOP ( 'NONE', ( #117, #179, #147, #275 ) ) ;
#88 = CONICAL_SURFACE ( 'NONE', #169, 0.06250000000000000000, 0.2617993877991502405 ) ;
#89 = DIRECTION ( 'NONE',  ( -1.000000000000000000, 0.000000000000000000, 0.000000000000000000 ) ) ;
#90 = ADVANCED_FACE ( 'NONE', ( #69 ), #47, .T. ) ;
#91 = CARTESIAN_POINT ( 'NONE',  ( -0.1250000000000001110, 2.500000000000000000, 0.000000000000000000 ) ) ;
#92 = FACE_OUTER_BOUND ( 'NONE', #87, .T. ) ;
#93 =( NAMED_UNIT ( * ) SI_UNIT ( $, .STERADIAN. ) SOLID_ANGLE_UNIT ( ) );
#94 = CYLINDRICAL_SURFACE ( 'NONE', #51, 0.1250000000000000278 ) ;
#95 = DIRECTION ( 'NONE',  ( 0.000000000000000000, 1.000000000000000000, 0.000000000000000000 ) ) ;
#96 =( GEOMETRIC_REPRESENTATION_CONTEXT ( 3 ) GLOBAL_UNCERTAINTY_ASSIGNED_CONTEXT ( ( #329 ) ) GLOBAL_UNIT_ASSIGNED_CONTEXT ( ( #77, #322, #41 ) ) REPRESENTATION_CONTEXT ( 'NONE', 'WORKASPACE' ) );
#97 = ORIENTED_EDGE ( 'NONE', *, *, #56, .F. ) ;
#98 = ADVANCED_FACE ( 'NONE', ( #346 ), #19, .T. ) ;
#99 = CIRCLE ( 'NONE', #111, 0.06250000000000000000 ) ;
#100 = DIRECTION ( 'NONE',  ( 0.000000000000000000, 0.000000000000000000, -1.000000000000000000 ) ) ;
#101 = LINE ( 'NONE', #91, #253 ) ;
#102 = MANIFOLD_SOLID_BREP ( 'Revolve - Cutting Edge', #359 ) ;
#103 = CARTESIAN_POINT ( 'NONE',  ( -0.1250000000000000000, 0.7332531754730542417, 0.000000000000000000 ) ) ;
#104 = EDGE_CURVE ( 'NONE', #55, #25, #101, .T. ) ;
#105 = LINE ( 'NONE', #109, #282 ) ;
#106 = PRESENTATION_STYLE_ASSIGNMENT (( #214 ) ) ;
#107 = CARTESIAN_POINT ( 'NONE',  ( 0.1250000000000000278, 2.500000000000000000, 1.530808498934192125E-17 ) ) ;
#108 = CIRCLE ( 'NONE', #352, 0.06250000000000000000 ) ;
#109 = CARTESIAN_POINT ( 'NONE',  ( 0.000000000000000000, 0.000000000000000000, -0.06250000000000000000 ) ) ;
#110 = PRESENTATION_LAYER_ASSIGNMENT (  '', '', ( #134 ) ) ;
#111 = AXIS2_PLACEMENT_3D ( 'NONE', #308, #63, #177 ) ;
#112 =( NAMED_UNIT ( * ) SI_UNIT ( $, .STERADIAN. ) SOLID_ANGLE_UNIT ( ) );
#113 = ORIENTED_EDGE ( 'NONE', *, *, #241, .F. ) ;
#114 = APPLICATION_CONTEXT ( 'automotive_design' ) ;
#115 = ORIENTED_EDGE ( 'NONE', *, *, #120, .F. ) ;
#116 = STYLED_ITEM ( 'NONE', ( #43 ), #189 ) ;
#117 = ORIENTED_EDGE ( 'NONE', *, *, #56, .T. ) ;
#118 = LENGTH_MEASURE_WITH_UNIT ( LENGTH_MEASURE( 0.02539999999999999897 ), #203 );
#119 = CARTESIAN_POINT ( 'NONE',  ( -6.123233995736766036E-17, 2.500000000000000000, 0.000000000000000000 ) ) ;
#120 = EDGE_CURVE ( 'NONE', #240, #84, #209, .T. ) ;
#121 = CARTESIAN_POINT ( 'NONE',  ( 0.000000000000000000, 0.5000000000000000000, 0.000000000000000000 ) ) ;
#122 = AXIS2_PLACEMENT_3D ( 'NONE', #204, #180, #123 ) ;
#123 = DIRECTION ( 'NONE',  ( -1.000000000000000000, 0.000000000000000000, 0.000000000000000000 ) ) ;
#124 = APPLICATION_CONTEXT ( 'automotive_design' ) ;
#125 = CARTESIAN_POINT ( 'NONE',  ( 0.000000000000000000, 0.5000000000000001110, 0.000000000000000000 ) ) ;
#126 = LENGTH_MEASURE_WITH_UNIT ( LENGTH_MEASURE( 0.02539999999999999897 ), #279 );
#127 = SURFACE_SIDE_STYLE ('',( #2 ) ) ;
#128 = DIRECTION ( 'NONE',  ( -0.000000000000000000, -1.000000000000000000, -0.000000000000000000 ) ) ;
#129 = STYLED_ITEM ( 'NONE', ( #256 ), #136 ) ;
#130 = AXIS2_PLACEMENT_3D ( 'NONE', #218, #327, #54 ) ;
#131 = LENGTH_MEASURE_WITH_UNIT ( LENGTH_MEASURE( 0.02539999999999999897 ), #150 );
#132 = DIRECTION ( 'NONE',  ( -3.061616997868383018E-17, 1.000000000000000000, -0.000000000000000000 ) ) ;
#133 = CARTESIAN_POINT ( 'NONE',  ( 0.000000000000000000, 0.000000000000000000, 0.000000000000000000 ) ) ;
#134 = STYLED_ITEM ( 'NONE', ( #153 ), #23 ) ;
#135 = MECHANICAL_DESIGN_GEOMETRIC_PRESENTATION_REPRESENTATION (  '', ( #8 ), #216 ) ;
#136 = ADVANCED_FACE ( 'NONE', ( #68 ), #31, .T. ) ;
#137 = DIRECTION ( 'NONE',  ( -1.000000000000000000, -3.061616997868383018E-17, 0.000000000000000000 ) ) ;
#138 = PRODUCT_DEFINITION_SHAPE ( 'NONE', 'NONE',  #265 ) ;
#139 = SHAPE_DEFINITION_REPRESENTATION ( #138, #36 ) ;
#140 = UNCERTAINTY_MEASURE_WITH_UNIT (LENGTH_MEASURE( 1.000000000000000082E-05 ), #294, 'distance_accuracy_value', 'NONE');
#141 = COLOUR_RGB ( '',1.000000000000000000, 0.000000000000000000, 0.000000000000000000 ) ;
#142 = UNCERTAINTY_MEASURE_WITH_UNIT (LENGTH_MEASURE( 1.000000000000000082E-05 ), #178, 'distance_accuracy_value', 'NONE');
#143 =( GEOMETRIC_REPRESENTATION_CONTEXT ( 3 ) GLOBAL_UNCERTAINTY_ASSIGNED_CONTEXT ( ( #10 ) ) GLOBAL_UNIT_ASSIGNED_CONTEXT ( ( #158, #264, #93 ) ) REPRESENTATION_CONTEXT ( 'NONE', 'WORKASPACE' ) );
#144 = MECHANICAL_DESIGN_GEOMETRIC_PRESENTATION_REPRESENTATION (  '', ( #129 ), #244 ) ;
#145 = VERTEX_POINT ( 'NONE', #295 ) ;
#146 = CARTESIAN_POINT ( 'NONE',  ( 7.654042494670957545E-18, 0.000000000000000000, 0.06250000000000000000 ) ) ;
#147 = ORIENTED_EDGE ( 'NONE', *, *, #184, .F. ) ;
#148 = ORIENTED_EDGE ( 'NONE', *, *, #350, .F. ) ;
#149 = DIRECTION ( 'NONE',  ( -1.000000000000000000, 0.000000000000000000, 0.000000000000000000 ) ) ;
#150 =( LENGTH_UNIT ( ) NAMED_UNIT ( * ) SI_UNIT ( $, .METRE. ) );
#151 = PRESENTATION_LAYER_ASSIGNMENT (  '', '', ( #1 ) ) ;
#152 = ADVANCED_FACE ( 'NONE', ( #233 ), #76, .F. ) ;
#153 = PRESENTATION_STYLE_ASSIGNMENT (( #35 ) ) ;
#154 = FACE_OUTER_BOUND ( 'NONE', #357, .T. ) ;
#155 = SURFACE_STYLE_USAGE ( .BOTH. , #5 ) ;
#156 = DIMENSIONAL_EXPONENTS ( 1.000000000000000000, 0.000000000000000000, 0.000000000000000000, 0.000000000000000000, 0.000000000000000000, 0.000000000000000000, 0.000000000000000000 ) ;
#157 =( LENGTH_UNIT ( ) NAMED_UNIT ( * ) SI_UNIT ( $, .METRE. ) );
#158 =( CONVERSION_BASED_UNIT ( 'INCH', #45 ) LENGTH_UNIT ( ) NAMED_UNIT ( #324 ) );
#159 = EDGE_CURVE ( 'NONE', #29, #220, #105, .T. ) ;
#160 = SURFACE_SIDE_STYLE ('',( #348 ) ) ;
#161 = CARTESIAN_POINT ( 'NONE',  ( 0.000000000000000000, 0.5000000000000000000, -0.06250000000000000000 ) ) ;
#162 = COLOUR_RGB ( '',1.000000000000000000, 0.000000000000000000, 0.000000000000000000 ) ;
#163 = DIMENSIONAL_EXPONENTS ( 1.000000000000000000, 0.000000000000000000, 0.000000000000000000, 0.000000000000000000, 0.000000000000000000, 0.000000000000000000, 0.000000000000000000 ) ;
#164 = ORIENTED_EDGE ( 'NONE', *, *, #67, .F. ) ;
#165 = PRESENTATION_LAYER_ASSIGNMENT (  '', '', ( #331 ) ) ;
#166 = AXIS2_PLACEMENT_3D ( 'NONE', #223, #186, #26 ) ;
#167 = EDGE_LOOP ( 'NONE', ( #239, #164 ) ) ;
#168 = VERTEX_POINT ( 'NONE', #48 ) ;
#169 = AXIS2_PLACEMENT_3D ( 'NONE', #125, #281, #65 ) ;
#170 =( GEOMETRIC_REPRESENTATION_CONTEXT ( 3 ) GLOBAL_UNCERTAINTY_ASSIGNED_CONTEXT ( ( #140 ) ) GLOBAL_UNIT_ASSIGNED_CONTEXT ( ( #294, #83, #112 ) ) REPRESENTATION_CONTEXT ( 'NONE', 'WORKASPACE' ) );
#171 = DIRECTION ( 'NONE',  ( -0.2588190451025215721, 0.9659258262890679791, 0.000000000000000000 ) ) ;
#172 = LINE ( 'NONE', #30, #238 ) ;
#173 = FILL_AREA_STYLE ('',( #250 ) ) ;
#174 = CYLINDRICAL_SURFACE ( 'NONE', #343, 0.06250000000000000000 ) ;
#175 = CARTESIAN_POINT ( 'NONE',  ( -6.123233995736766036E-17, 2.500000000000000000, 0.000000000000000000 ) ) ;
#176 = CIRCLE ( 'NONE', #224, 0.06250000000000000000 ) ;
#177 = DIRECTION ( 'NONE',  ( 0.000000000000000000, 0.000000000000000000, -1.000000000000000000 ) ) ;
#178 =( CONVERSION_BASED_UNIT ( 'INCH', #131 ) LENGTH_UNIT ( ) NAMED_UNIT ( #163 ) );
#179 = ORIENTED_EDGE ( 'NONE', *, *, #241, .T. ) ;
#180 = DIRECTION ( 'NONE',  ( -3.061616997868383018E-17, 1.000000000000000000, -0.000000000000000000 ) ) ;
#181 = SURFACE_STYLE_USAGE ( .BOTH. , #292 ) ;
#182 = EDGE_CURVE ( 'NONE', #240, #55, #235, .T. ) ;
#183 = AXIS2_PLACEMENT_3D ( 'NONE', #217, #313, #100 ) ;
#184 = EDGE_CURVE ( 'NONE', #220, #312, #176, .T. ) ;
#185 = CARTESIAN_POINT ( 'NONE',  ( 0.000000000000000000, 0.5000000000000000000, 0.000000000000000000 ) ) ;
#186 = DIRECTION ( 'NONE',  ( 3.061616997868383018E-17, -1.000000000000000000, 0.000000000000000000 ) ) ;
#187 = CARTESIAN_POINT ( 'NONE',  ( 2.929218325511440640E-35, 0.5000000000000000000, 0.000000000000000000 ) ) ;
#188 = DIRECTION ( 'NONE',  ( 0.000000000000000000, 0.000000000000000000, -1.000000000000000000 ) ) ;
#189 = ADVANCED_FACE ( 'NONE', ( #236 ), #316, .T. ) ;
#190 =( LENGTH_UNIT ( ) NAMED_UNIT ( * ) SI_UNIT ( $, .METRE. ) );
#191 = VECTOR ( 'NONE', #171, 39.37007874015748143 ) ;
#192 = ORIENTED_EDGE ( 'NONE', *, *, #14, .F. ) ;
#193 = DIMENSIONAL_EXPONENTS ( 1.000000000000000000, 0.000000000000000000, 0.000000000000000000, 0.000000000000000000, 0.000000000000000000, 0.000000000000000000, 0.000000000000000000 ) ;
#194 = EDGE_LOOP ( 'NONE', ( #113, #257, #269, #326 ) ) ;
#195 = ORIENTED_EDGE ( 'NONE', *, *, #277, .T. ) ;
#196 = AXIS2_PLACEMENT_3D ( 'NONE', #317, #293, #315 ) ;
#197 = ADVANCED_FACE ( 'NONE', ( #154 ), #88, .T. ) ;
#198 = EDGE_LOOP ( 'NONE', ( #115, #246, #284, #303 ) ) ;
#199 = COLOUR_RGB ( '',1.000000000000000000, 0.000000000000000000, 0.000000000000000000 ) ;
#200 = COLOUR_RGB ( '',0.7921568627450980005, 0.8196078431372548767, 0.9333333333333333481 ) ;
#201 =( NAMED_UNIT ( * ) PLANE_ANGLE_UNIT ( ) SI_UNIT ( $, .RADIAN. ) );
#202 = ORIENTED_EDGE ( 'NONE', *, *, #182, .F. ) ;
#203 =( LENGTH_UNIT ( ) NAMED_UNIT ( * ) SI_UNIT ( $, .METRE. ) );
#204 = CARTESIAN_POINT ( 'NONE',  ( 0.000000000000000000, 0.5000000000000001110, 0.000000000000000000 ) ) ;
#205 = DIRECTION ( 'NONE',  ( 0.000000000000000000, 0.000000000000000000, -1.000000000000000000 ) ) ;
#206 = CARTESIAN_POINT ( 'NONE',  ( -6.123233995736766036E-17, 2.500000000000000000, 0.000000000000000000 ) ) ;
#207 =( GEOMETRIC_REPRESENTATION_CONTEXT ( 3 ) GLOBAL_UNCERTAINTY_ASSIGNED_CONTEXT ( ( #79 ) ) GLOBAL_UNIT_ASSIGNED_CONTEXT ( ( #60, #249, #337 ) ) REPRESENTATION_CONTEXT ( 'NONE', 'WORKASPACE' ) );
#208 = FACE_OUTER_BOUND ( 'NONE', #198, .T. ) ;
#209 = LINE ( 'NONE', #288, #333 ) ;
#210 = DIRECTION ( 'NONE',  ( -3.061616997868383018E-17, 1.000000000000000000, -0.000000000000000000 ) ) ;
#211 = DIRECTION ( 'NONE',  ( -0.000000000000000000, -1.000000000000000000, -0.000000000000000000 ) ) ;
#212 = PRESENTATION_LAYER_ASSIGNMENT (  '', '', ( #8 ) ) ;
#213 = DIRECTION ( 'NONE',  ( 0.000000000000000000, 0.000000000000000000, -1.000000000000000000 ) ) ;
#214 = SURFACE_STYLE_USAGE ( .BOTH. , #160 ) ;
#215 =( CONVERSION_BASED_UNIT ( 'INCH', #351 ) LENGTH_UNIT ( ) NAMED_UNIT ( #156 ) );
#216 =( GEOMETRIC_REPRESENTATION_CONTEXT ( 3 ) GLOBAL_UNCERTAINTY_ASSIGNED_CONTEXT ( ( #260 ) ) GLOBAL_UNIT_ASSIGNED_CONTEXT ( ( #9, #259, #314 ) ) REPRESENTATION_CONTEXT ( 'NONE', 'WORKASPACE' ) );
#217 = CARTESIAN_POINT ( 'NONE',  ( 0.000000000000000000, 0.000000000000000000, 0.000000000000000000 ) ) ;
#218 = CARTESIAN_POINT ( 'NONE',  ( 0.000000000000000000, 0.000000000000000000, 0.000000000000000000 ) ) ;
#219 = ORIENTED_EDGE ( 'NONE', *, *, #70, .T. ) ;
#220 = VERTEX_POINT ( 'NONE', #305 ) ;
#221 = CARTESIAN_POINT ( 'NONE',  ( 0.000000000000000000, 0.5000000000000000000, 0.000000000000000000 ) ) ;
#222 = DIRECTION ( 'NONE',  ( -3.061616997868383018E-17, 1.000000000000000000, -0.000000000000000000 ) ) ;
#223 = CARTESIAN_POINT ( 'NONE',  ( 0.1250000000000000000, 2.500000000000000000, 0.000000000000000000 ) ) ;
#224 = AXIS2_PLACEMENT_3D ( 'NONE', #323, #232, #78 ) ;
#225 = DIRECTION ( 'NONE',  ( -0.000000000000000000, -1.000000000000000000, -0.000000000000000000 ) ) ;
#226 = DIRECTION ( 'NONE',  ( 0.2588190451025214611, 0.9659258262890679791, 3.169619151431774186E-17 ) ) ;
#227 = SURFACE_STYLE_FILL_AREA ( #173 ) ;
#228 = FILL_AREA_STYLE ('',( #32 ) ) ;
#229 = DIRECTION ( 'NONE',  ( -3.061616997868383018E-17, 1.000000000000000000, -0.000000000000000000 ) ) ;
#230 = AXIS2_PLACEMENT_3D ( 'NONE', #283, #11, #213 ) ;
#231 = CARTESIAN_POINT ( 'NONE',  ( -0.06250000000000000000, 0.5000000000000001110, 0.000000000000000000 ) ) ;
#232 = DIRECTION ( 'NONE',  ( -0.000000000000000000, -1.000000000000000000, -0.000000000000000000 ) ) ;
#233 = FACE_OUTER_BOUND ( 'NONE', #167, .T. ) ;
#234 = CARTESIAN_POINT ( 'NONE',  ( 0.000000000000000000, 0.5000000000000001110, 0.000000000000000000 ) ) ;
#235 = CIRCLE ( 'NONE', #302, 0.1250000000000000278 ) ;
#236 = FACE_OUTER_BOUND ( 'NONE', #194, .T. ) ;
#237 = MECHANICAL_DESIGN_GEOMETRIC_PRESENTATION_REPRESENTATION (  '', ( #134 ), #96 ) ;
#238 = VECTOR ( 'NONE', #226, 39.37007874015748143 ) ;
#239 = ORIENTED_EDGE ( 'NONE', *, *, #277, .F. ) ;
#240 = VERTEX_POINT ( 'NONE', #6 ) ;
#241 = EDGE_CURVE ( 'NONE', #145, #312, #4, .T. ) ;
#242 = ORIENTED_EDGE ( 'NONE', *, *, #274, .F. ) ;
#243 = AXIS2_PLACEMENT_3D ( 'NONE', #119, #62, #280 ) ;
#244 =( GEOMETRIC_REPRESENTATION_CONTEXT ( 3 ) GLOBAL_UNCERTAINTY_ASSIGNED_CONTEXT ( ( #142 ) ) GLOBAL_UNIT_ASSIGNED_CONTEXT ( ( #178, #201, #61 ) ) REPRESENTATION_CONTEXT ( 'NONE', 'WORKASPACE' ) );
#245 = EDGE_CURVE ( 'NONE', #25, #84, #356, .T. ) ;
#246 = ORIENTED_EDGE ( 'NONE', *, *, #182, .T. ) ;
#247 = CARTESIAN_POINT ( 'NONE',  ( -0.06250000000000000000, 0.5000000000000001110, 0.000000000000000000 ) ) ;
#248 = FACE_OUTER_BOUND ( 'NONE', #21, .T. ) ;
#249 =( NAMED_UNIT ( * ) PLANE_ANGLE_UNIT ( ) SI_UNIT ( $, .RADIAN. ) );
#250 = FILL_AREA_STYLE_COLOUR ( '', #298 ) ;
#251 = EDGE_LOOP ( 'NONE', ( #82, #334 ) ) ;
#252 = FACE_OUTER_BOUND ( 'NONE', #58, .T. ) ;
#253 = VECTOR ( 'NONE', #66, 39.37007874015748143 ) ;
#254 = CYLINDRICAL_SURFACE ( 'NONE', #243, 0.1250000000000000278 ) ;
#255 = DIRECTION ( 'NONE',  ( -1.000000000000000000, 0.000000000000000000, 0.000000000000000000 ) ) ;
#256 = PRESENTATION_STYLE_ASSIGNMENT (( #155 ) ) ;
#257 = ORIENTED_EDGE ( 'NONE', *, *, #14, .T. ) ;
#258 = CARTESIAN_POINT ( 'NONE',  ( 7.654042494670957545E-18, 0.000000000000000000, 0.06250000000000000000 ) ) ;
#259 =( NAMED_UNIT ( * ) PLANE_ANGLE_UNIT ( ) SI_UNIT ( $, .RADIAN. ) );
#260 = UNCERTAINTY_MEASURE_WITH_UNIT (LENGTH_MEASURE( 1.000000000000000082E-05 ), #9, 'distance_accuracy_value', 'NONE');
#261 = PRODUCT_DEFINITION_FORMATION_WITH_SPECIFIED_SOURCE ( 'ANY', '', #44, .NOT_KNOWN. ) ;
#262 = CIRCLE ( 'NONE', #297, 0.1250000000000000555 ) ;
#263 = DIRECTION ( 'NONE',  ( -1.000000000000000000, 0.000000000000000000, 0.000000000000000000 ) ) ;
#264 =( NAMED_UNIT ( * ) PLANE_ANGLE_UNIT ( ) SI_UNIT ( $, .RADIAN. ) );
#265 = PRODUCT_DEFINITION ( 'UNKNOWN', '', #261, #75 ) ;
#266 = DIRECTION ( 'NONE',  ( -1.000000000000000000, 0.000000000000000000, 0.000000000000000000 ) ) ;
#267 = VECTOR ( 'NONE', #37, 39.37007874015748143 ) ;
#268 = DIMENSIONAL_EXPONENTS ( 1.000000000000000000, 0.000000000000000000, 0.000000000000000000, 0.000000000000000000, 0.000000000000000000, 0.000000000000000000, 0.000000000000000000 ) ;
#269 = ORIENTED_EDGE ( 'NONE', *, *, #159, .T. ) ;
#270 = ADVANCED_FACE ( 'NONE', ( #208 ), #94, .T. ) ;
#271 = AXIS2_PLACEMENT_3D ( 'NONE', #185, #211, #15 ) ;
#272 = ORIENTED_EDGE ( 'NONE', *, *, #104, .F. ) ;
#273 = ORIENTED_EDGE ( 'NONE', *, *, #120, .T. ) ;
#274 = EDGE_CURVE ( 'NONE', #57, #55, #278, .T. ) ;
#275 = ORIENTED_EDGE ( 'NONE', *, *, #159, .F. ) ;
#276 = CIRCLE ( 'NONE', #296, 0.06250000000000000000 ) ;
#277 = EDGE_CURVE ( 'NONE', #57, #168, #73, .T. ) ;
#278 = LINE ( 'NONE', #247, #191 ) ;
#279 =( LENGTH_UNIT ( ) NAMED_UNIT ( * ) SI_UNIT ( $, .METRE. ) );
#280 = DIRECTION ( 'NONE',  ( -1.000000000000000000, 0.000000000000000000, 0.000000000000000000 ) ) ;
#281 = DIRECTION ( 'NONE',  ( -3.061616997868383018E-17, 1.000000000000000000, -0.000000000000000000 ) ) ;
#282 = VECTOR ( 'NONE', #321, 39.37007874015748143 ) ;
#283 = CARTESIAN_POINT ( 'NONE',  ( 0.000000000000000000, 0.000000000000000000, 0.000000000000000000 ) ) ;
#284 = ORIENTED_EDGE ( 'NONE', *, *, #104, .T. ) ;
#285 = FILL_AREA_STYLE_COLOUR ( '', #200 ) ;
#286 = DIRECTION ( 'NONE',  ( 0.000000000000000000, -0.000000000000000000, 1.000000000000000000 ) ) ;
#287 = ORIENTED_EDGE ( 'NONE', *, *, #274, .T. ) ;
#288 = CARTESIAN_POINT ( 'NONE',  ( 0.1249999999999999584, 2.500000000000000000, 1.530808498934191817E-17 ) ) ;
#289 = LENGTH_MEASURE_WITH_UNIT ( LENGTH_MEASURE( 0.02539999999999999897 ), #320 );
#290 = DIRECTION ( 'NONE',  ( -3.061616997868383018E-17, 1.000000000000000000, 0.000000000000000000 ) ) ;
#291 = AXIS2_PLACEMENT_3D ( 'NONE', #187, #290, #137 ) ;
#292 = SURFACE_SIDE_STYLE ('',( #50 ) ) ;
#293 = DIRECTION ( 'NONE',  ( -3.061616997868383018E-17, 1.000000000000000000, -0.000000000000000000 ) ) ;
#294 =( CONVERSION_BASED_UNIT ( 'INCH', #81 ) LENGTH_UNIT ( ) NAMED_UNIT ( #39 ) );
#295 = CARTESIAN_POINT ( 'NONE',  ( 7.654042494670957545E-18, 0.5000000000000000000, 0.06250000000000000000 ) ) ;
#296 = AXIS2_PLACEMENT_3D ( 'NONE', #221, #225, #205 ) ;
#297 = AXIS2_PLACEMENT_3D ( 'NONE', #206, #229, #338 ) ;
#298 = COLOUR_RGB ( '',0.7921568627450980005, 0.8196078431372548767, 0.9333333333333333481 ) ;
#299 = ADVANCED_FACE ( 'NONE', ( #252 ), #344, .F. ) ;
#300 = EDGE_LOOP ( 'NONE', ( #97, #192 ) ) ;
#301 = ORIENTED_EDGE ( 'NONE', *, *, #245, .T. ) ;
#302 = AXIS2_PLACEMENT_3D ( 'NONE', #18, #132, #266 ) ;
#303 = ORIENTED_EDGE ( 'NONE', *, *, #307, .F. ) ;
#304 = MECHANICAL_DESIGN_GEOMETRIC_PRESENTATION_REPRESENTATION (  '', ( #1 ), #207 ) ;
#305 = CARTESIAN_POINT ( 'NONE',  ( 0.000000000000000000, 0.000000000000000000, -0.06250000000000000000 ) ) ;
#306 = SURFACE_STYLE_FILL_AREA ( #64 ) ;
#307 = EDGE_CURVE ( 'NONE', #84, #25, #262, .T. ) ;
#308 = CARTESIAN_POINT ( 'NONE',  ( 0.000000000000000000, 0.000000000000000000, 0.000000000000000000 ) ) ;
#309 = SURFACE_SIDE_STYLE ('',( #340 ) ) ;
#310 = EDGE_CURVE ( 'NONE', #312, #220, #99, .T. ) ;
#311 = CARTESIAN_POINT ( 'NONE',  ( -6.123233995736766036E-17, 2.500000000000000000, 0.000000000000000000 ) ) ;
#312 = VERTEX_POINT ( 'NONE', #258 ) ;
#313 = DIRECTION ( 'NONE',  ( -0.000000000000000000, -1.000000000000000000, -0.000000000000000000 ) ) ;
#314 =( NAMED_UNIT ( * ) SI_UNIT ( $, .STERADIAN. ) SOLID_ANGLE_UNIT ( ) );
#315 = DIRECTION ( 'NONE',  ( -1.000000000000000000, 0.000000000000000000, 0.000000000000000000 ) ) ;
#316 = CYLINDRICAL_SURFACE ( 'NONE', #183, 0.06250000000000000000 ) ;
#317 = CARTESIAN_POINT ( 'NONE',  ( -7.141318868350792852E-18, 0.7332531754730542417, 0.000000000000000000 ) ) ;
#318 = CIRCLE ( 'NONE', #196, 0.1250000000000000278 ) ;
#319 = PRESENTATION_LAYER_ASSIGNMENT (  '', '', ( #116 ) ) ;
#320 =( LENGTH_UNIT ( ) NAMED_UNIT ( * ) SI_UNIT ( $, .METRE. ) );
#321 = DIRECTION ( 'NONE',  ( -0.000000000000000000, -1.000000000000000000, -0.000000000000000000 ) ) ;
#322 =( NAMED_UNIT ( * ) PLANE_ANGLE_UNIT ( ) SI_UNIT ( $, .RADIAN. ) );
#323 = CARTESIAN_POINT ( 'NONE',  ( 0.000000000000000000, 0.000000000000000000, 0.000000000000000000 ) ) ;
#324 = DIMENSIONAL_EXPONENTS ( 1.000000000000000000, 0.000000000000000000, 0.000000000000000000, 0.000000000000000000, 0.000000000000000000, 0.000000000000000000, 0.000000000000000000 ) ;
#325 = AXIS2_PLACEMENT_3D ( 'NONE', #175, #222, #149 ) ;
#326 = ORIENTED_EDGE ( 'NONE', *, *, #310, .F. ) ;
#327 = DIRECTION ( 'NONE',  ( 0.000000000000000000, 0.000000000000000000, 1.000000000000000000 ) ) ;
#328 =( LENGTH_UNIT ( ) NAMED_UNIT ( * ) SI_UNIT ( $, .METRE. ) );
#329 = UNCERTAINTY_MEASURE_WITH_UNIT (LENGTH_MEASURE( 1.000000000000000082E-05 ), #77, 'distance_accuracy_value', 'NONE');
#330 = PRODUCT_RELATED_PRODUCT_CATEGORY ( 'part', '', ( #44 ) ) ;
#331 = STYLED_ITEM ( 'NONE', ( #106 ), #90 ) ;
#332 = ORIENTED_EDGE ( 'NONE', *, *, #245, .F. ) ;
#333 = VECTOR ( 'NONE', #28, 39.37007874015748143 ) ;
#334 = ORIENTED_EDGE ( 'NONE', *, *, #310, .T. ) ;
#335 = CARTESIAN_POINT ( 'NONE',  ( 0.000000000000000000, 0.5000000000000001110, 0.000000000000000000 ) ) ;
#336 = ORIENTED_EDGE ( 'NONE', *, *, #350, .T. ) ;
#337 =( NAMED_UNIT ( * ) SI_UNIT ( $, .STERADIAN. ) SOLID_ANGLE_UNIT ( ) );
#338 = DIRECTION ( 'NONE',  ( -1.000000000000000000, 0.000000000000000000, 0.000000000000000000 ) ) ;
#339 = PRESENTATION_STYLE_ASSIGNMENT (( #342 ) ) ;
#340 = SURFACE_STYLE_FILL_AREA ( #228 ) ;
#341 = FILL_AREA_STYLE ('',( #285 ) ) ;
#342 = SURFACE_STYLE_USAGE ( .BOTH. , #38 ) ;
#343 = AXIS2_PLACEMENT_3D ( 'NONE', #133, #128, #188 ) ;
#344 = PLANE ( 'NONE',  #166 ) ;
#345 = PRESENTATION_LAYER_ASSIGNMENT (  '', '', ( #129 ) ) ;
#346 = FACE_OUTER_BOUND ( 'NONE', #3, .T. ) ;
#347 = MANIFOLD_SOLID_BREP ( 'Revolve - Tool Body (Reduced Cut Diameter)', #355 ) ;
#348 = SURFACE_STYLE_FILL_AREA ( #349 ) ;
#349 = FILL_AREA_STYLE ('',( #72 ) ) ;
#350 = EDGE_CURVE ( 'NONE', #168, #240, #172, .T. ) ;
#351 = LENGTH_MEASURE_WITH_UNIT ( LENGTH_MEASURE( 0.02539999999999999897 ), #190 );
#352 = AXIS2_PLACEMENT_3D ( 'NONE', #234, #210, #263 ) ;
#353 = MECHANICAL_DESIGN_GEOMETRIC_PRESENTATION_REPRESENTATION (  '', ( #116 ), #85 ) ;
#354 = APPLICATION_PROTOCOL_DEFINITION ( 'draft international standard', 'automotive_design', 1998, #124 ) ;
#355 = CLOSED_SHELL ( 'NONE', ( #16, #197, #152, #98, #270, #299 ) ) ;
#356 = CIRCLE ( 'NONE', #325, 0.1250000000000000555 ) ;
#357 = EDGE_LOOP ( 'NONE', ( #195, #336, #86, #242 ) ) ;
#358 = SURFACE_STYLE_USAGE ( .BOTH. , #127 ) ;
#359 = CLOSED_SHELL ( 'NONE', ( #23, #90, #189, #136 ) ) ;
ENDSEC;
END-ISO-10303-21;
