ISO-10303-21;
HEADER;
FILE_DESCRIPTION (( 'STEP AP214' ),
    '1' );
FILE_NAME ('84093.STEP',
    '2023-06-23T11:55:44',
    ( '' ),
    ( '' ),
    'SwSTEP 2.0',
    'SolidWorks 2023',
    '' );
FILE_SCHEMA (( 'AUTOMOTIVE_DESIGN' ));
ENDSEC;

DATA;
#1 = CARTESIAN_POINT ( 'NONE',  ( 0.000000000000000000, 0.5000000000000000000, 0.000000000000000000 ) ) ;
#2 = ADVANCED_FACE ( 'NONE', ( #292 ), #228, .T. ) ;
#3 = LINE ( 'NONE', #66, #14 ) ;
#4 =( LENGTH_UNIT ( ) NAMED_UNIT ( * ) SI_UNIT ( $, .METRE. ) );
#5 = FACE_OUTER_BOUND ( 'NONE', #263, .T. ) ;
#6 = EDGE_CURVE ( 'NONE', #147, #64, #290, .T. ) ;
#7 = SURFACE_STYLE_USAGE ( .BOTH. , #314 ) ;
#8 = CARTESIAN_POINT ( 'NONE',  ( 0.000000000000000000, 0.000000000000000000, -0.06250000000000000000 ) ) ;
#9 = MECHANICAL_DESIGN_GEOMETRIC_PRESENTATION_REPRESENTATION (  '', ( #344 ), #242 ) ;
#10 = UNCERTAINTY_MEASURE_WITH_UNIT (LENGTH_MEASURE( 1.000000000000000082E-05 ), #207, 'distance_accuracy_value', 'NONE');
#11 = EDGE_CURVE ( 'NONE', #70, #147, #136, .T. ) ;
#12 = VERTEX_POINT ( 'NONE', #244 ) ;
#13 = CIRCLE ( 'NONE', #258, 0.06250000000000000000 ) ;
#14 = VECTOR ( 'NONE', #183, 39.37007874015748143 ) ;
#15 = ORIENTED_EDGE ( 'NONE', *, *, #331, .F. ) ;
#16 = ORIENTED_EDGE ( 'NONE', *, *, #175, .T. ) ;
#17 = DIRECTION ( 'NONE',  ( -3.061616997868383018E-17, 1.000000000000000000, 0.000000000000000000 ) ) ;
#18 = FILL_AREA_STYLE ('',( #173 ) ) ;
#19 = COLOUR_RGB ( '',0.7921568627450980005, 0.8196078431372548767, 0.9333333333333333481 ) ;
#20 = FACE_OUTER_BOUND ( 'NONE', #288, .T. ) ;
#21 = MECHANICAL_DESIGN_GEOMETRIC_PRESENTATION_REPRESENTATION (  '', ( #281 ), #208 ) ;
#22 = DIRECTION ( 'NONE',  ( -1.000000000000000000, 0.000000000000000000, 0.000000000000000000 ) ) ;
#23 = CYLINDRICAL_SURFACE ( 'NONE', #41, 0.1250000000000000278 ) ;
#24 = SURFACE_STYLE_USAGE ( .BOTH. , #356 ) ;
#25 = CARTESIAN_POINT ( 'NONE',  ( 0.000000000000000000, 0.5000000000000001110, 0.000000000000000000 ) ) ;
#26 = DIRECTION ( 'NONE',  ( -3.061616997868383018E-17, 1.000000000000000000, -0.000000000000000000 ) ) ;
#27 = PLANE ( 'NONE',  #287 ) ;
#28 = VECTOR ( 'NONE', #239, 39.37007874015748143 ) ;
#29 = AXIS2_PLACEMENT_3D ( 'NONE', #307, #108, #182 ) ;
#30 = DIRECTION ( 'NONE',  ( 0.000000000000000000, 0.000000000000000000, 1.000000000000000000 ) ) ;
#31 = PRESENTATION_STYLE_ASSIGNMENT (( #7 ) ) ;
#32 = CARTESIAN_POINT ( 'NONE',  ( 0.000000000000000000, 0.000000000000000000, 0.000000000000000000 ) ) ;
#33 = AXIS2_PLACEMENT_3D ( 'NONE', #1, #329, #86 ) ;
#34 = ORIENTED_EDGE ( 'NONE', *, *, #84, .T. ) ;
#35 = APPLICATION_CONTEXT ( 'automotive_design' ) ;
#36 = EDGE_CURVE ( 'NONE', #113, #48, #13, .T. ) ;
#37 = ORIENTED_EDGE ( 'NONE', *, *, #340, .F. ) ;
#38 =( LENGTH_UNIT ( ) NAMED_UNIT ( * ) SI_UNIT ( $, .METRE. ) );
#39 = DIRECTION ( 'NONE',  ( -3.061616997868383018E-17, 1.000000000000000000, -0.000000000000000000 ) ) ;
#40 = AXIS2_PLACEMENT_3D ( 'NONE', #120, #93, #203 ) ;
#41 = AXIS2_PLACEMENT_3D ( 'NONE', #52, #163, #100 ) ;
#42 =( NAMED_UNIT ( * ) SI_UNIT ( $, .STERADIAN. ) SOLID_ANGLE_UNIT ( ) );
#43 = ORIENTED_EDGE ( 'NONE', *, *, #171, .F. ) ;
#44 = EDGE_LOOP ( 'NONE', ( #195, #283 ) ) ;
#45 =( GEOMETRIC_REPRESENTATION_CONTEXT ( 3 ) GLOBAL_UNCERTAINTY_ASSIGNED_CONTEXT ( ( #334 ) ) GLOBAL_UNIT_ASSIGNED_CONTEXT ( ( #278, #198, #220 ) ) REPRESENTATION_CONTEXT ( 'NONE', 'WORKASPACE' ) );
#46 = MANIFOLD_SOLID_BREP ( 'Revolve - Tool Body (Reduced Cut Diameter)', #60 ) ;
#47 = ORIENTED_EDGE ( 'NONE', *, *, #234, .T. ) ;
#48 = VERTEX_POINT ( 'NONE', #127 ) ;
#49 = PLANE ( 'NONE',  #223 ) ;
#50 = CARTESIAN_POINT ( 'NONE',  ( 7.654042494670957545E-18, 0.000000000000000000, 0.06250000000000000000 ) ) ;
#51 = EDGE_CURVE ( 'NONE', #12, #117, #53, .T. ) ;
#52 = CARTESIAN_POINT ( 'NONE',  ( -6.123233995736766036E-17, 2.500000000000000000, 0.000000000000000000 ) ) ;
#53 = CIRCLE ( 'NONE', #33, 0.06250000000000000000 ) ;
#54 = VECTOR ( 'NONE', #353, 39.37007874015748143 ) ;
#55 = DIRECTION ( 'NONE',  ( -3.061616997868383018E-17, 1.000000000000000000, -0.000000000000000000 ) ) ;
#56 = CARTESIAN_POINT ( 'NONE',  ( 7.654042494670957545E-18, 0.000000000000000000, 0.06250000000000000000 ) ) ;
#57 =( CONVERSION_BASED_UNIT ( 'INCH', #301 ) LENGTH_UNIT ( ) NAMED_UNIT ( #284 ) );
#58 = DIRECTION ( 'NONE',  ( -1.000000000000000000, 0.000000000000000000, 0.000000000000000000 ) ) ;
#59 = DIRECTION ( 'NONE',  ( -3.061616997868383018E-17, 1.000000000000000000, -0.000000000000000000 ) ) ;
#60 = CLOSED_SHELL ( 'NONE', ( #189, #204, #221, #352, #335, #248 ) ) ;
#61 = COLOUR_RGB ( '',0.7921568627450980005, 0.8196078431372548767, 0.9333333333333333481 ) ;
#62 = DIMENSIONAL_EXPONENTS ( 1.000000000000000000, 0.000000000000000000, 0.000000000000000000, 0.000000000000000000, 0.000000000000000000, 0.000000000000000000, 0.000000000000000000 ) ;
#63 = LENGTH_MEASURE_WITH_UNIT ( LENGTH_MEASURE( 0.02539999999999999897 ), #38 );
#64 = VERTEX_POINT ( 'NONE', #325 ) ;
#65 = CARTESIAN_POINT ( 'NONE',  ( -6.123233995736766036E-17, 2.500000000000000000, 0.000000000000000000 ) ) ;
#66 = CARTESIAN_POINT ( 'NONE',  ( 0.000000000000000000, 0.000000000000000000, -0.06250000000000000000 ) ) ;
#67 = DIRECTION ( 'NONE',  ( -1.000000000000000000, 0.000000000000000000, 0.000000000000000000 ) ) ;
#68 = PRESENTATION_LAYER_ASSIGNMENT (  '', '', ( #343 ) ) ;
#69 = ORIENTED_EDGE ( 'NONE', *, *, #140, .F. ) ;
#70 = VERTEX_POINT ( 'NONE', #162 ) ;
#71 = ORIENTED_EDGE ( 'NONE', *, *, #319, .T. ) ;
#72 = STYLED_ITEM ( 'NONE', ( #222 ), #255 ) ;
#73 = ORIENTED_EDGE ( 'NONE', *, *, #331, .T. ) ;
#74 =( LENGTH_UNIT ( ) NAMED_UNIT ( * ) SI_UNIT ( $, .METRE. ) );
#75 = EDGE_CURVE ( 'NONE', #117, #12, #280, .T. ) ;
#76 = CARTESIAN_POINT ( 'NONE',  ( 0.06250000000000000000, 0.5000000000000001110, 7.654042494670957545E-18 ) ) ;
#77 = APPLICATION_PROTOCOL_DEFINITION ( 'draft international standard', 'automotive_design', 1998, #35 ) ;
#78 =( NAMED_UNIT ( * ) SI_UNIT ( $, .STERADIAN. ) SOLID_ANGLE_UNIT ( ) );
#79 = DIRECTION ( 'NONE',  ( -0.000000000000000000, -1.000000000000000000, -0.000000000000000000 ) ) ;
#80 = APPLICATION_PROTOCOL_DEFINITION ( 'draft international standard', 'automotive_design', 1998, #201 ) ;
#81 = AXIS2_PLACEMENT_3D ( 'NONE', #245, #165, #309 ) ;
#82 = PRESENTATION_STYLE_ASSIGNMENT (( #296 ) ) ;
#83 = FACE_OUTER_BOUND ( 'NONE', #116, .T. ) ;
#84 = EDGE_CURVE ( 'NONE', #113, #70, #133, .T. ) ;
#85 = CARTESIAN_POINT ( 'NONE',  ( 0.000000000000000000, 0.5000000000000000000, 0.000000000000000000 ) ) ;
#86 = DIRECTION ( 'NONE',  ( 0.000000000000000000, 0.000000000000000000, -1.000000000000000000 ) ) ;
#87 = AXIS2_PLACEMENT_3D ( 'NONE', #328, #191, #215 ) ;
#88 = SURFACE_STYLE_USAGE ( .BOTH. , #164 ) ;
#89 = PRODUCT_RELATED_PRODUCT_CATEGORY ( 'part', '', ( #206 ) ) ;
#90 =( NAMED_UNIT ( * ) SI_UNIT ( $, .STERADIAN. ) SOLID_ANGLE_UNIT ( ) );
#91 = VECTOR ( 'NONE', #327, 39.37007874015748143 ) ;
#92 = EDGE_CURVE ( 'NONE', #64, #345, #200, .T. ) ;
#93 = DIRECTION ( 'NONE',  ( 0.000000000000000000, 1.000000000000000000, 0.000000000000000000 ) ) ;
#94 = ORIENTED_EDGE ( 'NONE', *, *, #319, .F. ) ;
#95 = AXIS2_PLACEMENT_3D ( 'NONE', #210, #273, #22 ) ;
#96 = AXIS2_PLACEMENT_3D ( 'NONE', #214, #188, #246 ) ;
#97 = CONICAL_SURFACE ( 'NONE', #29, 0.06250000000000000000, 0.2617993877991502405 ) ;
#98 = LINE ( 'NONE', #179, #28 ) ;
#99 = ORIENTED_EDGE ( 'NONE', *, *, #92, .F. ) ;
#100 = DIRECTION ( 'NONE',  ( -1.000000000000000000, 0.000000000000000000, 0.000000000000000000 ) ) ;
#101 = DIRECTION ( 'NONE',  ( 0.000000000000000000, 0.000000000000000000, -1.000000000000000000 ) ) ;
#102 = DIRECTION ( 'NONE',  ( -1.000000000000000000, 0.000000000000000000, 0.000000000000000000 ) ) ;
#103 = SURFACE_STYLE_FILL_AREA ( #351 ) ;
#104 = LINE ( 'NONE', #212, #91 ) ;
#105 = PRESENTATION_LAYER_ASSIGNMENT (  '', '', ( #336 ) ) ;
#106 = AXIS2_PLACEMENT_3D ( 'NONE', #158, #193, #167 ) ;
#107 = SURFACE_STYLE_FILL_AREA ( #277 ) ;
#108 = DIRECTION ( 'NONE',  ( -3.061616997868383018E-17, 1.000000000000000000, -0.000000000000000000 ) ) ;
#109 = SURFACE_SIDE_STYLE ('',( #169 ) ) ;
#110 = ADVANCED_BREP_SHAPE_REPRESENTATION ( '84093', ( #274, #46, #153 ), #224 ) ;
#111 =( GEOMETRIC_REPRESENTATION_CONTEXT ( 3 ) GLOBAL_UNCERTAINTY_ASSIGNED_CONTEXT ( ( #187 ) ) GLOBAL_UNIT_ASSIGNED_CONTEXT ( ( #155, #216, #348 ) ) REPRESENTATION_CONTEXT ( 'NONE', 'WORKASPACE' ) );
#112 = DIMENSIONAL_EXPONENTS ( 1.000000000000000000, 0.000000000000000000, 0.000000000000000000, 0.000000000000000000, 0.000000000000000000, 0.000000000000000000, 0.000000000000000000 ) ;
#113 = VERTEX_POINT ( 'NONE', #135 ) ;
#114 = UNCERTAINTY_MEASURE_WITH_UNIT (LENGTH_MEASURE( 1.000000000000000082E-05 ), #57, 'distance_accuracy_value', 'NONE');
#115 = LENGTH_MEASURE_WITH_UNIT ( LENGTH_MEASURE( 0.02539999999999999897 ), #137 );
#116 = EDGE_LOOP ( 'NONE', ( #73, #205, #99, #168 ) ) ;
#117 = VERTEX_POINT ( 'NONE', #241 ) ;
#118 = AXIS2_PLACEMENT_3D ( 'NONE', #85, #79, #238 ) ;
#119 = AXIS2_PLACEMENT_3D ( 'NONE', #272, #297, #150 ) ;
#120 = CARTESIAN_POINT ( 'NONE',  ( 0.000000000000000000, 0.5000000000000000000, 0.000000000000000000 ) ) ;
#121 = CARTESIAN_POINT ( 'NONE',  ( -7.141318868350792852E-18, 0.7332531754730542417, 0.000000000000000000 ) ) ;
#122 = DIRECTION ( 'NONE',  ( -0.000000000000000000, -1.000000000000000000, -0.000000000000000000 ) ) ;
#123 = AXIS2_PLACEMENT_3D ( 'NONE', #25, #55, #58 ) ;
#124 = CYLINDRICAL_SURFACE ( 'NONE', #316, 0.06250000000000000000 ) ;
#125 = FILL_AREA_STYLE_COLOUR ( '', #19 ) ;
#126 = FILL_AREA_STYLE_COLOUR ( '', #227 ) ;
#127 = CARTESIAN_POINT ( 'NONE',  ( -0.06250000000000000000, 0.5000000000000001110, 0.000000000000000000 ) ) ;
#128 = FACE_OUTER_BOUND ( 'NONE', #279, .T. ) ;
#129 = DIRECTION ( 'NONE',  ( -1.000000000000000000, -3.061616997868383018E-17, 0.000000000000000000 ) ) ;
#130 = CIRCLE ( 'NONE', #337, 0.1250000000000000555 ) ;
#131 = CARTESIAN_POINT ( 'NONE',  ( 0.000000000000000000, 0.000000000000000000, 0.000000000000000000 ) ) ;
#132 = PRODUCT_DEFINITION_FORMATION_WITH_SPECIFIED_SOURCE ( 'ANY', '', #206, .NOT_KNOWN. ) ;
#133 = LINE ( 'NONE', #76, #166 ) ;
#134 = LENGTH_MEASURE_WITH_UNIT ( LENGTH_MEASURE( 0.02539999999999999897 ), #186 );
#135 = CARTESIAN_POINT ( 'NONE',  ( 0.06250000000000000000, 0.5000000000000001110, 1.148106374200643555E-17 ) ) ;
#136 = CIRCLE ( 'NONE', #95, 0.1250000000000000278 ) ;
#137 =( LENGTH_UNIT ( ) NAMED_UNIT ( * ) SI_UNIT ( $, .METRE. ) );
#138 = CONICAL_SURFACE ( 'NONE', #123, 0.06250000000000000000, 0.2617993877991502405 ) ;
#139 = EDGE_LOOP ( 'NONE', ( #202, #34, #15, #250 ) ) ;
#140 = EDGE_CURVE ( 'NONE', #48, #113, #262, .T. ) ;
#141 = VERTEX_POINT ( 'NONE', #56 ) ;
#142 = ORIENTED_EDGE ( 'NONE', *, *, #84, .F. ) ;
#143 = ORIENTED_EDGE ( 'NONE', *, *, #51, .T. ) ;
#144 =( NAMED_UNIT ( * ) PLANE_ANGLE_UNIT ( ) SI_UNIT ( $, .RADIAN. ) );
#145 = SURFACE_STYLE_USAGE ( .BOTH. , #231 ) ;
#146 =( GEOMETRIC_REPRESENTATION_CONTEXT ( 3 ) GLOBAL_UNCERTAINTY_ASSIGNED_CONTEXT ( ( #10 ) ) GLOBAL_UNIT_ASSIGNED_CONTEXT ( ( #207, #144, #42 ) ) REPRESENTATION_CONTEXT ( 'NONE', 'WORKASPACE' ) );
#147 = VERTEX_POINT ( 'NONE', #178 ) ;
#148 = ORIENTED_EDGE ( 'NONE', *, *, #171, .T. ) ;
#149 = CARTESIAN_POINT ( 'NONE',  ( 0.1250000000000000000, 2.500000000000000000, 0.000000000000000000 ) ) ;
#150 = DIRECTION ( 'NONE',  ( -1.000000000000000000, 0.000000000000000000, 0.000000000000000000 ) ) ;
#151 = FACE_OUTER_BOUND ( 'NONE', #225, .T. ) ;
#152 = COLOUR_RGB ( '',1.000000000000000000, 0.000000000000000000, 0.000000000000000000 ) ;
#153 = AXIS2_PLACEMENT_3D ( 'NONE', #326, #30, #358 ) ;
#154 = DIRECTION ( 'NONE',  ( 1.000000000000000000, 3.061616997868383018E-17, 0.000000000000000000 ) ) ;
#155 =( CONVERSION_BASED_UNIT ( 'INCH', #235 ) LENGTH_UNIT ( ) NAMED_UNIT ( #251 ) );
#156 = UNCERTAINTY_MEASURE_WITH_UNIT (LENGTH_MEASURE( 1.000000000000000082E-05 ), #318, 'distance_accuracy_value', 'NONE');
#157 = FACE_OUTER_BOUND ( 'NONE', #139, .T. ) ;
#158 = CARTESIAN_POINT ( 'NONE',  ( -6.123233995736766036E-17, 2.500000000000000000, 0.000000000000000000 ) ) ;
#159 = CARTESIAN_POINT ( 'NONE',  ( 0.1250000000000000278, 2.500000000000000000, 1.530808498934192125E-17 ) ) ;
#160 = CARTESIAN_POINT ( 'NONE',  ( 2.929218325511440640E-35, 0.5000000000000000000, 0.000000000000000000 ) ) ;
#161 = DIMENSIONAL_EXPONENTS ( 1.000000000000000000, 0.000000000000000000, 0.000000000000000000, 0.000000000000000000, 0.000000000000000000, 0.000000000000000000, 0.000000000000000000 ) ;
#162 = CARTESIAN_POINT ( 'NONE',  ( 0.1250000000000000000, 0.7332531754730542417, 1.530808498934191509E-17 ) ) ;
#163 = DIRECTION ( 'NONE',  ( -3.061616997868383018E-17, 1.000000000000000000, -0.000000000000000000 ) ) ;
#164 = SURFACE_SIDE_STYLE ('',( #103 ) ) ;
#165 = DIRECTION ( 'NONE',  ( 0.000000000000000000, -1.000000000000000000, -0.000000000000000000 ) ) ;
#166 = VECTOR ( 'NONE', #180, 39.37007874015748143 ) ;
#167 = DIRECTION ( 'NONE',  ( -1.000000000000000000, 0.000000000000000000, 0.000000000000000000 ) ) ;
#168 = ORIENTED_EDGE ( 'NONE', *, *, #6, .F. ) ;
#169 = SURFACE_STYLE_FILL_AREA ( #282 ) ;
#170 = COLOUR_RGB ( '',1.000000000000000000, 0.000000000000000000, 0.000000000000000000 ) ;
#171 = EDGE_CURVE ( 'NONE', #12, #141, #294, .T. ) ;
#172 = PRESENTATION_LAYER_ASSIGNMENT (  '', '', ( #281 ) ) ;
#173 = FILL_AREA_STYLE_COLOUR ( '', #170 ) ;
#174 = EDGE_LOOP ( 'NONE', ( #321, #176 ) ) ;
#175 = EDGE_CURVE ( 'NONE', #48, #147, #104, .T. ) ;
#176 = ORIENTED_EDGE ( 'NONE', *, *, #51, .F. ) ;
#177 = PRESENTATION_STYLE_ASSIGNMENT (( #145 ) ) ;
#178 = CARTESIAN_POINT ( 'NONE',  ( -0.1250000000000000000, 0.7332531754730542417, 0.000000000000000000 ) ) ;
#179 = CARTESIAN_POINT ( 'NONE',  ( 0.1249999999999999584, 2.500000000000000000, 1.530808498934191817E-17 ) ) ;
#180 = DIRECTION ( 'NONE',  ( 0.2588190451025214611, 0.9659258262890679791, 3.169619151431774186E-17 ) ) ;
#181 = PRODUCT_DEFINITION ( 'UNKNOWN', '', #132, #185 ) ;
#182 = DIRECTION ( 'NONE',  ( -1.000000000000000000, 0.000000000000000000, 0.000000000000000000 ) ) ;
#183 = DIRECTION ( 'NONE',  ( -0.000000000000000000, -1.000000000000000000, -0.000000000000000000 ) ) ;
#184 = CYLINDRICAL_SURFACE ( 'NONE', #106, 0.1250000000000000278 ) ;
#185 = PRODUCT_DEFINITION_CONTEXT ( 'detailed design', #201, 'design' ) ;
#186 =( LENGTH_UNIT ( ) NAMED_UNIT ( * ) SI_UNIT ( $, .METRE. ) );
#187 = UNCERTAINTY_MEASURE_WITH_UNIT (LENGTH_MEASURE( 1.000000000000000082E-05 ), #155, 'distance_accuracy_value', 'NONE');
#188 = DIRECTION ( 'NONE',  ( -3.061616997868383018E-17, 1.000000000000000000, -0.000000000000000000 ) ) ;
#189 = ADVANCED_FACE ( 'NONE', ( #83 ), #184, .T. ) ;
#190 = PRESENTATION_STYLE_ASSIGNMENT (( #24 ) ) ;
#191 = DIRECTION ( 'NONE',  ( -0.000000000000000000, -1.000000000000000000, -0.000000000000000000 ) ) ;
#192 = AXIS2_PLACEMENT_3D ( 'NONE', #121, #350, #304 ) ;
#193 = DIRECTION ( 'NONE',  ( -3.061616997868383018E-17, 1.000000000000000000, -0.000000000000000000 ) ) ;
#194 = SURFACE_STYLE_FILL_AREA ( #286 ) ;
#195 = ORIENTED_EDGE ( 'NONE', *, *, #92, .T. ) ;
#196 =( NAMED_UNIT ( * ) PLANE_ANGLE_UNIT ( ) SI_UNIT ( $, .RADIAN. ) );
#197 = EDGE_CURVE ( 'NONE', #345, #64, #130, .T. ) ;
#198 =( NAMED_UNIT ( * ) PLANE_ANGLE_UNIT ( ) SI_UNIT ( $, .RADIAN. ) );
#199 = ADVANCED_FACE ( 'NONE', ( #341 ), #229, .T. ) ;
#200 = CIRCLE ( 'NONE', #119, 0.1250000000000000555 ) ;
#201 = APPLICATION_CONTEXT ( 'automotive_design' ) ;
#202 = ORIENTED_EDGE ( 'NONE', *, *, #140, .T. ) ;
#203 = DIRECTION ( 'NONE',  ( 0.000000000000000000, -0.000000000000000000, 1.000000000000000000 ) ) ;
#204 = ADVANCED_FACE ( 'NONE', ( #157 ), #138, .T. ) ;
#205 = ORIENTED_EDGE ( 'NONE', *, *, #240, .T. ) ;
#206 = PRODUCT ( '84093', '84093', '', ( #236 ) ) ;
#207 =( CONVERSION_BASED_UNIT ( 'INCH', #260 ) LENGTH_UNIT ( ) NAMED_UNIT ( #218 ) );
#208 =( GEOMETRIC_REPRESENTATION_CONTEXT ( 3 ) GLOBAL_UNCERTAINTY_ASSIGNED_CONTEXT ( ( #156 ) ) GLOBAL_UNIT_ASSIGNED_CONTEXT ( ( #318, #257, #339 ) ) REPRESENTATION_CONTEXT ( 'NONE', 'WORKASPACE' ) );
#209 = FACE_OUTER_BOUND ( 'NONE', #44, .T. ) ;
#210 = CARTESIAN_POINT ( 'NONE',  ( -7.141318868350792852E-18, 0.7332531754730542417, 0.000000000000000000 ) ) ;
#211 = SURFACE_STYLE_FILL_AREA ( #305 ) ;
#212 = CARTESIAN_POINT ( 'NONE',  ( -0.06250000000000000000, 0.5000000000000001110, 0.000000000000000000 ) ) ;
#213 = CIRCLE ( 'NONE', #192, 0.1250000000000000278 ) ;
#214 = CARTESIAN_POINT ( 'NONE',  ( 0.000000000000000000, 0.5000000000000001110, 0.000000000000000000 ) ) ;
#215 = DIRECTION ( 'NONE',  ( 0.000000000000000000, 0.000000000000000000, -1.000000000000000000 ) ) ;
#216 =( NAMED_UNIT ( * ) PLANE_ANGLE_UNIT ( ) SI_UNIT ( $, .RADIAN. ) );
#217 = SURFACE_STYLE_USAGE ( .BOTH. , #109 ) ;
#218 = DIMENSIONAL_EXPONENTS ( 1.000000000000000000, 0.000000000000000000, 0.000000000000000000, 0.000000000000000000, 0.000000000000000000, 0.000000000000000000, 0.000000000000000000 ) ;
#219 = ORIENTED_EDGE ( 'NONE', *, *, #75, .T. ) ;
#220 =( NAMED_UNIT ( * ) SI_UNIT ( $, .STERADIAN. ) SOLID_ANGLE_UNIT ( ) );
#221 = ADVANCED_FACE ( 'NONE', ( #359 ), #27, .F. ) ;
#222 = PRESENTATION_STYLE_ASSIGNMENT (( #88 ) ) ;
#223 = AXIS2_PLACEMENT_3D ( 'NONE', #149, #268, #154 ) ;
#224 =( GEOMETRIC_REPRESENTATION_CONTEXT ( 3 ) GLOBAL_UNCERTAINTY_ASSIGNED_CONTEXT ( ( #349 ) ) GLOBAL_UNIT_ASSIGNED_CONTEXT ( ( #302, #295, #354 ) ) REPRESENTATION_CONTEXT ( 'NONE', 'WORKASPACE' ) );
#225 = EDGE_LOOP ( 'NONE', ( #226, #261, #256, #347 ) ) ;
#226 = ORIENTED_EDGE ( 'NONE', *, *, #240, .F. ) ;
#227 = COLOUR_RGB ( '',1.000000000000000000, 0.000000000000000000, 0.000000000000000000 ) ;
#228 = PLANE ( 'NONE',  #40 ) ;
#229 = CYLINDRICAL_SURFACE ( 'NONE', #323, 0.06250000000000000000 ) ;
#230 = ORIENTED_EDGE ( 'NONE', *, *, #234, .F. ) ;
#231 = SURFACE_SIDE_STYLE ('',( #291 ) ) ;
#232 = DIRECTION ( 'NONE',  ( 0.000000000000000000, 0.000000000000000000, -1.000000000000000000 ) ) ;
#233 = CIRCLE ( 'NONE', #87, 0.06250000000000000000 ) ;
#234 = EDGE_CURVE ( 'NONE', #141, #324, #308, .T. ) ;
#235 = LENGTH_MEASURE_WITH_UNIT ( LENGTH_MEASURE( 0.02539999999999999897 ), #306 );
#236 = PRODUCT_CONTEXT ( 'NONE', #35, 'mechanical' ) ;
#237 = CARTESIAN_POINT ( 'NONE',  ( 0.000000000000000000, 0.000000000000000000, 0.000000000000000000 ) ) ;
#238 = DIRECTION ( 'NONE',  ( 0.000000000000000000, 0.000000000000000000, -1.000000000000000000 ) ) ;
#239 = DIRECTION ( 'NONE',  ( -3.061616997868383018E-17, 1.000000000000000000, -0.000000000000000000 ) ) ;
#240 = EDGE_CURVE ( 'NONE', #70, #345, #98, .T. ) ;
#241 = CARTESIAN_POINT ( 'NONE',  ( 0.000000000000000000, 0.5000000000000000000, -0.06250000000000000000 ) ) ;
#242 =( GEOMETRIC_REPRESENTATION_CONTEXT ( 3 ) GLOBAL_UNCERTAINTY_ASSIGNED_CONTEXT ( ( #299 ) ) GLOBAL_UNIT_ASSIGNED_CONTEXT ( ( #338, #196, #90 ) ) REPRESENTATION_CONTEXT ( 'NONE', 'WORKASPACE' ) );
#243 = SURFACE_SIDE_STYLE ('',( #211 ) ) ;
#244 = CARTESIAN_POINT ( 'NONE',  ( 7.654042494670957545E-18, 0.5000000000000000000, 0.06250000000000000000 ) ) ;
#245 = CARTESIAN_POINT ( 'NONE',  ( 0.000000000000000000, 0.000000000000000000, 0.000000000000000000 ) ) ;
#246 = DIRECTION ( 'NONE',  ( -1.000000000000000000, 0.000000000000000000, 0.000000000000000000 ) ) ;
#247 = COLOUR_RGB ( '',1.000000000000000000, 0.000000000000000000, 0.000000000000000000 ) ;
#248 = ADVANCED_FACE ( 'NONE', ( #209 ), #49, .F. ) ;
#249 = DIRECTION ( 'NONE',  ( 0.000000000000000000, 0.000000000000000000, -1.000000000000000000 ) ) ;
#250 = ORIENTED_EDGE ( 'NONE', *, *, #175, .F. ) ;
#251 = DIMENSIONAL_EXPONENTS ( 1.000000000000000000, 0.000000000000000000, 0.000000000000000000, 0.000000000000000000, 0.000000000000000000, 0.000000000000000000, 0.000000000000000000 ) ;
#252 = ORIENTED_EDGE ( 'NONE', *, *, #36, .F. ) ;
#253 = DIRECTION ( 'NONE',  ( -0.000000000000000000, -1.000000000000000000, -0.000000000000000000 ) ) ;
#254 = LENGTH_MEASURE_WITH_UNIT ( LENGTH_MEASURE( 0.02539999999999999897 ), #4 );
#255 = ADVANCED_FACE ( 'NONE', ( #20 ), #124, .T. ) ;
#256 = ORIENTED_EDGE ( 'NONE', *, *, #6, .T. ) ;
#257 =( NAMED_UNIT ( * ) PLANE_ANGLE_UNIT ( ) SI_UNIT ( $, .RADIAN. ) );
#258 = AXIS2_PLACEMENT_3D ( 'NONE', #269, #26, #102 ) ;
#259 = STYLED_ITEM ( 'NONE', ( #82 ), #199 ) ;
#260 = LENGTH_MEASURE_WITH_UNIT ( LENGTH_MEASURE( 0.02539999999999999897 ), #320 );
#261 = ORIENTED_EDGE ( 'NONE', *, *, #11, .T. ) ;
#262 = CIRCLE ( 'NONE', #96, 0.06250000000000000000 ) ;
#263 = EDGE_LOOP ( 'NONE', ( #342, #47 ) ) ;
#264 = ORIENTED_EDGE ( 'NONE', *, *, #11, .F. ) ;
#265 =( NAMED_UNIT ( * ) PLANE_ANGLE_UNIT ( ) SI_UNIT ( $, .RADIAN. ) );
#266 = ORIENTED_EDGE ( 'NONE', *, *, #36, .T. ) ;
#267 = ADVANCED_FACE ( 'NONE', ( #5 ), #310, .T. ) ;
#268 = DIRECTION ( 'NONE',  ( 3.061616997868383018E-17, -1.000000000000000000, 0.000000000000000000 ) ) ;
#269 = CARTESIAN_POINT ( 'NONE',  ( 0.000000000000000000, 0.5000000000000001110, 0.000000000000000000 ) ) ;
#270 = MECHANICAL_DESIGN_GEOMETRIC_PRESENTATION_REPRESENTATION (  '', ( #336 ), #146 ) ;
#271 = CARTESIAN_POINT ( 'NONE',  ( -0.1250000000000001110, 2.500000000000000000, 0.000000000000000000 ) ) ;
#272 = CARTESIAN_POINT ( 'NONE',  ( -6.123233995736766036E-17, 2.500000000000000000, 0.000000000000000000 ) ) ;
#273 = DIRECTION ( 'NONE',  ( -3.061616997868383018E-17, 1.000000000000000000, -0.000000000000000000 ) ) ;
#274 = MANIFOLD_SOLID_BREP ( 'Revolve - Cutting Edge', #312 ) ;
#275 = MECHANICAL_DESIGN_GEOMETRIC_PRESENTATION_REPRESENTATION (  '', ( #72 ), #45 ) ;
#276 = FILL_AREA_STYLE_COLOUR ( '', #152 ) ;
#277 = FILL_AREA_STYLE ('',( #125 ) ) ;
#278 =( CONVERSION_BASED_UNIT ( 'INCH', #63 ) LENGTH_UNIT ( ) NAMED_UNIT ( #112 ) );
#279 = EDGE_LOOP ( 'NONE', ( #142, #266, #16, #264 ) ) ;
#280 = CIRCLE ( 'NONE', #118, 0.06250000000000000000 ) ;
#281 = STYLED_ITEM ( 'NONE', ( #332 ), #274 ) ;
#282 = FILL_AREA_STYLE ('',( #311 ) ) ;
#283 = ORIENTED_EDGE ( 'NONE', *, *, #197, .T. ) ;
#284 = DIMENSIONAL_EXPONENTS ( 1.000000000000000000, 0.000000000000000000, 0.000000000000000000, 0.000000000000000000, 0.000000000000000000, 0.000000000000000000, 0.000000000000000000 ) ;
#285 = PRODUCT_DEFINITION_SHAPE ( 'NONE', 'NONE',  #181 ) ;
#286 = FILL_AREA_STYLE ('',( #276 ) ) ;
#287 = AXIS2_PLACEMENT_3D ( 'NONE', #160, #17, #129 ) ;
#288 = EDGE_LOOP ( 'NONE', ( #43, #143, #71, #230 ) ) ;
#289 = EDGE_LOOP ( 'NONE', ( #219, #148, #37, #94 ) ) ;
#290 = LINE ( 'NONE', #271, #322 ) ;
#291 = SURFACE_STYLE_FILL_AREA ( #18 ) ;
#292 = FACE_OUTER_BOUND ( 'NONE', #174, .T. ) ;
#293 = FILL_AREA_STYLE_COLOUR ( '', #247 ) ;
#294 = LINE ( 'NONE', #50, #54 ) ;
#295 =( NAMED_UNIT ( * ) PLANE_ANGLE_UNIT ( ) SI_UNIT ( $, .RADIAN. ) );
#296 = SURFACE_STYLE_USAGE ( .BOTH. , #243 ) ;
#297 = DIRECTION ( 'NONE',  ( -3.061616997868383018E-17, 1.000000000000000000, -0.000000000000000000 ) ) ;
#298 = PRESENTATION_LAYER_ASSIGNMENT (  '', '', ( #259 ) ) ;
#299 = UNCERTAINTY_MEASURE_WITH_UNIT (LENGTH_MEASURE( 1.000000000000000082E-05 ), #338, 'distance_accuracy_value', 'NONE');
#300 = SHAPE_DEFINITION_REPRESENTATION ( #285, #110 ) ;
#301 = LENGTH_MEASURE_WITH_UNIT ( LENGTH_MEASURE( 0.02539999999999999897 ), #74 );
#302 =( CONVERSION_BASED_UNIT ( 'INCH', #134 ) LENGTH_UNIT ( ) NAMED_UNIT ( #161 ) );
#303 = DIRECTION ( 'NONE',  ( -0.000000000000000000, -1.000000000000000000, -0.000000000000000000 ) ) ;
#304 = DIRECTION ( 'NONE',  ( -1.000000000000000000, 0.000000000000000000, 0.000000000000000000 ) ) ;
#305 = FILL_AREA_STYLE ('',( #293 ) ) ;
#306 =( LENGTH_UNIT ( ) NAMED_UNIT ( * ) SI_UNIT ( $, .METRE. ) );
#307 = CARTESIAN_POINT ( 'NONE',  ( 0.000000000000000000, 0.5000000000000001110, 0.000000000000000000 ) ) ;
#308 = CIRCLE ( 'NONE', #357, 0.06250000000000000000 ) ;
#309 = DIRECTION ( 'NONE',  ( 0.000000000000000000, 0.000000000000000000, -1.000000000000000000 ) ) ;
#310 = PLANE ( 'NONE',  #81 ) ;
#311 = FILL_AREA_STYLE_COLOUR ( '', #61 ) ;
#312 = CLOSED_SHELL ( 'NONE', ( #199, #2, #255, #267 ) ) ;
#313 =( GEOMETRIC_REPRESENTATION_CONTEXT ( 3 ) GLOBAL_UNCERTAINTY_ASSIGNED_CONTEXT ( ( #114 ) ) GLOBAL_UNIT_ASSIGNED_CONTEXT ( ( #57, #265, #78 ) ) REPRESENTATION_CONTEXT ( 'NONE', 'WORKASPACE' ) );
#314 = SURFACE_SIDE_STYLE ('',( #194 ) ) ;
#315 = EDGE_LOOP ( 'NONE', ( #69, #252 ) ) ;
#316 = AXIS2_PLACEMENT_3D ( 'NONE', #32, #253, #249 ) ;
#317 = MECHANICAL_DESIGN_GEOMETRIC_PRESENTATION_REPRESENTATION (  '', ( #259 ), #313 ) ;
#318 =( CONVERSION_BASED_UNIT ( 'INCH', #254 ) LENGTH_UNIT ( ) NAMED_UNIT ( #330 ) );
#319 = EDGE_CURVE ( 'NONE', #117, #324, #3, .T. ) ;
#320 =( LENGTH_UNIT ( ) NAMED_UNIT ( * ) SI_UNIT ( $, .METRE. ) );
#321 = ORIENTED_EDGE ( 'NONE', *, *, #75, .F. ) ;
#322 = VECTOR ( 'NONE', #59, 39.37007874015748143 ) ;
#323 = AXIS2_PLACEMENT_3D ( 'NONE', #237, #303, #101 ) ;
#324 = VERTEX_POINT ( 'NONE', #8 ) ;
#325 = CARTESIAN_POINT ( 'NONE',  ( -0.1250000000000001388, 2.500000000000000000, 0.000000000000000000 ) ) ;
#326 = CARTESIAN_POINT ( 'NONE',  ( 0.000000000000000000, 0.000000000000000000, 0.000000000000000000 ) ) ;
#327 = DIRECTION ( 'NONE',  ( -0.2588190451025215721, 0.9659258262890679791, 0.000000000000000000 ) ) ;
#328 = CARTESIAN_POINT ( 'NONE',  ( 0.000000000000000000, 0.000000000000000000, 0.000000000000000000 ) ) ;
#329 = DIRECTION ( 'NONE',  ( -0.000000000000000000, -1.000000000000000000, -0.000000000000000000 ) ) ;
#330 = DIMENSIONAL_EXPONENTS ( 1.000000000000000000, 0.000000000000000000, 0.000000000000000000, 0.000000000000000000, 0.000000000000000000, 0.000000000000000000, 0.000000000000000000 ) ;
#331 = EDGE_CURVE ( 'NONE', #147, #70, #213, .T. ) ;
#332 = PRESENTATION_STYLE_ASSIGNMENT (( #217 ) ) ;
#333 = PRESENTATION_LAYER_ASSIGNMENT (  '', '', ( #344 ) ) ;
#334 = UNCERTAINTY_MEASURE_WITH_UNIT (LENGTH_MEASURE( 1.000000000000000082E-05 ), #278, 'distance_accuracy_value', 'NONE');
#335 = ADVANCED_FACE ( 'NONE', ( #151 ), #23, .T. ) ;
#336 = STYLED_ITEM ( 'NONE', ( #177 ), #2 ) ;
#337 = AXIS2_PLACEMENT_3D ( 'NONE', #65, #39, #67 ) ;
#338 =( CONVERSION_BASED_UNIT ( 'INCH', #115 ) LENGTH_UNIT ( ) NAMED_UNIT ( #62 ) );
#339 =( NAMED_UNIT ( * ) SI_UNIT ( $, .STERADIAN. ) SOLID_ANGLE_UNIT ( ) );
#340 = EDGE_CURVE ( 'NONE', #324, #141, #233, .T. ) ;
#341 = FACE_OUTER_BOUND ( 'NONE', #289, .T. ) ;
#342 = ORIENTED_EDGE ( 'NONE', *, *, #340, .T. ) ;
#343 = STYLED_ITEM ( 'NONE', ( #190 ), #46 ) ;
#344 = STYLED_ITEM ( 'NONE', ( #31 ), #267 ) ;
#345 = VERTEX_POINT ( 'NONE', #159 ) ;
#346 = PRESENTATION_LAYER_ASSIGNMENT (  '', '', ( #72 ) ) ;
#347 = ORIENTED_EDGE ( 'NONE', *, *, #197, .F. ) ;
#348 =( NAMED_UNIT ( * ) SI_UNIT ( $, .STERADIAN. ) SOLID_ANGLE_UNIT ( ) );
#349 = UNCERTAINTY_MEASURE_WITH_UNIT (LENGTH_MEASURE( 1.000000000000000082E-05 ), #302, 'distance_accuracy_value', 'NONE');
#350 = DIRECTION ( 'NONE',  ( -3.061616997868383018E-17, 1.000000000000000000, -0.000000000000000000 ) ) ;
#351 = FILL_AREA_STYLE ('',( #126 ) ) ;
#352 = ADVANCED_FACE ( 'NONE', ( #128 ), #97, .T. ) ;
#353 = DIRECTION ( 'NONE',  ( -0.000000000000000000, -1.000000000000000000, -0.000000000000000000 ) ) ;
#354 =( NAMED_UNIT ( * ) SI_UNIT ( $, .STERADIAN. ) SOLID_ANGLE_UNIT ( ) );
#355 = MECHANICAL_DESIGN_GEOMETRIC_PRESENTATION_REPRESENTATION (  '', ( #343 ), #111 ) ;
#356 = SURFACE_SIDE_STYLE ('',( #107 ) ) ;
#357 = AXIS2_PLACEMENT_3D ( 'NONE', #131, #122, #232 ) ;
#358 = DIRECTION ( 'NONE',  ( 1.000000000000000000, 0.000000000000000000, 0.000000000000000000 ) ) ;
#359 = FACE_OUTER_BOUND ( 'NONE', #315, .T. ) ;
ENDSEC;
END-ISO-10303-21;
