ISO-10303-21;
HEADER;
FILE_DESCRIPTION (( 'STEP AP214' ),
    '1' );
FILE_NAME ('00390.STEP',
    '2023-06-22T14:07:23',
    ( '' ),
    ( '' ),
    'SwSTEP 2.0',
    'SolidWorks 2023',
    '' );
FILE_SCHEMA (( 'AUTOMOTIVE_DESIGN' ));
ENDSEC;

DATA;
#1 = PRESENTATION_LAYER_ASSIGNMENT (  '', '', ( #132 ) ) ;
#2 =( CONVERSION_BASED_UNIT ( 'INCH', #238 ) LENGTH_UNIT ( ) NAMED_UNIT ( #120 ) );
#3 = SURFACE_STYLE_FILL_AREA ( #23 ) ;
#4 = AXIS2_PLACEMENT_3D ( 'NONE', #122, #168, #264 ) ;
#5 = PLANE ( 'NONE',  #4 ) ;
#6 = LENGTH_MEASURE_WITH_UNIT ( LENGTH_MEASURE( 0.02539999999999999897 ), #71 );
#7 = ORIENTED_EDGE ( 'NONE', *, *, #178, .T. ) ;
#8 =( NAMED_UNIT ( * ) PLANE_ANGLE_UNIT ( ) SI_UNIT ( $, .RADIAN. ) );
#9 =( GEOMETRIC_REPRESENTATION_CONTEXT ( 3 ) GLOBAL_UNCERTAINTY_ASSIGNED_CONTEXT ( ( #27 ) ) GLOBAL_UNIT_ASSIGNED_CONTEXT ( ( #50, #236, #74 ) ) REPRESENTATION_CONTEXT ( 'NONE', 'WORKASPACE' ) );
#10 =( LENGTH_UNIT ( ) NAMED_UNIT ( * ) SI_UNIT ( $, .METRE. ) );
#11 = ORIENTED_EDGE ( 'NONE', *, *, #80, .T. ) ;
#12 = VECTOR ( 'NONE', #184, 39.37007874015748143 ) ;
#13 = CARTESIAN_POINT ( 'NONE',  ( 2.296212748401287726E-17, 0.000000000000000000, 0.1875000000000000278 ) ) ;
#14 = DIRECTION ( 'NONE',  ( -1.000000000000000000, 0.000000000000000000, 0.000000000000000000 ) ) ;
#15 = MECHANICAL_DESIGN_GEOMETRIC_PRESENTATION_REPRESENTATION (  '', ( #97 ), #301 ) ;
#16 = DIRECTION ( 'NONE',  ( -1.000000000000000000, 0.000000000000000000, 0.000000000000000000 ) ) ;
#17 = ADVANCED_FACE ( 'NONE', ( #216 ), #28, .T. ) ;
#18 =( NAMED_UNIT ( * ) SI_UNIT ( $, .STERADIAN. ) SOLID_ANGLE_UNIT ( ) );
#19 = AXIS2_PLACEMENT_3D ( 'NONE', #177, #276, #16 ) ;
#20 = ORIENTED_EDGE ( 'NONE', *, *, #38, .T. ) ;
#21 = DIRECTION ( 'NONE',  ( 0.000000000000000000, 0.000000000000000000, -1.000000000000000000 ) ) ;
#22 = CIRCLE ( 'NONE', #158, 0.1875000000000000278 ) ;
#23 = FILL_AREA_STYLE ('',( #72 ) ) ;
#24 = DIMENSIONAL_EXPONENTS ( 1.000000000000000000, 0.000000000000000000, 0.000000000000000000, 0.000000000000000000, 0.000000000000000000, 0.000000000000000000, 0.000000000000000000 ) ;
#25 = PRODUCT_CONTEXT ( 'NONE', #143, 'mechanical' ) ;
#26 = LENGTH_MEASURE_WITH_UNIT ( LENGTH_MEASURE( 0.02539999999999999897 ), #47 );
#27 = UNCERTAINTY_MEASURE_WITH_UNIT (LENGTH_MEASURE( 1.000000000000000082E-05 ), #50, 'distance_accuracy_value', 'NONE');
#28 = PLANE ( 'NONE',  #284 ) ;
#29 = VERTEX_POINT ( 'NONE', #165 ) ;
#30 = DIRECTION ( 'NONE',  ( 0.000000000000000000, 0.000000000000000000, -1.000000000000000000 ) ) ;
#31 = VERTEX_POINT ( 'NONE', #261 ) ;
#32 = UNCERTAINTY_MEASURE_WITH_UNIT (LENGTH_MEASURE( 1.000000000000000082E-05 ), #296, 'distance_accuracy_value', 'NONE');
#33 = DIRECTION ( 'NONE',  ( 3.061616997868383018E-17, -1.000000000000000000, 0.000000000000000000 ) ) ;
#34 = DIRECTION ( 'NONE',  ( -3.061616997868383018E-17, 1.000000000000000000, -0.000000000000000000 ) ) ;
#35 =( NAMED_UNIT ( * ) SI_UNIT ( $, .STERADIAN. ) SOLID_ANGLE_UNIT ( ) );
#36 = STYLED_ITEM ( 'NONE', ( #279 ), #252 ) ;
#37 = LINE ( 'NONE', #13, #229 ) ;
#38 = EDGE_CURVE ( 'NONE', #262, #31, #179, .T. ) ;
#39 = CARTESIAN_POINT ( 'NONE',  ( 0.000000000000000000, 0.000000000000000000, -0.1875000000000000278 ) ) ;
#40 = CIRCLE ( 'NONE', #200, 0.1875000000000000278 ) ;
#41 = ADVANCED_BREP_SHAPE_REPRESENTATION ( '00390', ( #196, #110, #199 ), #227 ) ;
#42 = ADVANCED_FACE ( 'NONE', ( #259 ), #188, .T. ) ;
#43 =( NAMED_UNIT ( * ) SI_UNIT ( $, .STERADIAN. ) SOLID_ANGLE_UNIT ( ) );
#44 = AXIS2_PLACEMENT_3D ( 'NONE', #164, #257, #125 ) ;
#45 = CARTESIAN_POINT ( 'NONE',  ( 0.000000000000000000, 0.000000000000000000, 0.000000000000000000 ) ) ;
#46 =( CONVERSION_BASED_UNIT ( 'INCH', #78 ) LENGTH_UNIT ( ) NAMED_UNIT ( #275 ) );
#47 =( LENGTH_UNIT ( ) NAMED_UNIT ( * ) SI_UNIT ( $, .METRE. ) );
#48 = CIRCLE ( 'NONE', #189, 0.1875000000000000278 ) ;
#49 = CARTESIAN_POINT ( 'NONE',  ( 0.000000000000000000, 2.000000000000000000, 0.000000000000000000 ) ) ;
#50 =( CONVERSION_BASED_UNIT ( 'INCH', #6 ) LENGTH_UNIT ( ) NAMED_UNIT ( #221 ) );
#51 = ORIENTED_EDGE ( 'NONE', *, *, #204, .T. ) ;
#52 = APPLICATION_PROTOCOL_DEFINITION ( 'draft international standard', 'automotive_design', 1998, #143 ) ;
#53 = ORIENTED_EDGE ( 'NONE', *, *, #269, .F. ) ;
#54 = PRESENTATION_LAYER_ASSIGNMENT (  '', '', ( #255 ) ) ;
#55 =( NAMED_UNIT ( * ) PLANE_ANGLE_UNIT ( ) SI_UNIT ( $, .RADIAN. ) );
#56 = PLANE ( 'NONE',  #84 ) ;
#57 = CIRCLE ( 'NONE', #233, 0.1875000000000000278 ) ;
#58 = PRODUCT ( '00390', '00390', '', ( #25 ) ) ;
#59 = SURFACE_STYLE_FILL_AREA ( #180 ) ;
#60 = DIRECTION ( 'NONE',  ( -1.000000000000000000, 0.000000000000000000, 0.000000000000000000 ) ) ;
#61 = ORIENTED_EDGE ( 'NONE', *, *, #248, .F. ) ;
#62 = AXIS2_PLACEMENT_3D ( 'NONE', #90, #88, #60 ) ;
#63 = CYLINDRICAL_SURFACE ( 'NONE', #62, 0.1875000000000000555 ) ;
#64 = ORIENTED_EDGE ( 'NONE', *, *, #230, .F. ) ;
#65 = LINE ( 'NONE', #159, #272 ) ;
#66 = ORIENTED_EDGE ( 'NONE', *, *, #248, .T. ) ;
#67 = ADVANCED_FACE ( 'NONE', ( #107 ), #56, .F. ) ;
#68 = DIMENSIONAL_EXPONENTS ( 1.000000000000000000, 0.000000000000000000, 0.000000000000000000, 0.000000000000000000, 0.000000000000000000, 0.000000000000000000, 0.000000000000000000 ) ;
#69 = MECHANICAL_DESIGN_GEOMETRIC_PRESENTATION_REPRESENTATION (  '', ( #118 ), #128 ) ;
#70 = DIRECTION ( 'NONE',  ( 0.000000000000000000, 0.000000000000000000, 1.000000000000000000 ) ) ;
#71 =( LENGTH_UNIT ( ) NAMED_UNIT ( * ) SI_UNIT ( $, .METRE. ) );
#72 = FILL_AREA_STYLE_COLOUR ( '', #173 ) ;
#73 = CARTESIAN_POINT ( 'NONE',  ( 0.000000000000000000, 0.000000000000000000, 0.000000000000000000 ) ) ;
#74 =( NAMED_UNIT ( * ) SI_UNIT ( $, .STERADIAN. ) SOLID_ANGLE_UNIT ( ) );
#75 = ORIENTED_EDGE ( 'NONE', *, *, #38, .F. ) ;
#76 = MECHANICAL_DESIGN_GEOMETRIC_PRESENTATION_REPRESENTATION (  '', ( #255 ), #151 ) ;
#77 = ORIENTED_EDGE ( 'NONE', *, *, #100, .F. ) ;
#78 = LENGTH_MEASURE_WITH_UNIT ( LENGTH_MEASURE( 0.02539999999999999897 ), #10 );
#79 = VERTEX_POINT ( 'NONE', #156 ) ;
#80 = EDGE_CURVE ( 'NONE', #254, #29, #37, .T. ) ;
#81 = CARTESIAN_POINT ( 'NONE',  ( 0.1875000000000000278, 4.000000000000000000, 0.000000000000000000 ) ) ;
#82 = DIRECTION ( 'NONE',  ( -1.000000000000000000, 0.000000000000000000, 0.000000000000000000 ) ) ;
#83 = FILL_AREA_STYLE ('',( #175 ) ) ;
#84 = AXIS2_PLACEMENT_3D ( 'NONE', #81, #33, #303 ) ;
#85 = FILL_AREA_STYLE_COLOUR ( '', #112 ) ;
#86 = COLOUR_RGB ( '',1.000000000000000000, 0.000000000000000000, 0.000000000000000000 ) ;
#87 =( GEOMETRIC_REPRESENTATION_CONTEXT ( 3 ) GLOBAL_UNCERTAINTY_ASSIGNED_CONTEXT ( ( #148 ) ) GLOBAL_UNIT_ASSIGNED_CONTEXT ( ( #2, #8, #288 ) ) REPRESENTATION_CONTEXT ( 'NONE', 'WORKASPACE' ) );
#88 = DIRECTION ( 'NONE',  ( -3.061616997868383018E-17, 1.000000000000000000, -0.000000000000000000 ) ) ;
#89 = VERTEX_POINT ( 'NONE', #153 ) ;
#90 = CARTESIAN_POINT ( 'NONE',  ( -6.123233995736766036E-17, 4.000000000000000000, 0.000000000000000000 ) ) ;
#91 = FACE_OUTER_BOUND ( 'NONE', #237, .T. ) ;
#92 = COLOUR_RGB ( '',1.000000000000000000, 0.000000000000000000, 0.000000000000000000 ) ;
#93 = DIRECTION ( 'NONE',  ( 0.000000000000000000, 1.000000000000000000, 0.000000000000000000 ) ) ;
#94 = EDGE_CURVE ( 'NONE', #144, #79, #40, .T. ) ;
#95 = FILL_AREA_STYLE_COLOUR ( '', #92 ) ;
#96 = DIRECTION ( 'NONE',  ( 0.000000000000000000, 0.000000000000000000, -1.000000000000000000 ) ) ;
#97 = STYLED_ITEM ( 'NONE', ( #134 ), #196 ) ;
#98 = EDGE_LOOP ( 'NONE', ( #66, #103 ) ) ;
#99 = SURFACE_SIDE_STYLE ('',( #3 ) ) ;
#100 = EDGE_CURVE ( 'NONE', #79, #144, #48, .T. ) ;
#101 = UNCERTAINTY_MEASURE_WITH_UNIT (LENGTH_MEASURE( 1.000000000000000082E-05 ), #176, 'distance_accuracy_value', 'NONE');
#102 = CARTESIAN_POINT ( 'NONE',  ( 0.000000000000000000, 0.000000000000000000, 0.000000000000000000 ) ) ;
#103 = ORIENTED_EDGE ( 'NONE', *, *, #206, .T. ) ;
#104 = PRODUCT_DEFINITION_FORMATION_WITH_SPECIFIED_SOURCE ( 'ANY', '', #58, .NOT_KNOWN. ) ;
#105 = PRESENTATION_STYLE_ASSIGNMENT (( #187 ) ) ;
#106 = EDGE_CURVE ( 'NONE', #254, #89, #57, .T. ) ;
#107 = FACE_OUTER_BOUND ( 'NONE', #260, .T. ) ;
#108 = DIRECTION ( 'NONE',  ( -1.000000000000000000, 0.000000000000000000, 0.000000000000000000 ) ) ;
#109 = SURFACE_SIDE_STYLE ('',( #273 ) ) ;
#110 = MANIFOLD_SOLID_BREP ( 'Revolve - Tool Body (Straight Shanked)', #267 ) ;
#111 = PRESENTATION_STYLE_ASSIGNMENT (( #271 ) ) ;
#112 = COLOUR_RGB ( '',0.7921568627450980005, 0.8196078431372548767, 0.9333333333333333481 ) ;
#113 = FACE_OUTER_BOUND ( 'NONE', #124, .T. ) ;
#114 = DIRECTION ( 'NONE',  ( -0.000000000000000000, -1.000000000000000000, -0.000000000000000000 ) ) ;
#115 = DIRECTION ( 'NONE',  ( -0.000000000000000000, -1.000000000000000000, -0.000000000000000000 ) ) ;
#116 = CARTESIAN_POINT ( 'NONE',  ( 2.296212748401287726E-17, 2.000000000000000000, 0.1875000000000000278 ) ) ;
#117 = CARTESIAN_POINT ( 'NONE',  ( 0.1874999999999999722, 4.000000000000000000, 2.296212748401288034E-17 ) ) ;
#118 = STYLED_ITEM ( 'NONE', ( #111 ), #110 ) ;
#119 = LINE ( 'NONE', #117, #12 ) ;
#120 = DIMENSIONAL_EXPONENTS ( 1.000000000000000000, 0.000000000000000000, 0.000000000000000000, 0.000000000000000000, 0.000000000000000000, 0.000000000000000000, 0.000000000000000000 ) ;
#121 = APPLICATION_CONTEXT ( 'automotive_design' ) ;
#122 = CARTESIAN_POINT ( 'NONE',  ( 8.787654976534324059E-35, 2.000000000000000000, 0.000000000000000000 ) ) ;
#123 = FILL_AREA_STYLE_COLOUR ( '', #86 ) ;
#124 = EDGE_LOOP ( 'NONE', ( #241, #232, #75, #297 ) ) ;
#125 = DIRECTION ( 'NONE',  ( -1.000000000000000000, 0.000000000000000000, 0.000000000000000000 ) ) ;
#126 = EDGE_LOOP ( 'NONE', ( #266, #11, #61, #53 ) ) ;
#127 = DIMENSIONAL_EXPONENTS ( 1.000000000000000000, 0.000000000000000000, 0.000000000000000000, 0.000000000000000000, 0.000000000000000000, 0.000000000000000000, 0.000000000000000000 ) ;
#128 =( GEOMETRIC_REPRESENTATION_CONTEXT ( 3 ) GLOBAL_UNCERTAINTY_ASSIGNED_CONTEXT ( ( #101 ) ) GLOBAL_UNIT_ASSIGNED_CONTEXT ( ( #176, #55, #35 ) ) REPRESENTATION_CONTEXT ( 'NONE', 'WORKASPACE' ) );
#129 = CARTESIAN_POINT ( 'NONE',  ( -6.123233995736766036E-17, 4.000000000000000000, 0.000000000000000000 ) ) ;
#130 = ORIENTED_EDGE ( 'NONE', *, *, #94, .F. ) ;
#131 = CARTESIAN_POINT ( 'NONE',  ( 0.000000000000000000, 2.000000000000000000, 0.000000000000000000 ) ) ;
#132 = STYLED_ITEM ( 'NONE', ( #105 ), #302 ) ;
#133 = SURFACE_STYLE_FILL_AREA ( #299 ) ;
#134 = PRESENTATION_STYLE_ASSIGNMENT (( #246 ) ) ;
#135 = ORIENTED_EDGE ( 'NONE', *, *, #206, .F. ) ;
#136 =( LENGTH_UNIT ( ) NAMED_UNIT ( * ) SI_UNIT ( $, .METRE. ) );
#137 = CARTESIAN_POINT ( 'NONE',  ( 0.000000000000000000, 2.000000000000000000, 0.000000000000000000 ) ) ;
#138 =( NAMED_UNIT ( * ) PLANE_ANGLE_UNIT ( ) SI_UNIT ( $, .RADIAN. ) );
#139 = MECHANICAL_DESIGN_GEOMETRIC_PRESENTATION_REPRESENTATION (  '', ( #225 ), #9 ) ;
#140 = VECTOR ( 'NONE', #282, 39.37007874015748143 ) ;
#141 = DIRECTION ( 'NONE',  ( -0.000000000000000000, -1.000000000000000000, -0.000000000000000000 ) ) ;
#142 = COLOUR_RGB ( '',1.000000000000000000, 0.000000000000000000, 0.000000000000000000 ) ;
#143 = APPLICATION_CONTEXT ( 'automotive_design' ) ;
#144 = VERTEX_POINT ( 'NONE', #304 ) ;
#145 = AXIS2_PLACEMENT_3D ( 'NONE', #45, #141, #223 ) ;
#146 = ORIENTED_EDGE ( 'NONE', *, *, #178, .F. ) ;
#147 = PRESENTATION_STYLE_ASSIGNMENT (( #265 ) ) ;
#148 = UNCERTAINTY_MEASURE_WITH_UNIT (LENGTH_MEASURE( 1.000000000000000082E-05 ), #2, 'distance_accuracy_value', 'NONE');
#149 = SURFACE_SIDE_STYLE ('',( #214 ) ) ;
#150 = ORIENTED_EDGE ( 'NONE', *, *, #306, .F. ) ;
#151 =( GEOMETRIC_REPRESENTATION_CONTEXT ( 3 ) GLOBAL_UNCERTAINTY_ASSIGNED_CONTEXT ( ( #211 ) ) GLOBAL_UNIT_ASSIGNED_CONTEXT ( ( #46, #270, #287 ) ) REPRESENTATION_CONTEXT ( 'NONE', 'WORKASPACE' ) );
#152 = LENGTH_MEASURE_WITH_UNIT ( LENGTH_MEASURE( 0.02539999999999999897 ), #278 );
#153 = CARTESIAN_POINT ( 'NONE',  ( 0.000000000000000000, 2.000000000000000000, -0.1875000000000000278 ) ) ;
#154 = ADVANCED_FACE ( 'NONE', ( #113 ), #197, .T. ) ;
#155 = CIRCLE ( 'NONE', #19, 0.1875000000000000833 ) ;
#156 = CARTESIAN_POINT ( 'NONE',  ( 0.1875000000000000278, 2.000000000000000000, 2.296212748401288342E-17 ) ) ;
#157 = SURFACE_SIDE_STYLE ('',( #59 ) ) ;
#158 = AXIS2_PLACEMENT_3D ( 'NONE', #193, #115, #21 ) ;
#159 = CARTESIAN_POINT ( 'NONE',  ( 0.000000000000000000, 0.000000000000000000, -0.1875000000000000278 ) ) ;
#160 = LENGTH_MEASURE_WITH_UNIT ( LENGTH_MEASURE( 0.02539999999999999897 ), #202 );
#161 = PRESENTATION_LAYER_ASSIGNMENT (  '', '', ( #36 ) ) ;
#162 = DIRECTION ( 'NONE',  ( 1.000000000000000000, 0.000000000000000000, 0.000000000000000000 ) ) ;
#163 = DIRECTION ( 'NONE',  ( 0.000000000000000000, 0.000000000000000000, -1.000000000000000000 ) ) ;
#164 = CARTESIAN_POINT ( 'NONE',  ( -6.123233995736766036E-17, 4.000000000000000000, 0.000000000000000000 ) ) ;
#165 = CARTESIAN_POINT ( 'NONE',  ( 2.296212748401287726E-17, 0.000000000000000000, 0.1875000000000000278 ) ) ;
#166 = CIRCLE ( 'NONE', #207, 0.1875000000000000278 ) ;
#167 = MECHANICAL_DESIGN_GEOMETRIC_PRESENTATION_REPRESENTATION (  '', ( #132 ), #87 ) ;
#168 = DIRECTION ( 'NONE',  ( -3.061616997868383018E-17, 1.000000000000000000, 0.000000000000000000 ) ) ;
#169 = EDGE_LOOP ( 'NONE', ( #213, #215, #289, #135 ) ) ;
#170 =( NAMED_UNIT ( * ) PLANE_ANGLE_UNIT ( ) SI_UNIT ( $, .RADIAN. ) );
#171 = CARTESIAN_POINT ( 'NONE',  ( 0.000000000000000000, 2.000000000000000000, 0.000000000000000000 ) ) ;
#172 = PRESENTATION_LAYER_ASSIGNMENT (  '', '', ( #225 ) ) ;
#173 = COLOUR_RGB ( '',1.000000000000000000, 0.000000000000000000, 0.000000000000000000 ) ;
#174 = SURFACE_SIDE_STYLE ('',( #133 ) ) ;
#175 = FILL_AREA_STYLE_COLOUR ( '', #142 ) ;
#176 =( CONVERSION_BASED_UNIT ( 'INCH', #152 ) LENGTH_UNIT ( ) NAMED_UNIT ( #293 ) );
#177 = CARTESIAN_POINT ( 'NONE',  ( -6.123233995736766036E-17, 4.000000000000000000, 0.000000000000000000 ) ) ;
#178 = EDGE_CURVE ( 'NONE', #31, #262, #155, .T. ) ;
#179 = CIRCLE ( 'NONE', #44, 0.1875000000000000833 ) ;
#180 = FILL_AREA_STYLE ('',( #85 ) ) ;
#181 =( CONVERSION_BASED_UNIT ( 'INCH', #203 ) LENGTH_UNIT ( ) NAMED_UNIT ( #127 ) );
#182 = VERTEX_POINT ( 'NONE', #39 ) ;
#183 = PLANE ( 'NONE',  #292 ) ;
#184 = DIRECTION ( 'NONE',  ( -3.061616997868383018E-17, 1.000000000000000000, -0.000000000000000000 ) ) ;
#185 = CARTESIAN_POINT ( 'NONE',  ( -0.1875000000000001110, 4.000000000000000000, 0.000000000000000000 ) ) ;
#186 = APPLICATION_PROTOCOL_DEFINITION ( 'draft international standard', 'automotive_design', 1998, #121 ) ;
#187 = SURFACE_STYLE_USAGE ( .BOTH. , #99 ) ;
#188 = CYLINDRICAL_SURFACE ( 'NONE', #305, 0.1875000000000000278 ) ;
#189 = AXIS2_PLACEMENT_3D ( 'NONE', #242, #34, #82 ) ;
#190 = EDGE_LOOP ( 'NONE', ( #64, #218, #51, #146 ) ) ;
#191 = DIRECTION ( 'NONE',  ( -3.061616997868383018E-17, 1.000000000000000000, -0.000000000000000000 ) ) ;
#192 = PRODUCT_RELATED_PRODUCT_CATEGORY ( 'part', '', ( #58 ) ) ;
#193 = CARTESIAN_POINT ( 'NONE',  ( 0.000000000000000000, 0.000000000000000000, 0.000000000000000000 ) ) ;
#194 = SURFACE_STYLE_USAGE ( .BOTH. , #109 ) ;
#195 = DIRECTION ( 'NONE',  ( 0.000000000000000000, 0.000000000000000000, -1.000000000000000000 ) ) ;
#196 = MANIFOLD_SOLID_BREP ( 'Revolve - Cutting Edge', #245 ) ;
#197 = CYLINDRICAL_SURFACE ( 'NONE', #280, 0.1875000000000000555 ) ;
#198 = DIRECTION ( 'NONE',  ( -3.061616997868383018E-17, 1.000000000000000000, -0.000000000000000000 ) ) ;
#199 = AXIS2_PLACEMENT_3D ( 'NONE', #283, #70, #162 ) ;
#200 = AXIS2_PLACEMENT_3D ( 'NONE', #131, #191, #14 ) ;
#201 = LINE ( 'NONE', #185, #140 ) ;
#202 =( LENGTH_UNIT ( ) NAMED_UNIT ( * ) SI_UNIT ( $, .METRE. ) );
#203 = LENGTH_MEASURE_WITH_UNIT ( LENGTH_MEASURE( 0.02539999999999999897 ), #136 );
#204 = EDGE_CURVE ( 'NONE', #144, #262, #201, .T. ) ;
#205 = SURFACE_STYLE_USAGE ( .BOTH. , #308 ) ;
#206 = EDGE_CURVE ( 'NONE', #29, #182, #22, .T. ) ;
#207 = AXIS2_PLACEMENT_3D ( 'NONE', #49, #286, #163 ) ;
#208 = COLOUR_RGB ( '',0.7921568627450980005, 0.8196078431372548767, 0.9333333333333333481 ) ;
#209 =( NAMED_UNIT ( * ) SI_UNIT ( $, .STERADIAN. ) SOLID_ANGLE_UNIT ( ) );
#210 = DIRECTION ( 'NONE',  ( 0.000000000000000000, -1.000000000000000000, -0.000000000000000000 ) ) ;
#211 = UNCERTAINTY_MEASURE_WITH_UNIT (LENGTH_MEASURE( 1.000000000000000082E-05 ), #46, 'distance_accuracy_value', 'NONE');
#212 =( LENGTH_UNIT ( ) NAMED_UNIT ( * ) SI_UNIT ( $, .METRE. ) );
#213 = ORIENTED_EDGE ( 'NONE', *, *, #80, .F. ) ;
#214 = SURFACE_STYLE_FILL_AREA ( #291 ) ;
#215 = ORIENTED_EDGE ( 'NONE', *, *, #106, .T. ) ;
#216 = FACE_OUTER_BOUND ( 'NONE', #98, .T. ) ;
#217 = FILL_AREA_STYLE_COLOUR ( '', #208 ) ;
#218 = ORIENTED_EDGE ( 'NONE', *, *, #100, .T. ) ;
#219 = DIRECTION ( 'NONE',  ( 0.000000000000000000, 0.000000000000000000, -1.000000000000000000 ) ) ;
#220 = DIRECTION ( 'NONE',  ( -0.000000000000000000, -1.000000000000000000, -0.000000000000000000 ) ) ;
#221 = DIMENSIONAL_EXPONENTS ( 1.000000000000000000, 0.000000000000000000, 0.000000000000000000, 0.000000000000000000, 0.000000000000000000, 0.000000000000000000, 0.000000000000000000 ) ;
#222 = CIRCLE ( 'NONE', #145, 0.1875000000000000278 ) ;
#223 = DIRECTION ( 'NONE',  ( 0.000000000000000000, 0.000000000000000000, -1.000000000000000000 ) ) ;
#224 = ORIENTED_EDGE ( 'NONE', *, *, #106, .F. ) ;
#225 = STYLED_ITEM ( 'NONE', ( #300 ), #17 ) ;
#226 = DIRECTION ( 'NONE',  ( 0.000000000000000000, -0.000000000000000000, 1.000000000000000000 ) ) ;
#227 =( GEOMETRIC_REPRESENTATION_CONTEXT ( 3 ) GLOBAL_UNCERTAINTY_ASSIGNED_CONTEXT ( ( #32 ) ) GLOBAL_UNIT_ASSIGNED_CONTEXT ( ( #296, #170, #209 ) ) REPRESENTATION_CONTEXT ( 'NONE', 'WORKASPACE' ) );
#228 = FACE_OUTER_BOUND ( 'NONE', #239, .T. ) ;
#229 = VECTOR ( 'NONE', #114, 39.37007874015748143 ) ;
#230 = EDGE_CURVE ( 'NONE', #79, #31, #119, .T. ) ;
#231 = DIRECTION ( 'NONE',  ( -0.000000000000000000, -1.000000000000000000, -0.000000000000000000 ) ) ;
#232 = ORIENTED_EDGE ( 'NONE', *, *, #230, .T. ) ;
#233 = AXIS2_PLACEMENT_3D ( 'NONE', #171, #274, #219 ) ;
#234 = ADVANCED_FACE ( 'NONE', ( #250 ), #63, .T. ) ;
#235 = FACE_OUTER_BOUND ( 'NONE', #169, .T. ) ;
#236 =( NAMED_UNIT ( * ) PLANE_ANGLE_UNIT ( ) SI_UNIT ( $, .RADIAN. ) );
#237 = EDGE_LOOP ( 'NONE', ( #150, #224 ) ) ;
#238 = LENGTH_MEASURE_WITH_UNIT ( LENGTH_MEASURE( 0.02539999999999999897 ), #212 );
#239 = EDGE_LOOP ( 'NONE', ( #130, #77 ) ) ;
#240 = PRODUCT_DEFINITION ( 'UNKNOWN', '', #104, #298 ) ;
#241 = ORIENTED_EDGE ( 'NONE', *, *, #94, .T. ) ;
#242 = CARTESIAN_POINT ( 'NONE',  ( 0.000000000000000000, 2.000000000000000000, 0.000000000000000000 ) ) ;
#243 = AXIS2_PLACEMENT_3D ( 'NONE', #73, #231, #96 ) ;
#244 = CARTESIAN_POINT ( 'NONE',  ( 0.000000000000000000, 0.000000000000000000, 0.000000000000000000 ) ) ;
#245 = CLOSED_SHELL ( 'NONE', ( #42, #252, #302, #17 ) ) ;
#246 = SURFACE_STYLE_USAGE ( .BOTH. , #157 ) ;
#247 =( CONVERSION_BASED_UNIT ( 'INCH', #160 ) LENGTH_UNIT ( ) NAMED_UNIT ( #24 ) );
#248 = EDGE_CURVE ( 'NONE', #182, #29, #222, .T. ) ;
#249 = PRESENTATION_LAYER_ASSIGNMENT (  '', '', ( #97 ) ) ;
#250 = FACE_OUTER_BOUND ( 'NONE', #190, .T. ) ;
#251 = SURFACE_STYLE_FILL_AREA ( #307 ) ;
#252 = ADVANCED_FACE ( 'NONE', ( #91 ), #183, .T. ) ;
#253 = DIRECTION ( 'NONE',  ( -0.000000000000000000, -1.000000000000000000, -0.000000000000000000 ) ) ;
#254 = VERTEX_POINT ( 'NONE', #116 ) ;
#255 = STYLED_ITEM ( 'NONE', ( #147 ), #42 ) ;
#256 = SHAPE_DEFINITION_REPRESENTATION ( #294, #41 ) ;
#257 = DIRECTION ( 'NONE',  ( -3.061616997868383018E-17, 1.000000000000000000, -0.000000000000000000 ) ) ;
#258 = CYLINDRICAL_SURFACE ( 'NONE', #243, 0.1875000000000000278 ) ;
#259 = FACE_OUTER_BOUND ( 'NONE', #126, .T. ) ;
#260 = EDGE_LOOP ( 'NONE', ( #20, #7 ) ) ;
#261 = CARTESIAN_POINT ( 'NONE',  ( 0.1875000000000000278, 4.000000000000000000, 2.296212748401288342E-17 ) ) ;
#262 = VERTEX_POINT ( 'NONE', #281 ) ;
#263 =( GEOMETRIC_REPRESENTATION_CONTEXT ( 3 ) GLOBAL_UNCERTAINTY_ASSIGNED_CONTEXT ( ( #268 ) ) GLOBAL_UNIT_ASSIGNED_CONTEXT ( ( #247, #138, #43 ) ) REPRESENTATION_CONTEXT ( 'NONE', 'WORKASPACE' ) );
#264 = DIRECTION ( 'NONE',  ( -1.000000000000000000, -3.061616997868383018E-17, 0.000000000000000000 ) ) ;
#265 = SURFACE_STYLE_USAGE ( .BOTH. , #149 ) ;
#266 = ORIENTED_EDGE ( 'NONE', *, *, #306, .T. ) ;
#267 = CLOSED_SHELL ( 'NONE', ( #154, #295, #234, #67 ) ) ;
#268 = UNCERTAINTY_MEASURE_WITH_UNIT (LENGTH_MEASURE( 1.000000000000000082E-05 ), #247, 'distance_accuracy_value', 'NONE');
#269 = EDGE_CURVE ( 'NONE', #89, #182, #65, .T. ) ;
#270 =( NAMED_UNIT ( * ) PLANE_ANGLE_UNIT ( ) SI_UNIT ( $, .RADIAN. ) );
#271 = SURFACE_STYLE_USAGE ( .BOTH. , #174 ) ;
#272 = VECTOR ( 'NONE', #253, 39.37007874015748143 ) ;
#273 = SURFACE_STYLE_FILL_AREA ( #83 ) ;
#274 = DIRECTION ( 'NONE',  ( -0.000000000000000000, -1.000000000000000000, -0.000000000000000000 ) ) ;
#275 = DIMENSIONAL_EXPONENTS ( 1.000000000000000000, 0.000000000000000000, 0.000000000000000000, 0.000000000000000000, 0.000000000000000000, 0.000000000000000000, 0.000000000000000000 ) ;
#276 = DIRECTION ( 'NONE',  ( -3.061616997868383018E-17, 1.000000000000000000, -0.000000000000000000 ) ) ;
#277 = PRESENTATION_LAYER_ASSIGNMENT (  '', '', ( #118 ) ) ;
#278 =( LENGTH_UNIT ( ) NAMED_UNIT ( * ) SI_UNIT ( $, .METRE. ) );
#279 = PRESENTATION_STYLE_ASSIGNMENT (( #205 ) ) ;
#280 = AXIS2_PLACEMENT_3D ( 'NONE', #129, #198, #108 ) ;
#281 = CARTESIAN_POINT ( 'NONE',  ( -0.1875000000000001388, 4.000000000000000000, 0.000000000000000000 ) ) ;
#282 = DIRECTION ( 'NONE',  ( -3.061616997868383018E-17, 1.000000000000000000, -0.000000000000000000 ) ) ;
#283 = CARTESIAN_POINT ( 'NONE',  ( 0.000000000000000000, 0.000000000000000000, 0.000000000000000000 ) ) ;
#284 = AXIS2_PLACEMENT_3D ( 'NONE', #102, #210, #30 ) ;
#285 = MECHANICAL_DESIGN_GEOMETRIC_PRESENTATION_REPRESENTATION (  '', ( #36 ), #263 ) ;
#286 = DIRECTION ( 'NONE',  ( -0.000000000000000000, -1.000000000000000000, -0.000000000000000000 ) ) ;
#287 =( NAMED_UNIT ( * ) SI_UNIT ( $, .STERADIAN. ) SOLID_ANGLE_UNIT ( ) );
#288 =( NAMED_UNIT ( * ) SI_UNIT ( $, .STERADIAN. ) SOLID_ANGLE_UNIT ( ) );
#289 = ORIENTED_EDGE ( 'NONE', *, *, #269, .T. ) ;
#290 = UNCERTAINTY_MEASURE_WITH_UNIT (LENGTH_MEASURE( 1.000000000000000082E-05 ), #181, 'distance_accuracy_value', 'NONE');
#291 = FILL_AREA_STYLE ('',( #123 ) ) ;
#292 = AXIS2_PLACEMENT_3D ( 'NONE', #137, #93, #226 ) ;
#293 = DIMENSIONAL_EXPONENTS ( 1.000000000000000000, 0.000000000000000000, 0.000000000000000000, 0.000000000000000000, 0.000000000000000000, 0.000000000000000000, 0.000000000000000000 ) ;
#294 = PRODUCT_DEFINITION_SHAPE ( 'NONE', 'NONE',  #240 ) ;
#295 = ADVANCED_FACE ( 'NONE', ( #228 ), #5, .F. ) ;
#296 =( CONVERSION_BASED_UNIT ( 'INCH', #26 ) LENGTH_UNIT ( ) NAMED_UNIT ( #68 ) );
#297 = ORIENTED_EDGE ( 'NONE', *, *, #204, .F. ) ;
#298 = PRODUCT_DEFINITION_CONTEXT ( 'detailed design', #121, 'design' ) ;
#299 = FILL_AREA_STYLE ('',( #217 ) ) ;
#300 = PRESENTATION_STYLE_ASSIGNMENT (( #194 ) ) ;
#301 =( GEOMETRIC_REPRESENTATION_CONTEXT ( 3 ) GLOBAL_UNCERTAINTY_ASSIGNED_CONTEXT ( ( #290 ) ) GLOBAL_UNIT_ASSIGNED_CONTEXT ( ( #181, #309, #18 ) ) REPRESENTATION_CONTEXT ( 'NONE', 'WORKASPACE' ) );
#302 = ADVANCED_FACE ( 'NONE', ( #235 ), #258, .T. ) ;
#303 = DIRECTION ( 'NONE',  ( 1.000000000000000000, 3.061616997868383018E-17, 0.000000000000000000 ) ) ;
#304 = CARTESIAN_POINT ( 'NONE',  ( -0.1875000000000000278, 2.000000000000000000, 0.000000000000000000 ) ) ;
#305 = AXIS2_PLACEMENT_3D ( 'NONE', #244, #220, #195 ) ;
#306 = EDGE_CURVE ( 'NONE', #89, #254, #166, .T. ) ;
#307 = FILL_AREA_STYLE ('',( #95 ) ) ;
#308 = SURFACE_SIDE_STYLE ('',( #251 ) ) ;
#309 =( NAMED_UNIT ( * ) PLANE_ANGLE_UNIT ( ) SI_UNIT ( $, .RADIAN. ) );
ENDSEC;
END-ISO-10303-21;
