ISO-10303-21;
HEADER;
FILE_DESCRIPTION (( 'STEP AP214' ),
    '1' );
FILE_NAME ('59537.STEP',
    '2023-07-24T15:48:37',
    ( '' ),
    ( '' ),
    'SwSTEP 2.0',
    'SolidWorks 2023',
    '' );
FILE_SCHEMA (( 'AUTOMOTIVE_DESIGN' ));
ENDSEC;

DATA;
#1 = DIRECTION ( 'NONE',  ( 0.000000000000000000, 0.000000000000000000, -1.000000000000000000 ) ) ;
#2 = ADVANCED_FACE ( 'NONE', ( #118 ), #262, .T. ) ;
#3 = DIRECTION ( 'NONE',  ( -0.000000000000000000, -1.000000000000000000, -0.000000000000000000 ) ) ;
#4 =( NAMED_UNIT ( * ) PLANE_ANGLE_UNIT ( ) SI_UNIT ( $, .RADIAN. ) );
#5 =( NAMED_UNIT ( * ) SI_UNIT ( $, .STERADIAN. ) SOLID_ANGLE_UNIT ( ) );
#6 = CIRCLE ( 'NONE', #240, 3.999999999999996447 ) ;
#7 = MECHANICAL_DESIGN_GEOMETRIC_PRESENTATION_REPRESENTATION (  '', ( #18 ), #38 ) ;
#8 = DIRECTION ( 'NONE',  ( 1.000000000000000000, 0.000000000000000000, 0.000000000000000000 ) ) ;
#9 = SURFACE_SIDE_STYLE ('',( #161 ) ) ;
#10 = ORIENTED_EDGE ( 'NONE', *, *, #274, .T. ) ;
#11 = PRESENTATION_LAYER_ASSIGNMENT (  '', '', ( #80 ) ) ;
#12 = CYLINDRICAL_SURFACE ( 'NONE', #140, 4.000000000000000000 ) ;
#13 = ORIENTED_EDGE ( 'NONE', *, *, #228, .F. ) ;
#14 = STYLED_ITEM ( 'NONE', ( #243 ), #237 ) ;
#15 = EDGE_LOOP ( 'NONE', ( #283, #233, #95, #281 ) ) ;
#16 = CARTESIAN_POINT ( 'NONE',  ( 0.000000000000000000, 0.000000000000000000, 0.000000000000000000 ) ) ;
#17 = CARTESIAN_POINT ( 'NONE',  ( 4.000000000000000000, 63.00000000000000000, 0.000000000000000000 ) ) ;
#18 = STYLED_ITEM ( 'NONE', ( #156 ), #249 ) ;
#19 = UNCERTAINTY_MEASURE_WITH_UNIT (LENGTH_MEASURE( 1.000000000000000082E-05 ), #32, 'distance_accuracy_value', 'NONE');
#20 = DIRECTION ( 'NONE',  ( -1.000000000000000000, 0.000000000000000000, 0.000000000000000000 ) ) ;
#21 = CARTESIAN_POINT ( 'NONE',  ( 4.000000000000000000, 63.00000000000000000, 4.898587196589411843E-16 ) ) ;
#22 =( GEOMETRIC_REPRESENTATION_CONTEXT ( 3 ) GLOBAL_UNCERTAINTY_ASSIGNED_CONTEXT ( ( #19 ) ) GLOBAL_UNIT_ASSIGNED_CONTEXT ( ( #32, #79, #31 ) ) REPRESENTATION_CONTEXT ( 'NONE', 'WORKASPACE' ) );
#23 = PRESENTATION_STYLE_ASSIGNMENT (( #115 ) ) ;
#24 =( NAMED_UNIT ( * ) SI_UNIT ( $, .STERADIAN. ) SOLID_ANGLE_UNIT ( ) );
#25 = DIRECTION ( 'NONE',  ( -0.000000000000000000, -1.000000000000000000, -0.000000000000000000 ) ) ;
#26 =( NAMED_UNIT ( * ) PLANE_ANGLE_UNIT ( ) SI_UNIT ( $, .RADIAN. ) );
#27 = COLOUR_RGB ( '',1.000000000000000000, 0.000000000000000000, 0.000000000000000000 ) ;
#28 =( NAMED_UNIT ( * ) SI_UNIT ( $, .STERADIAN. ) SOLID_ANGLE_UNIT ( ) );
#29 = FACE_OUTER_BOUND ( 'NONE', #191, .T. ) ;
#30 =( NAMED_UNIT ( * ) SI_UNIT ( $, .STERADIAN. ) SOLID_ANGLE_UNIT ( ) );
#31 =( NAMED_UNIT ( * ) SI_UNIT ( $, .STERADIAN. ) SOLID_ANGLE_UNIT ( ) );
#32 =( LENGTH_UNIT ( ) NAMED_UNIT ( * ) SI_UNIT ( .MILLI., .METRE. ) );
#33 = COLOUR_RGB ( '',1.000000000000000000, 0.000000000000000000, 0.000000000000000000 ) ;
#34 = ADVANCED_FACE ( 'NONE', ( #129 ), #248, .T. ) ;
#35 = ORIENTED_EDGE ( 'NONE', *, *, #144, .F. ) ;
#36 =( GEOMETRIC_REPRESENTATION_CONTEXT ( 3 ) GLOBAL_UNCERTAINTY_ASSIGNED_CONTEXT ( ( #271 ) ) GLOBAL_UNIT_ASSIGNED_CONTEXT ( ( #43, #126, #250 ) ) REPRESENTATION_CONTEXT ( 'NONE', 'WORKASPACE' ) );
#37 = SURFACE_SIDE_STYLE ('',( #124 ) ) ;
#38 =( GEOMETRIC_REPRESENTATION_CONTEXT ( 3 ) GLOBAL_UNCERTAINTY_ASSIGNED_CONTEXT ( ( #48 ) ) GLOBAL_UNIT_ASSIGNED_CONTEXT ( ( #47, #219, #134 ) ) REPRESENTATION_CONTEXT ( 'NONE', 'WORKASPACE' ) );
#39 = PRODUCT_DEFINITION_FORMATION_WITH_SPECIFIED_SOURCE ( 'ANY', '', #160, .NOT_KNOWN. ) ;
#40 = EDGE_CURVE ( 'NONE', #81, #58, #6, .T. ) ;
#41 = SURFACE_STYLE_FILL_AREA ( #265 ) ;
#42 =( NAMED_UNIT ( * ) PLANE_ANGLE_UNIT ( ) SI_UNIT ( $, .RADIAN. ) );
#43 =( LENGTH_UNIT ( ) NAMED_UNIT ( * ) SI_UNIT ( .MILLI., .METRE. ) );
#44 = CLOSED_SHELL ( 'NONE', ( #34, #107, #2, #84 ) ) ;
#45 = COLOUR_RGB ( '',0.7921568627450980005, 0.8196078431372548767, 0.9333333333333333481 ) ;
#46 = LINE ( 'NONE', #207, #83 ) ;
#47 =( LENGTH_UNIT ( ) NAMED_UNIT ( * ) SI_UNIT ( .MILLI., .METRE. ) );
#48 = UNCERTAINTY_MEASURE_WITH_UNIT (LENGTH_MEASURE( 1.000000000000000082E-05 ), #47, 'distance_accuracy_value', 'NONE');
#49 = FACE_OUTER_BOUND ( 'NONE', #93, .T. ) ;
#50 = ORIENTED_EDGE ( 'NONE', *, *, #40, .F. ) ;
#51 = DIRECTION ( 'NONE',  ( -1.000000000000000000, 0.000000000000000000, 0.000000000000000000 ) ) ;
#52 = DIRECTION ( 'NONE',  ( -0.000000000000000000, -1.000000000000000000, -0.000000000000000000 ) ) ;
#53 = FILL_AREA_STYLE ('',( #213 ) ) ;
#54 = AXIS2_PLACEMENT_3D ( 'NONE', #288, #52, #234 ) ;
#55 = VERTEX_POINT ( 'NONE', #204 ) ;
#56 = DIRECTION ( 'NONE',  ( 0.000000000000000000, 0.000000000000000000, -1.000000000000000000 ) ) ;
#57 = EDGE_CURVE ( 'NONE', #142, #78, #102, .T. ) ;
#58 = VERTEX_POINT ( 'NONE', #176 ) ;
#59 = PRESENTATION_STYLE_ASSIGNMENT (( #96 ) ) ;
#60 = DIRECTION ( 'NONE',  ( 0.000000000000000000, 0.000000000000000000, -1.000000000000000000 ) ) ;
#61 = CARTESIAN_POINT ( 'NONE',  ( 0.000000000000000000, 0.000000000000000000, -4.000000000000000000 ) ) ;
#62 = CARTESIAN_POINT ( 'NONE',  ( 4.000000000000001776, 63.00000000000000000, 4.898587196589410857E-16 ) ) ;
#63 = CARTESIAN_POINT ( 'NONE',  ( 9.179154486911863099E-33, 16.00000000000000000, 0.000000000000000000 ) ) ;
#64 = MECHANICAL_DESIGN_GEOMETRIC_PRESENTATION_REPRESENTATION (  '', ( #14 ), #22 ) ;
#65 = AXIS2_PLACEMENT_3D ( 'NONE', #236, #215, #8 ) ;
#66 = PRODUCT_DEFINITION_CONTEXT ( 'detailed design', #217, 'design' ) ;
#67 = CARTESIAN_POINT ( 'NONE',  ( 4.898587196589412829E-16, 0.000000000000000000, 4.000000000000000000 ) ) ;
#68 = SURFACE_STYLE_FILL_AREA ( #53 ) ;
#69 = AXIS2_PLACEMENT_3D ( 'NONE', #88, #263, #246 ) ;
#70 = PRESENTATION_LAYER_ASSIGNMENT (  '', '', ( #76 ) ) ;
#71 = CIRCLE ( 'NONE', #232, 4.000000000000000000 ) ;
#72 = APPLICATION_PROTOCOL_DEFINITION ( 'draft international standard', 'automotive_design', 1998, #198 ) ;
#73 = EDGE_CURVE ( 'NONE', #142, #55, #182, .T. ) ;
#74 = CARTESIAN_POINT ( 'NONE',  ( 4.898587196589412829E-16, 0.000000000000000000, 4.000000000000000000 ) ) ;
#75 = FILL_AREA_STYLE ('',( #120 ) ) ;
#76 = STYLED_ITEM ( 'NONE', ( #206 ), #247 ) ;
#77 = PRODUCT_RELATED_PRODUCT_CATEGORY ( 'part', '', ( #160 ) ) ;
#78 = VERTEX_POINT ( 'NONE', #127 ) ;
#79 =( NAMED_UNIT ( * ) PLANE_ANGLE_UNIT ( ) SI_UNIT ( $, .RADIAN. ) );
#80 = STYLED_ITEM ( 'NONE', ( #23 ), #151 ) ;
#81 = VERTEX_POINT ( 'NONE', #21 ) ;
#82 = DIRECTION ( 'NONE',  ( 6.774641867623654571E-17, 1.000000000000000000, -0.000000000000000000 ) ) ;
#83 = VECTOR ( 'NONE', #108, 1000.000000000000000 ) ;
#84 = ADVANCED_FACE ( 'NONE', ( #125 ), #200, .F. ) ;
#85 = FACE_OUTER_BOUND ( 'NONE', #101, .T. ) ;
#86 = DIRECTION ( 'NONE',  ( -0.000000000000000000, -1.000000000000000000, -0.000000000000000000 ) ) ;
#87 = AXIS2_PLACEMENT_3D ( 'NONE', #193, #280, #220 ) ;
#88 = CARTESIAN_POINT ( 'NONE',  ( 3.184081677783117402E-15, 63.00000000000000000, 0.000000000000000000 ) ) ;
#89 = UNCERTAINTY_MEASURE_WITH_UNIT (LENGTH_MEASURE( 1.000000000000000082E-05 ), #179, 'distance_accuracy_value', 'NONE');
#90 = DIRECTION ( 'NONE',  ( 0.000000000000000000, -0.000000000000000000, 1.000000000000000000 ) ) ;
#91 = AXIS2_PLACEMENT_3D ( 'NONE', #103, #287, #60 ) ;
#92 = CARTESIAN_POINT ( 'NONE',  ( 0.000000000000000000, 16.00000000000000000, 0.000000000000000000 ) ) ;
#93 = EDGE_LOOP ( 'NONE', ( #259, #112 ) ) ;
#94 =( GEOMETRIC_REPRESENTATION_CONTEXT ( 3 ) GLOBAL_UNCERTAINTY_ASSIGNED_CONTEXT ( ( #89 ) ) GLOBAL_UNIT_ASSIGNED_CONTEXT ( ( #179, #183, #30 ) ) REPRESENTATION_CONTEXT ( 'NONE', 'WORKASPACE' ) );
#95 = ORIENTED_EDGE ( 'NONE', *, *, #272, .F. ) ;
#96 = SURFACE_STYLE_USAGE ( .BOTH. , #9 ) ;
#97 = ORIENTED_EDGE ( 'NONE', *, *, #128, .F. ) ;
#98 = CIRCLE ( 'NONE', #279, 4.000000000000000000 ) ;
#99 = ORIENTED_EDGE ( 'NONE', *, *, #282, .T. ) ;
#100 = PLANE ( 'NONE',  #153 ) ;
#101 = EDGE_LOOP ( 'NONE', ( #189, #221 ) ) ;
#102 = LINE ( 'NONE', #61, #104 ) ;
#103 = CARTESIAN_POINT ( 'NONE',  ( 0.000000000000000000, 16.00000000000000000, 0.000000000000000000 ) ) ;
#104 = VECTOR ( 'NONE', #86, 1000.000000000000000 ) ;
#105 = COLOUR_RGB ( '',0.7921568627450980005, 0.8196078431372548767, 0.9333333333333333481 ) ;
#106 =( GEOMETRIC_REPRESENTATION_CONTEXT ( 3 ) GLOBAL_UNCERTAINTY_ASSIGNED_CONTEXT ( ( #180 ) ) GLOBAL_UNIT_ASSIGNED_CONTEXT ( ( #258, #4, #28 ) ) REPRESENTATION_CONTEXT ( 'NONE', 'WORKASPACE' ) );
#107 = ADVANCED_FACE ( 'NONE', ( #224 ), #284, .F. ) ;
#108 = DIRECTION ( 'NONE',  ( 6.774641867623654571E-17, 1.000000000000000000, -0.000000000000000000 ) ) ;
#109 = DIRECTION ( 'NONE',  ( 1.000000000000000000, -6.774641867623654571E-17, 0.000000000000000000 ) ) ;
#110 = MECHANICAL_DESIGN_GEOMETRIC_PRESENTATION_REPRESENTATION (  '', ( #211 ), #159 ) ;
#111 = CARTESIAN_POINT ( 'NONE',  ( 0.000000000000000000, 0.000000000000000000, 0.000000000000000000 ) ) ;
#112 = ORIENTED_EDGE ( 'NONE', *, *, #228, .T. ) ;
#113 = UNCERTAINTY_MEASURE_WITH_UNIT (LENGTH_MEASURE( 1.000000000000000082E-05 ), #225, 'distance_accuracy_value', 'NONE');
#114 = EDGE_CURVE ( 'NONE', #238, #121, #162, .T. ) ;
#115 = SURFACE_STYLE_USAGE ( .BOTH. , #184 ) ;
#116 = ORIENTED_EDGE ( 'NONE', *, *, #272, .T. ) ;
#117 = CARTESIAN_POINT ( 'NONE',  ( 4.000000000000000000, 16.00000000000000000, 4.898587196589411843E-16 ) ) ;
#118 = FACE_OUTER_BOUND ( 'NONE', #216, .T. ) ;
#119 =( GEOMETRIC_REPRESENTATION_CONTEXT ( 3 ) GLOBAL_UNCERTAINTY_ASSIGNED_CONTEXT ( ( #209 ) ) GLOBAL_UNIT_ASSIGNED_CONTEXT ( ( #136, #42, #5 ) ) REPRESENTATION_CONTEXT ( 'NONE', 'WORKASPACE' ) );
#120 = FILL_AREA_STYLE_COLOUR ( '', #257 ) ;
#121 = VERTEX_POINT ( 'NONE', #174 ) ;
#122 = SURFACE_STYLE_USAGE ( .BOTH. , #256 ) ;
#123 = FILL_AREA_STYLE_COLOUR ( '', #45 ) ;
#124 = SURFACE_STYLE_FILL_AREA ( #146 ) ;
#125 = FACE_OUTER_BOUND ( 'NONE', #141, .T. ) ;
#126 =( NAMED_UNIT ( * ) PLANE_ANGLE_UNIT ( ) SI_UNIT ( $, .RADIAN. ) );
#127 = CARTESIAN_POINT ( 'NONE',  ( 0.000000000000000000, 0.000000000000000000, -4.000000000000000000 ) ) ;
#128 = EDGE_CURVE ( 'NONE', #238, #81, #266, .T. ) ;
#129 = FACE_OUTER_BOUND ( 'NONE', #15, .T. ) ;
#130 = SURFACE_SIDE_STYLE ('',( #41 ) ) ;
#131 = PLANE ( 'NONE',  #150 ) ;
#132 = AXIS2_PLACEMENT_3D ( 'NONE', #286, #188, #167 ) ;
#133 = FILL_AREA_STYLE_COLOUR ( '', #27 ) ;
#134 =( NAMED_UNIT ( * ) SI_UNIT ( $, .STERADIAN. ) SOLID_ANGLE_UNIT ( ) );
#135 = DIRECTION ( 'NONE',  ( 6.774641867623654571E-17, 1.000000000000000000, -0.000000000000000000 ) ) ;
#136 =( LENGTH_UNIT ( ) NAMED_UNIT ( * ) SI_UNIT ( .MILLI., .METRE. ) );
#137 = PRODUCT_DEFINITION_SHAPE ( 'NONE', 'NONE',  #229 ) ;
#138 = ORIENTED_EDGE ( 'NONE', *, *, #114, .T. ) ;
#139 = ORIENTED_EDGE ( 'NONE', *, *, #57, .T. ) ;
#140 = AXIS2_PLACEMENT_3D ( 'NONE', #16, #3, #172 ) ;
#141 = EDGE_LOOP ( 'NONE', ( #116, #168 ) ) ;
#142 = VERTEX_POINT ( 'NONE', #173 ) ;
#143 = ORIENTED_EDGE ( 'NONE', *, *, #114, .F. ) ;
#144 = EDGE_CURVE ( 'NONE', #78, #208, #222, .T. ) ;
#145 = PRESENTATION_LAYER_ASSIGNMENT (  '', '', ( #211 ) ) ;
#146 = FILL_AREA_STYLE ('',( #202 ) ) ;
#147 = DIRECTION ( 'NONE',  ( 6.774641867623654571E-17, 1.000000000000000000, -0.000000000000000000 ) ) ;
#148 = ADVANCED_FACE ( 'NONE', ( #85 ), #100, .T. ) ;
#149 = DIRECTION ( 'NONE',  ( -1.000000000000000000, 6.774641867623654571E-17, 0.000000000000000000 ) ) ;
#150 = AXIS2_PLACEMENT_3D ( 'NONE', #111, #269, #1 ) ;
#151 = ADVANCED_FACE ( 'NONE', ( #49 ), #131, .T. ) ;
#152 = FACE_OUTER_BOUND ( 'NONE', #169, .T. ) ;
#153 = AXIS2_PLACEMENT_3D ( 'NONE', #154, #254, #90 ) ;
#154 = CARTESIAN_POINT ( 'NONE',  ( 0.000000000000000000, 16.00000000000000000, 0.000000000000000000 ) ) ;
#155 = CARTESIAN_POINT ( 'NONE',  ( 3.184081677783117402E-15, 63.00000000000000000, 0.000000000000000000 ) ) ;
#156 = PRESENTATION_STYLE_ASSIGNMENT (( #158 ) ) ;
#157 = SURFACE_STYLE_FILL_AREA ( #214 ) ;
#158 = SURFACE_STYLE_USAGE ( .BOTH. , #270 ) ;
#159 =( GEOMETRIC_REPRESENTATION_CONTEXT ( 3 ) GLOBAL_UNCERTAINTY_ASSIGNED_CONTEXT ( ( #113 ) ) GLOBAL_UNIT_ASSIGNED_CONTEXT ( ( #225, #26, #24 ) ) REPRESENTATION_CONTEXT ( 'NONE', 'WORKASPACE' ) );
#160 = PRODUCT ( '59537', '59537', '', ( #185 ) ) ;
#161 = SURFACE_STYLE_FILL_AREA ( #75 ) ;
#162 = CIRCLE ( 'NONE', #177, 4.000000000000000000 ) ;
#163 = AXIS2_PLACEMENT_3D ( 'NONE', #63, #82, #149 ) ;
#164 = PRESENTATION_LAYER_ASSIGNMENT (  '', '', ( #261 ) ) ;
#165 = ORIENTED_EDGE ( 'NONE', *, *, #73, .T. ) ;
#166 = EDGE_CURVE ( 'NONE', #121, #238, #98, .T. ) ;
#167 = DIRECTION ( 'NONE',  ( 0.000000000000000000, 0.000000000000000000, -1.000000000000000000 ) ) ;
#168 = ORIENTED_EDGE ( 'NONE', *, *, #40, .T. ) ;
#169 = EDGE_LOOP ( 'NONE', ( #165, #99, #35, #195 ) ) ;
#170 = CLOSED_SHELL ( 'NONE', ( #237, #148, #245, #151 ) ) ;
#171 = CARTESIAN_POINT ( 'NONE',  ( -3.851859888774471706E-31, 16.00000000000000000, 0.000000000000000000 ) ) ;
#172 = DIRECTION ( 'NONE',  ( 0.000000000000000000, 0.000000000000000000, -1.000000000000000000 ) ) ;
#173 = CARTESIAN_POINT ( 'NONE',  ( 0.000000000000000000, 16.00000000000000000, -4.000000000000000000 ) ) ;
#174 = CARTESIAN_POINT ( 'NONE',  ( -4.000000000000000000, 16.00000000000000000, 0.000000000000000000 ) ) ;
#175 = DIRECTION ( 'NONE',  ( 6.774641867623654571E-17, 1.000000000000000000, -0.000000000000000000 ) ) ;
#176 = CARTESIAN_POINT ( 'NONE',  ( -3.999999999999993339, 63.00000000000000000, 0.000000000000000000 ) ) ;
#177 = AXIS2_PLACEMENT_3D ( 'NONE', #171, #203, #285 ) ;
#178 = EDGE_CURVE ( 'NONE', #121, #58, #46, .T. ) ;
#179 =( LENGTH_UNIT ( ) NAMED_UNIT ( * ) SI_UNIT ( .MILLI., .METRE. ) );
#180 = UNCERTAINTY_MEASURE_WITH_UNIT (LENGTH_MEASURE( 1.000000000000000082E-05 ), #258, 'distance_accuracy_value', 'NONE');
#181 = CARTESIAN_POINT ( 'NONE',  ( -3.851859888774471706E-31, 16.00000000000000000, 0.000000000000000000 ) ) ;
#182 = CIRCLE ( 'NONE', #91, 4.000000000000000000 ) ;
#183 =( NAMED_UNIT ( * ) PLANE_ANGLE_UNIT ( ) SI_UNIT ( $, .RADIAN. ) );
#184 = SURFACE_SIDE_STYLE ('',( #157 ) ) ;
#185 = PRODUCT_CONTEXT ( 'NONE', #198, 'mechanical' ) ;
#186 = EDGE_LOOP ( 'NONE', ( #223, #143 ) ) ;
#187 = PRESENTATION_LAYER_ASSIGNMENT (  '', '', ( #18 ) ) ;
#188 = DIRECTION ( 'NONE',  ( -0.000000000000000000, -1.000000000000000000, -0.000000000000000000 ) ) ;
#189 = ORIENTED_EDGE ( 'NONE', *, *, #73, .F. ) ;
#190 = ADVANCED_BREP_SHAPE_REPRESENTATION ( '59537', ( #249, #247, #65 ), #106 ) ;
#191 = EDGE_LOOP ( 'NONE', ( #278, #10, #139, #13 ) ) ;
#192 = PRESENTATION_LAYER_ASSIGNMENT (  '', '', ( #14 ) ) ;
#193 = CARTESIAN_POINT ( 'NONE',  ( 0.000000000000000000, 0.000000000000000000, 0.000000000000000000 ) ) ;
#194 = AXIS2_PLACEMENT_3D ( 'NONE', #155, #135, #51 ) ;
#195 = ORIENTED_EDGE ( 'NONE', *, *, #57, .F. ) ;
#196 = PRESENTATION_STYLE_ASSIGNMENT (( #199 ) ) ;
#197 = ORIENTED_EDGE ( 'NONE', *, *, #178, .T. ) ;
#198 = APPLICATION_CONTEXT ( 'automotive_design' ) ;
#199 = SURFACE_STYLE_USAGE ( .BOTH. , #37 ) ;
#200 = PLANE ( 'NONE',  #260 ) ;
#201 = AXIS2_PLACEMENT_3D ( 'NONE', #277, #244, #218 ) ;
#202 = FILL_AREA_STYLE_COLOUR ( '', #212 ) ;
#203 = DIRECTION ( 'NONE',  ( 6.774641867623654571E-17, 1.000000000000000000, -0.000000000000000000 ) ) ;
#204 = CARTESIAN_POINT ( 'NONE',  ( 4.898587196589412829E-16, 16.00000000000000000, 4.000000000000000000 ) ) ;
#205 = DIRECTION ( 'NONE',  ( 6.774641867623654571E-17, 1.000000000000000000, -0.000000000000000000 ) ) ;
#206 = PRESENTATION_STYLE_ASSIGNMENT (( #231 ) ) ;
#207 = CARTESIAN_POINT ( 'NONE',  ( -3.999999999999994671, 63.00000000000000000, 0.000000000000000000 ) ) ;
#208 = VERTEX_POINT ( 'NONE', #67 ) ;
#209 = UNCERTAINTY_MEASURE_WITH_UNIT (LENGTH_MEASURE( 1.000000000000000082E-05 ), #136, 'distance_accuracy_value', 'NONE');
#210 = CYLINDRICAL_SURFACE ( 'NONE', #87, 4.000000000000000000 ) ;
#211 = STYLED_ITEM ( 'NONE', ( #196 ), #148 ) ;
#212 = COLOUR_RGB ( '',1.000000000000000000, 0.000000000000000000, 0.000000000000000000 ) ;
#213 = FILL_AREA_STYLE_COLOUR ( '', #105 ) ;
#214 = FILL_AREA_STYLE ('',( #251 ) ) ;
#215 = DIRECTION ( 'NONE',  ( 0.000000000000000000, 0.000000000000000000, 1.000000000000000000 ) ) ;
#216 = EDGE_LOOP ( 'NONE', ( #97, #138, #197, #50 ) ) ;
#217 = APPLICATION_CONTEXT ( 'automotive_design' ) ;
#218 = DIRECTION ( 'NONE',  ( -1.000000000000000000, 0.000000000000000000, 0.000000000000000000 ) ) ;
#219 =( NAMED_UNIT ( * ) PLANE_ANGLE_UNIT ( ) SI_UNIT ( $, .RADIAN. ) );
#220 = DIRECTION ( 'NONE',  ( 0.000000000000000000, 0.000000000000000000, -1.000000000000000000 ) ) ;
#221 = ORIENTED_EDGE ( 'NONE', *, *, #274, .F. ) ;
#222 = CIRCLE ( 'NONE', #132, 4.000000000000000000 ) ;
#223 = ORIENTED_EDGE ( 'NONE', *, *, #166, .F. ) ;
#224 = FACE_OUTER_BOUND ( 'NONE', #186, .T. ) ;
#225 =( LENGTH_UNIT ( ) NAMED_UNIT ( * ) SI_UNIT ( .MILLI., .METRE. ) );
#226 = DIRECTION ( 'NONE',  ( -1.000000000000000000, 0.000000000000000000, 0.000000000000000000 ) ) ;
#227 = MECHANICAL_DESIGN_GEOMETRIC_PRESENTATION_REPRESENTATION (  '', ( #261 ), #36 ) ;
#228 = EDGE_CURVE ( 'NONE', #208, #78, #268, .T. ) ;
#229 = PRODUCT_DEFINITION ( 'UNKNOWN', '', #39, #66 ) ;
#230 = CARTESIAN_POINT ( 'NONE',  ( 3.184081677783117402E-15, 63.00000000000000000, 0.000000000000000000 ) ) ;
#231 = SURFACE_STYLE_USAGE ( .BOTH. , #130 ) ;
#232 = AXIS2_PLACEMENT_3D ( 'NONE', #92, #25, #56 ) ;
#233 = ORIENTED_EDGE ( 'NONE', *, *, #128, .T. ) ;
#234 = DIRECTION ( 'NONE',  ( 0.000000000000000000, 0.000000000000000000, -1.000000000000000000 ) ) ;
#235 = VECTOR ( 'NONE', #147, 1000.000000000000000 ) ;
#236 = CARTESIAN_POINT ( 'NONE',  ( 0.000000000000000000, 0.000000000000000000, 0.000000000000000000 ) ) ;
#237 = ADVANCED_FACE ( 'NONE', ( #152 ), #210, .T. ) ;
#238 = VERTEX_POINT ( 'NONE', #117 ) ;
#239 = APPLICATION_PROTOCOL_DEFINITION ( 'draft international standard', 'automotive_design', 1998, #217 ) ;
#240 = AXIS2_PLACEMENT_3D ( 'NONE', #230, #175, #226 ) ;
#241 = MECHANICAL_DESIGN_GEOMETRIC_PRESENTATION_REPRESENTATION (  '', ( #76 ), #94 ) ;
#242 = VECTOR ( 'NONE', #255, 1000.000000000000000 ) ;
#243 = PRESENTATION_STYLE_ASSIGNMENT (( #122 ) ) ;
#244 = DIRECTION ( 'NONE',  ( 6.774641867623654571E-17, 1.000000000000000000, -0.000000000000000000 ) ) ;
#245 = ADVANCED_FACE ( 'NONE', ( #29 ), #12, .T. ) ;
#246 = DIRECTION ( 'NONE',  ( -1.000000000000000000, 0.000000000000000000, 0.000000000000000000 ) ) ;
#247 = MANIFOLD_SOLID_BREP ( 'Revolve - Tool Body (Straight Shanked)', #44 ) ;
#248 = CYLINDRICAL_SURFACE ( 'NONE', #69, 3.999999999999998224 ) ;
#249 = MANIFOLD_SOLID_BREP ( 'Revolve - Cutting Edge', #170 ) ;
#250 =( NAMED_UNIT ( * ) SI_UNIT ( $, .STERADIAN. ) SOLID_ANGLE_UNIT ( ) );
#251 = FILL_AREA_STYLE_COLOUR ( '', #33 ) ;
#252 = SURFACE_STYLE_FILL_AREA ( #273 ) ;
#253 = LINE ( 'NONE', #74, #242 ) ;
#254 = DIRECTION ( 'NONE',  ( 0.000000000000000000, 1.000000000000000000, 0.000000000000000000 ) ) ;
#255 = DIRECTION ( 'NONE',  ( -0.000000000000000000, -1.000000000000000000, -0.000000000000000000 ) ) ;
#256 = SURFACE_SIDE_STYLE ('',( #252 ) ) ;
#257 = COLOUR_RGB ( '',1.000000000000000000, 0.000000000000000000, 0.000000000000000000 ) ;
#258 =( LENGTH_UNIT ( ) NAMED_UNIT ( * ) SI_UNIT ( .MILLI., .METRE. ) );
#259 = ORIENTED_EDGE ( 'NONE', *, *, #144, .T. ) ;
#260 = AXIS2_PLACEMENT_3D ( 'NONE', #17, #267, #109 ) ;
#261 = STYLED_ITEM ( 'NONE', ( #59 ), #245 ) ;
#262 = CYLINDRICAL_SURFACE ( 'NONE', #201, 3.999999999999998224 ) ;
#263 = DIRECTION ( 'NONE',  ( 6.774641867623654571E-17, 1.000000000000000000, -0.000000000000000000 ) ) ;
#264 = CIRCLE ( 'NONE', #194, 3.999999999999996447 ) ;
#265 = FILL_AREA_STYLE ('',( #123 ) ) ;
#266 = LINE ( 'NONE', #62, #235 ) ;
#267 = DIRECTION ( 'NONE',  ( -6.774641867623654571E-17, -1.000000000000000000, 0.000000000000000000 ) ) ;
#268 = CIRCLE ( 'NONE', #54, 4.000000000000000000 ) ;
#269 = DIRECTION ( 'NONE',  ( 0.000000000000000000, -1.000000000000000000, -0.000000000000000000 ) ) ;
#270 = SURFACE_SIDE_STYLE ('',( #68 ) ) ;
#271 = UNCERTAINTY_MEASURE_WITH_UNIT (LENGTH_MEASURE( 1.000000000000000082E-05 ), #43, 'distance_accuracy_value', 'NONE');
#272 = EDGE_CURVE ( 'NONE', #58, #81, #264, .T. ) ;
#273 = FILL_AREA_STYLE ('',( #133 ) ) ;
#274 = EDGE_CURVE ( 'NONE', #55, #142, #71, .T. ) ;
#275 = SHAPE_DEFINITION_REPRESENTATION ( #137, #190 ) ;
#276 = MECHANICAL_DESIGN_GEOMETRIC_PRESENTATION_REPRESENTATION (  '', ( #80 ), #119 ) ;
#277 = CARTESIAN_POINT ( 'NONE',  ( 3.184081677783117402E-15, 63.00000000000000000, 0.000000000000000000 ) ) ;
#278 = ORIENTED_EDGE ( 'NONE', *, *, #282, .F. ) ;
#279 = AXIS2_PLACEMENT_3D ( 'NONE', #181, #205, #20 ) ;
#280 = DIRECTION ( 'NONE',  ( -0.000000000000000000, -1.000000000000000000, -0.000000000000000000 ) ) ;
#281 = ORIENTED_EDGE ( 'NONE', *, *, #178, .F. ) ;
#282 = EDGE_CURVE ( 'NONE', #55, #208, #253, .T. ) ;
#283 = ORIENTED_EDGE ( 'NONE', *, *, #166, .T. ) ;
#284 = PLANE ( 'NONE',  #163 ) ;
#285 = DIRECTION ( 'NONE',  ( -1.000000000000000000, 0.000000000000000000, 0.000000000000000000 ) ) ;
#286 = CARTESIAN_POINT ( 'NONE',  ( 0.000000000000000000, 0.000000000000000000, 0.000000000000000000 ) ) ;
#287 = DIRECTION ( 'NONE',  ( -0.000000000000000000, -1.000000000000000000, -0.000000000000000000 ) ) ;
#288 = CARTESIAN_POINT ( 'NONE',  ( 0.000000000000000000, 0.000000000000000000, 0.000000000000000000 ) ) ;
ENDSEC;
END-ISO-10303-21;
