ISO-10303-21;
HEADER;
FILE_DESCRIPTION (( 'STEP AP214' ),
    '1' );
FILE_NAME ('Micro_SFA-250-43.STEP',
    '2021-09-02T03:58:06',
    ( '' ),
    ( '' ),
    'SwSTEP 2.0',
    'SolidWorks 2020',
    '' );
FILE_SCHEMA (( 'AUTOMOTIVE_DESIGN' ));
ENDSEC;

DATA;
#1 = LINE ( 'NONE', #136, #291 ) ;
#2 = AXIS2_PLACEMENT_3D ( 'NONE', #54, #256, #253 ) ;
#3 = CARTESIAN_POINT ( 'NONE',  ( 1.872825028598994811E-33, 0.0000000000000000000, 1.529277690435257475E-17 ) ) ;
#4 = DIMENSIONAL_EXPONENTS ( 1.000000000000000000, 0.0000000000000000000, 0.0000000000000000000, 0.0000000000000000000, 0.0000000000000000000, 0.0000000000000000000, 0.0000000000000000000 ) ;
#5 = CARTESIAN_POINT ( 'NONE',  ( -0.1249999999999999445, 0.0000000000000000000, 0.3757089102274520087 ) ) ;
#6 = ADVANCED_FACE ( 'NONE', ( #53 ), #205, .F. ) ;
#7 = FACE_OUTER_BOUND ( 'NONE', #198, .T. ) ;
#8 = DIRECTION ( 'NONE',  ( 1.000000000000000000, 0.0000000000000000000, 0.0000000000000000000 ) ) ;
#9 = LINE ( 'NONE', #77, #232 ) ;
#10 = DIRECTION ( 'NONE',  ( -1.224646799147353207E-16, -0.0000000000000000000, -1.000000000000000000 ) ) ;
#11 = AXIS2_PLACEMENT_3D ( 'NONE', #186, #58, #171 ) ;
#12 = CARTESIAN_POINT ( 'NONE',  ( -0.1248749999999999721, 1.529277690435257783E-17, 0.3749999999999999445 ) ) ;
#13 = PRODUCT_DEFINITION_FORMATION_WITH_SPECIFIED_SOURCE ( 'ANY', '', #42, .NOT_KNOWN. ) ;
#14 = ORIENTED_EDGE ( 'NONE', *, *, #247, .F. ) ;
#15 = DIRECTION ( 'NONE',  ( 0.0000000000000000000, 0.0000000000000000000, -1.000000000000000000 ) ) ;
#16 = ORIENTED_EDGE ( 'NONE', *, *, #259, .F. ) ;
#17 = APPLICATION_CONTEXT ( 'automotive_design' ) ;
#18 = MECHANICAL_DESIGN_GEOMETRIC_PRESENTATION_REPRESENTATION (  '', ( #146 ), #88 ) ;
#19 = ORIENTED_EDGE ( 'NONE', *, *, #134, .F. ) ;
#20 = CARTESIAN_POINT ( 'NONE',  ( 0.1250000000000000000, 1.530808498934191509E-17, 2.500000000000000000 ) ) ;
#21 = EDGE_LOOP ( 'NONE', ( #14, #252, #115, #109 ) ) ;
#22 = AXIS2_PLACEMENT_3D ( 'NONE', #258, #235, #182 ) ;
#23 = CARTESIAN_POINT ( 'NONE',  ( 0.0000000000000000000, 0.0000000000000000000, 2.500000000000000000 ) ) ;
#24 = DIRECTION ( 'NONE',  ( 0.0000000000000000000, 0.0000000000000000000, 1.000000000000000000 ) ) ;
#25 = DIRECTION ( 'NONE',  ( 0.0000000000000000000, 0.0000000000000000000, 1.000000000000000000 ) ) ;
#26 = DIRECTION ( 'NONE',  ( -1.000000000000000000, 0.0000000000000000000, 0.0000000000000000000 ) ) ;
#27 = CIRCLE ( 'NONE', #2, 0.1250000000000000000 ) ;
#28 = ORIENTED_EDGE ( 'NONE', *, *, #200, .T. ) ;
#29 = EDGE_CURVE ( 'NONE', #250, #64, #120, .T. ) ;
#30 = EDGE_LOOP ( 'NONE', ( #106, #49, #173, #87 ) ) ;
#31 = VERTEX_POINT ( 'NONE', #213 ) ;
#32 = CARTESIAN_POINT ( 'NONE',  ( 0.0000000000000000000, 0.0000000000000000000, 2.500000000000000000 ) ) ;
#33 = CONICAL_SURFACE ( 'NONE', #127, 0.1100000000000001948, 0.7853981633974517207 ) ;
#34 = UNCERTAINTY_MEASURE_WITH_UNIT (LENGTH_MEASURE( 1.000000000000000082E-05 ), #122, 'distance_accuracy_value', 'NONE');
#35 = DIRECTION ( 'NONE',  ( -1.224646799147353207E-16, -0.0000000000000000000, -1.000000000000000000 ) ) ;
#36 = DIRECTION ( 'NONE',  ( 1.224646799147353207E-16, 0.0000000000000000000, 1.000000000000000000 ) ) ;
#37 = EDGE_CURVE ( 'NONE', #61, #237, #220, .T. ) ;
#38 = AXIS2_PLACEMENT_3D ( 'NONE', #193, #57, #263 ) ;
#39 = ORIENTED_EDGE ( 'NONE', *, *, #150, .T. ) ;
#40 = DIRECTION ( 'NONE',  ( 0.1736481776669313026, 0.0000000000000000000, 0.9848077530122077983 ) ) ;
#41 = EDGE_LOOP ( 'NONE', ( #39, #118, #226, #271 ) ) ;
#42 = PRODUCT ( 'Micro_SFA-250-43', 'Micro_SFA-250-43', '', ( #112 ) ) ;
#43 = ORIENTED_EDGE ( 'NONE', *, *, #299, .T. ) ;
#44 = ADVANCED_FACE ( 'NONE', ( #180 ), #212, .T. ) ;
#45 = CARTESIAN_POINT ( 'NONE',  ( 0.1250000000000000555, 1.530808498934192125E-17, 0.3757089102274520087 ) ) ;
#46 = CIRCLE ( 'NONE', #22, 0.1100000000000001948 ) ;
#47 = ORIENTED_EDGE ( 'NONE', *, *, #255, .T. ) ;
#48 =( GEOMETRIC_REPRESENTATION_CONTEXT ( 3 ) GLOBAL_UNCERTAINTY_ASSIGNED_CONTEXT ( ( #34 ) ) GLOBAL_UNIT_ASSIGNED_CONTEXT ( ( #122, #234, #297 ) ) REPRESENTATION_CONTEXT ( 'NONE', 'WORKASPACE' ) );
#49 = ORIENTED_EDGE ( 'NONE', *, *, #117, .T. ) ;
#50 = EDGE_LOOP ( 'NONE', ( #199, #209 ) ) ;
#51 =( NAMED_UNIT ( * ) PLANE_ANGLE_UNIT ( ) SI_UNIT ( $, .RADIAN. ) );
#52 =( GEOMETRIC_REPRESENTATION_CONTEXT ( 3 ) GLOBAL_UNCERTAINTY_ASSIGNED_CONTEXT ( ( #257 ) ) GLOBAL_UNIT_ASSIGNED_CONTEXT ( ( #277, #51, #298 ) ) REPRESENTATION_CONTEXT ( 'NONE', 'WORKASPACE' ) );
#53 = FACE_OUTER_BOUND ( 'NONE', #50, .T. ) ;
#54 = CARTESIAN_POINT ( 'NONE',  ( 4.601107143211894218E-17, 0.0000000000000000000, 0.3757089102274520087 ) ) ;
#55 = AXIS2_PLACEMENT_3D ( 'NONE', #274, #238, #26 ) ;
#56 = ADVANCED_FACE ( 'NONE', ( #7 ), #239, .T. ) ;
#57 = DIRECTION ( 'NONE',  ( -1.224646799147353207E-16, -0.0000000000000000000, -1.000000000000000000 ) ) ;
#58 = DIRECTION ( 'NONE',  ( 0.0000000000000000000, 0.0000000000000000000, -1.000000000000000000 ) ) ;
#59 = FILL_AREA_STYLE ('',( #281 ) ) ;
#60 = CARTESIAN_POINT ( 'NONE',  ( 0.1100000000000001948, 1.347111479062090784E-17, 2.500000000000000000 ) ) ;
#61 = VERTEX_POINT ( 'NONE', #278 ) ;
#62 = CARTESIAN_POINT ( 'NONE',  ( 0.0000000000000000000, 0.0000000000000000000, 2.485000000000000320 ) ) ;
#63 = AXIS2_PLACEMENT_3D ( 'NONE', #98, #141, #74 ) ;
#64 = VERTEX_POINT ( 'NONE', #5 ) ;
#65 = DIRECTION ( 'NONE',  ( -0.7071067811865499042, 0.0000000000000000000, -0.7071067811865451302 ) ) ;
#66 =( LENGTH_UNIT ( ) NAMED_UNIT ( * ) SI_UNIT ( $, .METRE. ) );
#67 = ORIENTED_EDGE ( 'NONE', *, *, #161, .F. ) ;
#68 = CIRCLE ( 'NONE', #38, 0.1248750000000000276 ) ;
#69 = FILL_AREA_STYLE_COLOUR ( '', #139 ) ;
#70 = SURFACE_SIDE_STYLE ('',( #273 ) ) ;
#71 =( LENGTH_UNIT ( ) NAMED_UNIT ( * ) SI_UNIT ( $, .METRE. ) );
#72 = VECTOR ( 'NONE', #113, 39.37007874015748143 ) ;
#73 = LENGTH_MEASURE_WITH_UNIT ( LENGTH_MEASURE( 0.02539999999999999897 ), #71 );
#74 = DIRECTION ( 'NONE',  ( -1.000000000000000000, 0.0000000000000000000, 1.224646799147353207E-16 ) ) ;
#75 = UNCERTAINTY_MEASURE_WITH_UNIT (LENGTH_MEASURE( 1.000000000000000082E-05 ), #280, 'distance_accuracy_value', 'NONE');
#76 = EDGE_CURVE ( 'NONE', #31, #237, #9, .T. ) ;
#77 = CARTESIAN_POINT ( 'NONE',  ( -0.1248750000000000276, 0.0000000000000000000, 1.529277690435257783E-17 ) ) ;
#78 = AXIS2_PLACEMENT_3D ( 'NONE', #166, #170, #126 ) ;
#79 = EDGE_CURVE ( 'NONE', #31, #64, #189, .T. ) ;
#80 = PRESENTATION_LAYER_ASSIGNMENT (  '', '', ( #89 ) ) ;
#81 = FACE_OUTER_BOUND ( 'NONE', #151, .T. ) ;
#82 = VERTEX_POINT ( 'NONE', #267 ) ;
#83 = CARTESIAN_POINT ( 'NONE',  ( 1.872825028598994811E-33, 0.0000000000000000000, 1.529277690435257475E-17 ) ) ;
#84 = ORIENTED_EDGE ( 'NONE', *, *, #93, .F. ) ;
#85 = DIRECTION ( 'NONE',  ( 1.000000000000000000, 0.0000000000000000000, 0.0000000000000000000 ) ) ;
#86 = ADVANCED_FACE ( 'NONE', ( #290 ), #124, .T. ) ;
#87 = ORIENTED_EDGE ( 'NONE', *, *, #214, .F. ) ;
#88 =( GEOMETRIC_REPRESENTATION_CONTEXT ( 3 ) GLOBAL_UNCERTAINTY_ASSIGNED_CONTEXT ( ( #75 ) ) GLOBAL_UNIT_ASSIGNED_CONTEXT ( ( #280, #149, #206 ) ) REPRESENTATION_CONTEXT ( 'NONE', 'WORKASPACE' ) );
#89 = STYLED_ITEM ( 'NONE', ( #203 ), #272 ) ;
#90 = CARTESIAN_POINT ( 'NONE',  ( -0.1100000000000001948, 0.0000000000000000000, 2.500000000000000000 ) ) ;
#91 = PRODUCT_RELATED_PRODUCT_CATEGORY ( 'part', '', ( #42 ) ) ;
#92 = SURFACE_SIDE_STYLE ('',( #154 ) ) ;
#93 = EDGE_CURVE ( 'NONE', #31, #82, #68, .T. ) ;
#94 = VECTOR ( 'NONE', #168, 39.37007874015748143 ) ;
#95 = FACE_OUTER_BOUND ( 'NONE', #293, .T. ) ;
#96 = DIRECTION ( 'NONE',  ( 1.224646799147353207E-16, 0.0000000000000000000, 1.000000000000000000 ) ) ;
#97 = DIRECTION ( 'NONE',  ( -1.224646799147353207E-16, -0.0000000000000000000, -1.000000000000000000 ) ) ;
#98 = CARTESIAN_POINT ( 'NONE',  ( 0.0000000000000000000, 0.0000000000000000000, 0.0000000000000000000 ) ) ;
#99 = CIRCLE ( 'NONE', #276, 0.1248749999999999999 ) ;
#100 = DIRECTION ( 'NONE',  ( -1.000000000000000000, 0.0000000000000000000, 1.224646799147353454E-16 ) ) ;
#101 = DIRECTION ( 'NONE',  ( 1.000000000000000000, 0.0000000000000000000, 0.0000000000000000000 ) ) ;
#102 = FACE_OUTER_BOUND ( 'NONE', #30, .T. ) ;
#103 = CIRCLE ( 'NONE', #188, 0.1250000000000000000 ) ;
#104 = APPLICATION_PROTOCOL_DEFINITION ( 'draft international standard', 'automotive_design', 1998, #108 ) ;
#105 = CARTESIAN_POINT ( 'NONE',  ( 4.601107143211894218E-17, 0.0000000000000000000, 0.3757089102274520087 ) ) ;
#106 = ORIENTED_EDGE ( 'NONE', *, *, #299, .F. ) ;
#107 = CARTESIAN_POINT ( 'NONE',  ( 0.0000000000000000000, 0.0000000000000000000, 2.485000000000000320 ) ) ;
#108 = APPLICATION_CONTEXT ( 'automotive_design' ) ;
#109 = ORIENTED_EDGE ( 'NONE', *, *, #37, .F. ) ;
#110 = PRESENTATION_LAYER_ASSIGNMENT (  '', '', ( #146 ) ) ;
#111 = VERTEX_POINT ( 'NONE', #223 ) ;
#112 = PRODUCT_CONTEXT ( 'NONE', #17, 'mechanical' ) ;
#113 = DIRECTION ( 'NONE',  ( -0.0000000000000000000, -0.0000000000000000000, -1.000000000000000000 ) ) ;
#114 = ORIENTED_EDGE ( 'NONE', *, *, #255, .F. ) ;
#115 = ORIENTED_EDGE ( 'NONE', *, *, #76, .T. ) ;
#116 = SURFACE_STYLE_USAGE ( .BOTH. , #70 ) ;
#117 = EDGE_CURVE ( 'NONE', #135, #111, #241, .T. ) ;
#118 = ORIENTED_EDGE ( 'NONE', *, *, #225, .T. ) ;
#119 = VECTOR ( 'NONE', #147, 39.37007874015747433 ) ;
#120 = LINE ( 'NONE', #208, #194 ) ;
#121 = DIRECTION ( 'NONE',  ( 1.000000000000000000, 0.0000000000000000000, -0.0000000000000000000 ) ) ;
#122 =( CONVERSION_BASED_UNIT ( 'INCH', #261 ) LENGTH_UNIT ( ) NAMED_UNIT ( #4 ) );
#123 = AXIS2_PLACEMENT_3D ( 'NONE', #184, #24, #275 ) ;
#124 = CYLINDRICAL_SURFACE ( 'NONE', #254, 0.1248750000000000276 ) ;
#125 = FACE_OUTER_BOUND ( 'NONE', #245, .T. ) ;
#126 = DIRECTION ( 'NONE',  ( -1.000000000000000000, 0.0000000000000000000, 0.0000000000000000000 ) ) ;
#127 = AXIS2_PLACEMENT_3D ( 'NONE', #268, #244, #219 ) ;
#128 = FACE_OUTER_BOUND ( 'NONE', #41, .T. ) ;
#129 = EDGE_LOOP ( 'NONE', ( #279, #28, #133, #19 ) ) ;
#130 = PRODUCT_DEFINITION ( 'UNKNOWN', '', #13, #153 ) ;
#131 = LINE ( 'NONE', #20, #72 ) ;
#132 = CIRCLE ( 'NONE', #296, 0.1250000000000000000 ) ;
#133 = ORIENTED_EDGE ( 'NONE', *, *, #29, .T. ) ;
#134 = EDGE_CURVE ( 'NONE', #224, #64, #181, .T. ) ;
#135 = VERTEX_POINT ( 'NONE', #190 ) ;
#136 = CARTESIAN_POINT ( 'NONE',  ( 0.1248750000000000276, 1.529277690435257783E-17, -1.529277690435257783E-17 ) ) ;
#137 = EDGE_CURVE ( 'NONE', #82, #224, #218, .T. ) ;
#138 =( LENGTH_UNIT ( ) NAMED_UNIT ( * ) SI_UNIT ( $, .METRE. ) );
#139 = COLOUR_RGB ( '',0.7921568627450980005, 0.8196078431372548767, 0.9333333333333333481 ) ;
#140 = DIRECTION ( 'NONE',  ( 1.000000000000000000, 0.0000000000000000000, -0.0000000000000000000 ) ) ;
#141 = DIRECTION ( 'NONE',  ( -1.224646799147353207E-16, -0.0000000000000000000, -1.000000000000000000 ) ) ;
#142 = CARTESIAN_POINT ( 'NONE',  ( 0.0000000000000000000, 0.0000000000000000000, 0.0000000000000000000 ) ) ;
#143 = DIRECTION ( 'NONE',  ( -1.224646799147353207E-16, -0.0000000000000000000, -1.000000000000000000 ) ) ;
#144 = DIRECTION ( 'NONE',  ( -1.224646799147353207E-16, -0.0000000000000000000, -1.000000000000000000 ) ) ;
#145 = ADVANCED_FACE ( 'NONE', ( #128 ), #287, .T. ) ;
#146 = STYLED_ITEM ( 'NONE', ( #191 ), #240 ) ;
#147 = DIRECTION ( 'NONE',  ( -0.1736481776669311083, 2.126576849575782084E-17, 0.9848077530122080203 ) ) ;
#148 = CARTESIAN_POINT ( 'NONE',  ( 0.1248750000000000693, 0.0000000000000000000, 0.3749999999999999445 ) ) ;
#149 =( NAMED_UNIT ( * ) PLANE_ANGLE_UNIT ( ) SI_UNIT ( $, .RADIAN. ) );
#150 = EDGE_CURVE ( 'NONE', #250, #111, #103, .T. ) ;
#151 = EDGE_LOOP ( 'NONE', ( #228, #16, #270, #229 ) ) ;
#152 = DIRECTION ( 'NONE',  ( 1.000000000000000000, 0.0000000000000000000, 0.0000000000000000000 ) ) ;
#153 = PRODUCT_DEFINITION_CONTEXT ( 'detailed design', #108, 'design' ) ;
#154 = SURFACE_STYLE_FILL_AREA ( #59 ) ;
#155 = ORIENTED_EDGE ( 'NONE', *, *, #251, .T. ) ;
#156 = ORIENTED_EDGE ( 'NONE', *, *, #137, .F. ) ;
#157 = AXIS2_PLACEMENT_3D ( 'NONE', #242, #36, #152 ) ;
#158 = FILL_AREA_STYLE ('',( #69 ) ) ;
#159 = MECHANICAL_DESIGN_GEOMETRIC_PRESENTATION_REPRESENTATION (  '', ( #89 ), #48 ) ;
#160 = DIRECTION ( 'NONE',  ( -1.000000000000000000, 0.0000000000000000000, 1.224646799147353454E-16 ) ) ;
#161 = EDGE_CURVE ( 'NONE', #237, #61, #99, .T. ) ;
#162 = AXIS2_PLACEMENT_3D ( 'NONE', #23, #25, #140 ) ;
#163 = DIRECTION ( 'NONE',  ( 0.0000000000000000000, 0.0000000000000000000, 1.000000000000000000 ) ) ;
#164 = DIRECTION ( 'NONE',  ( 1.000000000000000000, 0.0000000000000000000, 0.0000000000000000000 ) ) ;
#165 = ADVANCED_FACE ( 'NONE', ( #102 ), #264, .T. ) ;
#166 = CARTESIAN_POINT ( 'NONE',  ( 0.0000000000000000000, 0.0000000000000000000, 2.500000000000000000 ) ) ;
#167 = AXIS2_PLACEMENT_3D ( 'NONE', #105, #265, #8 ) ;
#168 = DIRECTION ( 'NONE',  ( 0.7071067811865499042, 8.659560562354961208E-17, -0.7071067811865451302 ) ) ;
#169 = AXIS2_PLACEMENT_3D ( 'NONE', #142, #163, #121 ) ;
#170 = DIRECTION ( 'NONE',  ( -0.0000000000000000000, -0.0000000000000000000, -1.000000000000000000 ) ) ;
#171 = DIRECTION ( 'NONE',  ( -1.000000000000000000, 0.0000000000000000000, 0.0000000000000000000 ) ) ;
#172 = ADVANCED_FACE ( 'NONE', ( #222 ), #283, .T. ) ;
#173 = ORIENTED_EDGE ( 'NONE', *, *, #150, .F. ) ;
#174 = LENGTH_MEASURE_WITH_UNIT ( LENGTH_MEASURE( 0.02539999999999999897 ), #66 );
#175 = DIRECTION ( 'NONE',  ( 0.0000000000000000000, 0.0000000000000000000, 1.000000000000000000 ) ) ;
#176 = CIRCLE ( 'NONE', #123, 0.1100000000000001948 ) ;
#177 = PRODUCT_DEFINITION_SHAPE ( 'NONE', 'NONE',  #130 ) ;
#178 = ADVANCED_FACE ( 'NONE', ( #125 ), #33, .T. ) ;
#179 = APPLICATION_PROTOCOL_DEFINITION ( 'draft international standard', 'automotive_design', 1998, #17 ) ;
#180 = FACE_OUTER_BOUND ( 'NONE', #288, .T. ) ;
#181 = CIRCLE ( 'NONE', #167, 0.1250000000000000000 ) ;
#182 = DIRECTION ( 'NONE',  ( 1.000000000000000000, 0.0000000000000000000, 0.0000000000000000000 ) ) ;
#183 = DIRECTION ( 'NONE',  ( 1.000000000000000000, 0.0000000000000000000, 0.0000000000000000000 ) ) ;
#184 = CARTESIAN_POINT ( 'NONE',  ( 0.0000000000000000000, 0.0000000000000000000, 2.500000000000000000 ) ) ;
#185 = ADVANCED_FACE ( 'NONE', ( #81 ), #216, .T. ) ;
#186 = CARTESIAN_POINT ( 'NONE',  ( 0.0000000000000000000, 0.0000000000000000000, 2.500000000000000000 ) ) ;
#187 = CARTESIAN_POINT ( 'NONE',  ( 0.0000000000000000000, 0.0000000000000000000, 0.0000000000000000000 ) ) ;
#188 = AXIS2_PLACEMENT_3D ( 'NONE', #62, #15, #101 ) ;
#189 = LINE ( 'NONE', #12, #119 ) ;
#190 = CARTESIAN_POINT ( 'NONE',  ( 0.1100000000000001948, 1.438959988998141146E-17, 2.500000000000000000 ) ) ;
#191 = PRESENTATION_STYLE_ASSIGNMENT (( #243 ) ) ;
#192 = ORIENTED_EDGE ( 'NONE', *, *, #79, .T. ) ;
#193 = CARTESIAN_POINT ( 'NONE',  ( 4.592425496802573602E-17, 0.0000000000000000000, 0.3749999999999999445 ) ) ;
#194 = VECTOR ( 'NONE', #215, 39.37007874015748143 ) ;
#195 = VECTOR ( 'NONE', #65, 39.37007874015748143 ) ;
#196 = ORIENTED_EDGE ( 'NONE', *, *, #117, .F. ) ;
#197 = CARTESIAN_POINT ( 'NONE',  ( -0.1248749999999999999, 0.0000000000000000000, 3.058555380870514950E-17 ) ) ;
#198 = EDGE_LOOP ( 'NONE', ( #84, #192, #155, #156 ) ) ;
#199 = ORIENTED_EDGE ( 'NONE', *, *, #161, .T. ) ;
#200 = EDGE_CURVE ( 'NONE', #111, #250, #132, .T. ) ;
#201 = CARTESIAN_POINT ( 'NONE',  ( -0.1250000000000000000, 0.0000000000000000000, 2.485000000000000320 ) ) ;
#202 = LINE ( 'NONE', #90, #195 ) ;
#203 = PRESENTATION_STYLE_ASSIGNMENT (( #116 ) ) ;
#204 = ORIENTED_EDGE ( 'NONE', *, *, #214, .T. ) ;
#205 = PLANE ( 'NONE',  #169 ) ;
#206 =( NAMED_UNIT ( * ) SI_UNIT ( $, .STERADIAN. ) SOLID_ANGLE_UNIT ( ) );
#207 = DIMENSIONAL_EXPONENTS ( 1.000000000000000000, 0.0000000000000000000, 0.0000000000000000000, 0.0000000000000000000, 0.0000000000000000000, 0.0000000000000000000, 0.0000000000000000000 ) ;
#208 = CARTESIAN_POINT ( 'NONE',  ( -0.1250000000000000000, 0.0000000000000000000, 2.500000000000000000 ) ) ;
#209 = ORIENTED_EDGE ( 'NONE', *, *, #37, .T. ) ;
#210 = CARTESIAN_POINT ( 'NONE',  ( -0.1100000000000001948, 0.0000000000000000000, 2.500000000000000000 ) ) ;
#211 = AXIS2_PLACEMENT_3D ( 'NONE', #289, #175, #85 ) ;
#212 = CYLINDRICAL_SURFACE ( 'NONE', #63, 0.1248750000000000276 ) ;
#213 = CARTESIAN_POINT ( 'NONE',  ( -0.1248749999999999721, 1.530043094684724646E-17, 0.3749999999999999445 ) ) ;
#214 = EDGE_CURVE ( 'NONE', #292, #250, #202, .T. ) ;
#215 = DIRECTION ( 'NONE',  ( -0.0000000000000000000, -0.0000000000000000000, -1.000000000000000000 ) ) ;
#216 = CONICAL_SURFACE ( 'NONE', #157, 0.1248750000000000276, 0.1745329251994338082 ) ;
#217 = DIRECTION ( 'NONE',  ( -0.0000000000000000000, -0.0000000000000000000, -1.000000000000000000 ) ) ;
#218 = LINE ( 'NONE', #148, #221 ) ;
#219 = DIRECTION ( 'NONE',  ( -1.000000000000000000, 0.0000000000000000000, 0.0000000000000000000 ) ) ;
#220 = CIRCLE ( 'NONE', #295, 0.1248749999999999999 ) ;
#221 = VECTOR ( 'NONE', #40, 39.37007874015748143 ) ;
#222 = FACE_OUTER_BOUND ( 'NONE', #129, .T. ) ;
#223 = CARTESIAN_POINT ( 'NONE',  ( 0.1250000000000000000, 1.530808498934191509E-17, 2.485000000000000320 ) ) ;
#224 = VERTEX_POINT ( 'NONE', #45 ) ;
#225 = EDGE_CURVE ( 'NONE', #111, #224, #131, .T. ) ;
#226 = ORIENTED_EDGE ( 'NONE', *, *, #251, .F. ) ;
#227 = CIRCLE ( 'NONE', #55, 0.1248750000000000276 ) ;
#228 = ORIENTED_EDGE ( 'NONE', *, *, #79, .F. ) ;
#229 = ORIENTED_EDGE ( 'NONE', *, *, #134, .T. ) ;
#230 = ORIENTED_EDGE ( 'NONE', *, *, #200, .F. ) ;
#231 = PLANE ( 'NONE',  #162 ) ;
#232 = VECTOR ( 'NONE', #144, 39.37007874015748143 ) ;
#233 = ORIENTED_EDGE ( 'NONE', *, *, #247, .T. ) ;
#234 =( NAMED_UNIT ( * ) PLANE_ANGLE_UNIT ( ) SI_UNIT ( $, .RADIAN. ) );
#235 = DIRECTION ( 'NONE',  ( 0.0000000000000000000, 0.0000000000000000000, 1.000000000000000000 ) ) ;
#236 = CARTESIAN_POINT ( 'NONE',  ( 4.592425496802573602E-17, 0.0000000000000000000, 0.3749999999999999445 ) ) ;
#237 = VERTEX_POINT ( 'NONE', #197 ) ;
#238 = DIRECTION ( 'NONE',  ( -1.224646799147353207E-16, -0.0000000000000000000, -1.000000000000000000 ) ) ;
#239 = CONICAL_SURFACE ( 'NONE', #249, 0.1248750000000000276, 0.1745329251994338082 ) ;
#240 = MANIFOLD_SOLID_BREP ( 'Cut-Revolve1', #266 ) ;
#241 = LINE ( 'NONE', #60, #94 ) ;
#242 = CARTESIAN_POINT ( 'NONE',  ( 4.592425496802573602E-17, 0.0000000000000000000, 0.3749999999999999445 ) ) ;
#243 = SURFACE_STYLE_USAGE ( .BOTH. , #92 ) ;
#244 = DIRECTION ( 'NONE',  ( 0.0000000000000000000, 0.0000000000000000000, -1.000000000000000000 ) ) ;
#245 = EDGE_LOOP ( 'NONE', ( #196, #114, #204, #230 ) ) ;
#246 = DIRECTION ( 'NONE',  ( -1.000000000000000000, 0.0000000000000000000, 0.0000000000000000000 ) ) ;
#247 = EDGE_CURVE ( 'NONE', #82, #61, #1, .T. ) ;
#248 = ORIENTED_EDGE ( 'NONE', *, *, #93, .T. ) ;
#249 = AXIS2_PLACEMENT_3D ( 'NONE', #236, #96, #183 ) ;
#250 = VERTEX_POINT ( 'NONE', #201 ) ;
#251 = EDGE_CURVE ( 'NONE', #64, #224, #27, .T. ) ;
#252 = ORIENTED_EDGE ( 'NONE', *, *, #259, .T. ) ;
#253 = DIRECTION ( 'NONE',  ( 1.000000000000000000, 0.0000000000000000000, 0.0000000000000000000 ) ) ;
#254 = AXIS2_PLACEMENT_3D ( 'NONE', #187, #35, #285 ) ;
#255 = EDGE_CURVE ( 'NONE', #292, #135, #176, .T. ) ;
#256 = DIRECTION ( 'NONE',  ( -1.224646799147353207E-16, -0.0000000000000000000, -1.000000000000000000 ) ) ;
#257 = UNCERTAINTY_MEASURE_WITH_UNIT (LENGTH_MEASURE( 1.000000000000000082E-05 ), #277, 'distance_accuracy_value', 'NONE');
#258 = CARTESIAN_POINT ( 'NONE',  ( 0.0000000000000000000, 0.0000000000000000000, 2.500000000000000000 ) ) ;
#259 = EDGE_CURVE ( 'NONE', #82, #31, #227, .T. ) ;
#260 = AXIS2_PLACEMENT_3D ( 'NONE', #32, #217, #246 ) ;
#261 = LENGTH_MEASURE_WITH_UNIT ( LENGTH_MEASURE( 0.02539999999999999897 ), #138 );
#262 = DIRECTION ( 'NONE',  ( 0.0000000000000000000, 0.0000000000000000000, -1.000000000000000000 ) ) ;
#263 = DIRECTION ( 'NONE',  ( -1.000000000000000000, 0.0000000000000000000, 0.0000000000000000000 ) ) ;
#264 = CONICAL_SURFACE ( 'NONE', #11, 0.1100000000000001948, 0.7853981633974517207 ) ;
#265 = DIRECTION ( 'NONE',  ( -1.224646799147353207E-16, -0.0000000000000000000, -1.000000000000000000 ) ) ;
#266 = CLOSED_SHELL ( 'NONE', ( #44, #56, #165, #145, #172, #284, #178, #185, #86, #6 ) ) ;
#267 = CARTESIAN_POINT ( 'NONE',  ( 0.1248750000000000693, 0.0000000000000000000, 0.3749999999999999445 ) ) ;
#268 = CARTESIAN_POINT ( 'NONE',  ( 0.0000000000000000000, 0.0000000000000000000, 2.500000000000000000 ) ) ;
#269 = COLOUR_RGB ( '',0.7921568627450980005, 0.8196078431372548767, 0.9333333333333333481 ) ;
#270 = ORIENTED_EDGE ( 'NONE', *, *, #137, .T. ) ;
#271 = ORIENTED_EDGE ( 'NONE', *, *, #29, .F. ) ;
#272 = ADVANCED_BREP_SHAPE_REPRESENTATION ( 'Micro_SFA-250-43', ( #240, #211 ), #52 ) ;
#273 = SURFACE_STYLE_FILL_AREA ( #158 ) ;
#274 = CARTESIAN_POINT ( 'NONE',  ( 4.592425496802573602E-17, 0.0000000000000000000, 0.3749999999999999445 ) ) ;
#275 = DIRECTION ( 'NONE',  ( 1.000000000000000000, 0.0000000000000000000, 0.0000000000000000000 ) ) ;
#276 = AXIS2_PLACEMENT_3D ( 'NONE', #83, #10, #100 ) ;
#277 =( CONVERSION_BASED_UNIT ( 'INCH', #73 ) LENGTH_UNIT ( ) NAMED_UNIT ( #282 ) );
#278 = CARTESIAN_POINT ( 'NONE',  ( 0.1248749999999999999, 1.529277690435257475E-17, 1.895600338963814870E-33 ) ) ;
#279 = ORIENTED_EDGE ( 'NONE', *, *, #225, .F. ) ;
#280 =( CONVERSION_BASED_UNIT ( 'INCH', #174 ) LENGTH_UNIT ( ) NAMED_UNIT ( #207 ) );
#281 = FILL_AREA_STYLE_COLOUR ( '', #269 ) ;
#282 = DIMENSIONAL_EXPONENTS ( 1.000000000000000000, 0.0000000000000000000, 0.0000000000000000000, 0.0000000000000000000, 0.0000000000000000000, 0.0000000000000000000, 0.0000000000000000000 ) ;
#283 = CYLINDRICAL_SURFACE ( 'NONE', #78, 0.1250000000000000000 ) ;
#284 = ADVANCED_FACE ( 'NONE', ( #95 ), #231, .T. ) ;
#285 = DIRECTION ( 'NONE',  ( -1.000000000000000000, 0.0000000000000000000, 1.224646799147353207E-16 ) ) ;
#286 = ORIENTED_EDGE ( 'NONE', *, *, #76, .F. ) ;
#287 = CYLINDRICAL_SURFACE ( 'NONE', #260, 0.1250000000000000000 ) ;
#288 = EDGE_LOOP ( 'NONE', ( #248, #233, #67, #286 ) ) ;
#289 = CARTESIAN_POINT ( 'NONE',  ( 0.0000000000000000000, 0.0000000000000000000, 0.0000000000000000000 ) ) ;
#290 = FACE_OUTER_BOUND ( 'NONE', #21, .T. ) ;
#291 = VECTOR ( 'NONE', #97, 39.37007874015748143 ) ;
#292 = VERTEX_POINT ( 'NONE', #210 ) ;
#293 = EDGE_LOOP ( 'NONE', ( #47, #43 ) ) ;
#294 = SHAPE_DEFINITION_REPRESENTATION ( #177, #272 ) ;
#295 = AXIS2_PLACEMENT_3D ( 'NONE', #3, #143, #160 ) ;
#296 = AXIS2_PLACEMENT_3D ( 'NONE', #107, #262, #164 ) ;
#297 =( NAMED_UNIT ( * ) SI_UNIT ( $, .STERADIAN. ) SOLID_ANGLE_UNIT ( ) );
#298 =( NAMED_UNIT ( * ) SI_UNIT ( $, .STERADIAN. ) SOLID_ANGLE_UNIT ( ) );
#299 = EDGE_CURVE ( 'NONE', #135, #292, #46, .T. ) ;
ENDSEC;
END-ISO-10303-21;
