ISO-10303-21;
HEADER;
FILE_DESCRIPTION (( 'STEP AP214' ),
    '1' );
FILE_NAME ('01510.STEP',
    '2023-06-22T14:34:49',
    ( '' ),
    ( '' ),
    'SwSTEP 2.0',
    'SolidWorks 2023',
    '' );
FILE_SCHEMA (( 'AUTOMOTIVE_DESIGN' ));
ENDSEC;

DATA;
#1 = DIRECTION ( 'NONE',  ( 0.000000000000000000, 0.000000000000000000, -1.000000000000000000 ) ) ;
#2 =( GEOMETRIC_REPRESENTATION_CONTEXT ( 3 ) GLOBAL_UNCERTAINTY_ASSIGNED_CONTEXT ( ( #16 ) ) GLOBAL_UNIT_ASSIGNED_CONTEXT ( ( #275, #88, #85 ) ) REPRESENTATION_CONTEXT ( 'NONE', 'WORKASPACE' ) );
#3 = FILL_AREA_STYLE ('',( #211 ) ) ;
#4 = AXIS2_PLACEMENT_3D ( 'NONE', #306, #184, #279 ) ;
#5 = SURFACE_SIDE_STYLE ('',( #133 ) ) ;
#6 = FACE_OUTER_BOUND ( 'NONE', #145, .T. ) ;
#7 = FILL_AREA_STYLE ('',( #289 ) ) ;
#8 = CARTESIAN_POINT ( 'NONE',  ( 3.061616997868383018E-17, 0.000000000000000000, 0.2500000000000000000 ) ) ;
#9 = ORIENTED_EDGE ( 'NONE', *, *, #268, .T. ) ;
#10 = ORIENTED_EDGE ( 'NONE', *, *, #173, .F. ) ;
#11 = LINE ( 'NONE', #39, #123 ) ;
#12 = DIRECTION ( 'NONE',  ( 0.000000000000000000, 0.000000000000000000, -1.000000000000000000 ) ) ;
#13 = FACE_OUTER_BOUND ( 'NONE', #27, .T. ) ;
#14 = FACE_OUTER_BOUND ( 'NONE', #76, .T. ) ;
#15 = CARTESIAN_POINT ( 'NONE',  ( 0.000000000000000000, 0.000000000000000000, -0.2500000000000000000 ) ) ;
#16 = UNCERTAINTY_MEASURE_WITH_UNIT (LENGTH_MEASURE( 1.000000000000000082E-05 ), #275, 'distance_accuracy_value', 'NONE');
#17 = CARTESIAN_POINT ( 'NONE',  ( 0.000000000000000000, 0.000000000000000000, 0.000000000000000000 ) ) ;
#18 = EDGE_CURVE ( 'NONE', #79, #247, #159, .T. ) ;
#19 = FILL_AREA_STYLE ('',( #70 ) ) ;
#20 = STYLED_ITEM ( 'NONE', ( #171 ), #29 ) ;
#21 = PRODUCT_DEFINITION ( 'UNKNOWN', '', #168, #92 ) ;
#22 = DIRECTION ( 'NONE',  ( 0.000000000000000000, 0.000000000000000000, -1.000000000000000000 ) ) ;
#23 =( LENGTH_UNIT ( ) NAMED_UNIT ( * ) SI_UNIT ( $, .METRE. ) );
#24 = CIRCLE ( 'NONE', #4, 0.2500000000000001110 ) ;
#25 = CARTESIAN_POINT ( 'NONE',  ( 0.000000000000000000, 0.000000000000000000, 0.000000000000000000 ) ) ;
#26 = SURFACE_STYLE_FILL_AREA ( #144 ) ;
#27 = EDGE_LOOP ( 'NONE', ( #36, #227, #103, #225 ) ) ;
#28 = SURFACE_SIDE_STYLE ('',( #282 ) ) ;
#29 = ADVANCED_FACE ( 'NONE', ( #6 ), #81, .T. ) ;
#30 = LENGTH_MEASURE_WITH_UNIT ( LENGTH_MEASURE( 0.02539999999999999897 ), #101 );
#31 = AXIS2_PLACEMENT_3D ( 'NONE', #203, #153, #40 ) ;
#32 = COLOUR_RGB ( '',1.000000000000000000, 0.000000000000000000, 0.000000000000000000 ) ;
#33 = APPLICATION_PROTOCOL_DEFINITION ( 'draft international standard', 'automotive_design', 1998, #288 ) ;
#34 = SURFACE_STYLE_FILL_AREA ( #3 ) ;
#35 = DIRECTION ( 'NONE',  ( 0.000000000000000000, 0.000000000000000000, -1.000000000000000000 ) ) ;
#36 = ORIENTED_EDGE ( 'NONE', *, *, #44, .T. ) ;
#37 = CARTESIAN_POINT ( 'NONE',  ( 0.000000000000000000, 0.000000000000000000, -0.2500000000000000000 ) ) ;
#38 = COLOUR_RGB ( '',1.000000000000000000, 0.000000000000000000, 0.000000000000000000 ) ;
#39 = CARTESIAN_POINT ( 'NONE',  ( 0.2499999999999999167, 5.000000000000000000, 3.061616997868383634E-17 ) ) ;
#40 = DIRECTION ( 'NONE',  ( -1.000000000000000000, 0.000000000000000000, 0.000000000000000000 ) ) ;
#41 = EDGE_CURVE ( 'NONE', #190, #105, #42, .T. ) ;
#42 = CIRCLE ( 'NONE', #238, 0.2500000000000000000 ) ;
#43 = AXIS2_PLACEMENT_3D ( 'NONE', #283, #236, #22 ) ;
#44 = EDGE_CURVE ( 'NONE', #271, #62, #63, .T. ) ;
#45 = DIRECTION ( 'NONE',  ( 4.898587196589412459E-17, -1.000000000000000000, 0.000000000000000000 ) ) ;
#46 = DIMENSIONAL_EXPONENTS ( 1.000000000000000000, 0.000000000000000000, 0.000000000000000000, 0.000000000000000000, 0.000000000000000000, 0.000000000000000000, 0.000000000000000000 ) ;
#47 = STYLED_ITEM ( 'NONE', ( #164 ), #114 ) ;
#48 = DIRECTION ( 'NONE',  ( -0.000000000000000000, -1.000000000000000000, -0.000000000000000000 ) ) ;
#49 = LENGTH_MEASURE_WITH_UNIT ( LENGTH_MEASURE( 0.02539999999999999897 ), #122 );
#50 = SURFACE_STYLE_USAGE ( .BOTH. , #210 ) ;
#51 = DIMENSIONAL_EXPONENTS ( 1.000000000000000000, 0.000000000000000000, 0.000000000000000000, 0.000000000000000000, 0.000000000000000000, 0.000000000000000000, 0.000000000000000000 ) ;
#52 =( NAMED_UNIT ( * ) SI_UNIT ( $, .STERADIAN. ) SOLID_ANGLE_UNIT ( ) );
#53 = STYLED_ITEM ( 'NONE', ( #160 ), #113 ) ;
#54 = CIRCLE ( 'NONE', #234, 0.2500000000000000000 ) ;
#55 = ORIENTED_EDGE ( 'NONE', *, *, #41, .F. ) ;
#56 = ORIENTED_EDGE ( 'NONE', *, *, #300, .T. ) ;
#57 = SURFACE_STYLE_USAGE ( .BOTH. , #274 ) ;
#58 = CYLINDRICAL_SURFACE ( 'NONE', #43, 0.2500000000000000000 ) ;
#59 = ORIENTED_EDGE ( 'NONE', *, *, #239, .T. ) ;
#60 = MECHANICAL_DESIGN_GEOMETRIC_PRESENTATION_REPRESENTATION (  '', ( #201 ), #257 ) ;
#61 = DIRECTION ( 'NONE',  ( -4.898587196589413075E-17, 1.000000000000000000, -0.000000000000000000 ) ) ;
#62 = VERTEX_POINT ( 'NONE', #235 ) ;
#63 = CIRCLE ( 'NONE', #31, 0.2500000000000000000 ) ;
#64 = DIRECTION ( 'NONE',  ( -1.000000000000000000, 0.000000000000000000, 0.000000000000000000 ) ) ;
#65 =( NAMED_UNIT ( * ) SI_UNIT ( $, .STERADIAN. ) SOLID_ANGLE_UNIT ( ) );
#66 = CARTESIAN_POINT ( 'NONE',  ( -0.2500000000000002776, 5.000000000000000000, 0.000000000000000000 ) ) ;
#67 = AXIS2_PLACEMENT_3D ( 'NONE', #242, #295, #240 ) ;
#68 = EDGE_CURVE ( 'NONE', #125, #220, #167, .T. ) ;
#69 = UNCERTAINTY_MEASURE_WITH_UNIT (LENGTH_MEASURE( 1.000000000000000082E-05 ), #270, 'distance_accuracy_value', 'NONE');
#70 = FILL_AREA_STYLE_COLOUR ( '', #102 ) ;
#71 = AXIS2_PLACEMENT_3D ( 'NONE', #157, #256, #233 ) ;
#72 = ORIENTED_EDGE ( 'NONE', *, *, #41, .T. ) ;
#73 = UNCERTAINTY_MEASURE_WITH_UNIT (LENGTH_MEASURE( 1.000000000000000082E-05 ), #127, 'distance_accuracy_value', 'NONE');
#74 = PRESENTATION_LAYER_ASSIGNMENT (  '', '', ( #53 ) ) ;
#75 = DIRECTION ( 'NONE',  ( 1.000000000000000000, 0.000000000000000000, 0.000000000000000000 ) ) ;
#76 = EDGE_LOOP ( 'NONE', ( #128, #55 ) ) ;
#77 =( NAMED_UNIT ( * ) SI_UNIT ( $, .STERADIAN. ) SOLID_ANGLE_UNIT ( ) );
#78 =( LENGTH_UNIT ( ) NAMED_UNIT ( * ) SI_UNIT ( $, .METRE. ) );
#79 = VERTEX_POINT ( 'NONE', #66 ) ;
#80 = LINE ( 'NONE', #8, #83 ) ;
#81 = CYLINDRICAL_SURFACE ( 'NONE', #183, 0.2500000000000000000 ) ;
#82 =( CONVERSION_BASED_UNIT ( 'INCH', #104 ) LENGTH_UNIT ( ) NAMED_UNIT ( #99 ) );
#83 = VECTOR ( 'NONE', #156, 39.37007874015748143 ) ;
#84 = AXIS2_PLACEMENT_3D ( 'NONE', #206, #263, #1 ) ;
#85 =( NAMED_UNIT ( * ) SI_UNIT ( $, .STERADIAN. ) SOLID_ANGLE_UNIT ( ) );
#86 = EDGE_LOOP ( 'NONE', ( #302, #294 ) ) ;
#87 = APPLICATION_CONTEXT ( 'automotive_design' ) ;
#88 =( NAMED_UNIT ( * ) PLANE_ANGLE_UNIT ( ) SI_UNIT ( $, .RADIAN. ) );
#89 = CYLINDRICAL_SURFACE ( 'NONE', #237, 0.2500000000000000555 ) ;
#90 = CLOSED_SHELL ( 'NONE', ( #100, #193, #158, #251 ) ) ;
#91 = PLANE ( 'NONE',  #165 ) ;
#92 = PRODUCT_DEFINITION_CONTEXT ( 'detailed design', #288, 'design' ) ;
#93 = SURFACE_STYLE_FILL_AREA ( #126 ) ;
#94 = LENGTH_MEASURE_WITH_UNIT ( LENGTH_MEASURE( 0.02539999999999999897 ), #23 );
#95 = CARTESIAN_POINT ( 'NONE',  ( -0.2500000000000002220, 5.000000000000000000, 0.000000000000000000 ) ) ;
#96 = FILL_AREA_STYLE_COLOUR ( '', #152 ) ;
#97 = MECHANICAL_DESIGN_GEOMETRIC_PRESENTATION_REPRESENTATION (  '', ( #53 ), #110 ) ;
#98 = FACE_OUTER_BOUND ( 'NONE', #170, .T. ) ;
#99 = DIMENSIONAL_EXPONENTS ( 1.000000000000000000, 0.000000000000000000, 0.000000000000000000, 0.000000000000000000, 0.000000000000000000, 0.000000000000000000, 0.000000000000000000 ) ;
#100 = ADVANCED_FACE ( 'NONE', ( #13 ), #89, .T. ) ;
#101 =( LENGTH_UNIT ( ) NAMED_UNIT ( * ) SI_UNIT ( $, .METRE. ) );
#102 = COLOUR_RGB ( '',1.000000000000000000, 0.000000000000000000, 0.000000000000000000 ) ;
#103 = ORIENTED_EDGE ( 'NONE', *, *, #18, .F. ) ;
#104 = LENGTH_MEASURE_WITH_UNIT ( LENGTH_MEASURE( 0.02539999999999999897 ), #241 );
#105 = VERTEX_POINT ( 'NONE', #255 ) ;
#106 = MANIFOLD_SOLID_BREP ( 'Revolve - Cutting Edge', #280 ) ;
#107 = CARTESIAN_POINT ( 'NONE',  ( 3.061616997868383018E-17, 0.000000000000000000, 0.2500000000000000000 ) ) ;
#108 = PRESENTATION_STYLE_ASSIGNMENT (( #147 ) ) ;
#109 = ORIENTED_EDGE ( 'NONE', *, *, #216, .T. ) ;
#110 =( GEOMETRIC_REPRESENTATION_CONTEXT ( 3 ) GLOBAL_UNCERTAINTY_ASSIGNED_CONTEXT ( ( #69 ) ) GLOBAL_UNIT_ASSIGNED_CONTEXT ( ( #270, #143, #77 ) ) REPRESENTATION_CONTEXT ( 'NONE', 'WORKASPACE' ) );
#111 = ORIENTED_EDGE ( 'NONE', *, *, #205, .F. ) ;
#112 = DIRECTION ( 'NONE',  ( -4.898587196589412459E-17, 1.000000000000000000, -0.000000000000000000 ) ) ;
#113 = MANIFOLD_SOLID_BREP ( 'Revolve - Tool Body (Straight Shanked)', #90 ) ;
#114 = ADVANCED_FACE ( 'NONE', ( #14 ), #186, .T. ) ;
#115 = FACE_OUTER_BOUND ( 'NONE', #246, .T. ) ;
#116 = MECHANICAL_DESIGN_GEOMETRIC_PRESENTATION_REPRESENTATION (  '', ( #20 ), #291 ) ;
#117 = CARTESIAN_POINT ( 'NONE',  ( 0.2500000000000000555, 5.000000000000000000, 3.061616997868384251E-17 ) ) ;
#118 = FACE_OUTER_BOUND ( 'NONE', #86, .T. ) ;
#119 = STYLED_ITEM ( 'NONE', ( #175 ), #226 ) ;
#120 = DIMENSIONAL_EXPONENTS ( 1.000000000000000000, 0.000000000000000000, 0.000000000000000000, 0.000000000000000000, 0.000000000000000000, 0.000000000000000000, 0.000000000000000000 ) ;
#121 =( CONVERSION_BASED_UNIT ( 'INCH', #266 ) LENGTH_UNIT ( ) NAMED_UNIT ( #120 ) );
#122 =( LENGTH_UNIT ( ) NAMED_UNIT ( * ) SI_UNIT ( $, .METRE. ) );
#123 = VECTOR ( 'NONE', #112, 39.37007874015748143 ) ;
#124 =( GEOMETRIC_REPRESENTATION_CONTEXT ( 3 ) GLOBAL_UNCERTAINTY_ASSIGNED_CONTEXT ( ( #202 ) ) GLOBAL_UNIT_ASSIGNED_CONTEXT ( ( #121, #281, #260 ) ) REPRESENTATION_CONTEXT ( 'NONE', 'WORKASPACE' ) );
#125 = VERTEX_POINT ( 'NONE', #107 ) ;
#126 = FILL_AREA_STYLE ('',( #180 ) ) ;
#127 =( CONVERSION_BASED_UNIT ( 'INCH', #272 ) LENGTH_UNIT ( ) NAMED_UNIT ( #46 ) );
#128 = ORIENTED_EDGE ( 'NONE', *, *, #239, .F. ) ;
#129 = PRESENTATION_LAYER_ASSIGNMENT (  '', '', ( #292 ) ) ;
#130 = SHAPE_DEFINITION_REPRESENTATION ( #204, #243 ) ;
#131 = ORIENTED_EDGE ( 'NONE', *, *, #136, .T. ) ;
#132 = EDGE_CURVE ( 'NONE', #190, #125, #80, .T. ) ;
#133 = SURFACE_STYLE_FILL_AREA ( #7 ) ;
#134 = ORIENTED_EDGE ( 'NONE', *, *, #132, .F. ) ;
#135 = FACE_OUTER_BOUND ( 'NONE', #212, .T. ) ;
#136 = EDGE_CURVE ( 'NONE', #105, #220, #172, .T. ) ;
#137 = DIRECTION ( 'NONE',  ( -0.000000000000000000, -1.000000000000000000, -0.000000000000000000 ) ) ;
#138 = AXIS2_PLACEMENT_3D ( 'NONE', #273, #61, #248 ) ;
#139 = DIRECTION ( 'NONE',  ( -0.000000000000000000, -1.000000000000000000, -0.000000000000000000 ) ) ;
#140 = MECHANICAL_DESIGN_GEOMETRIC_PRESENTATION_REPRESENTATION (  '', ( #292 ), #214 ) ;
#141 = DIRECTION ( 'NONE',  ( -4.898587196589412459E-17, 1.000000000000000000, -0.000000000000000000 ) ) ;
#142 = VECTOR ( 'NONE', #141, 39.37007874015748143 ) ;
#143 =( NAMED_UNIT ( * ) PLANE_ANGLE_UNIT ( ) SI_UNIT ( $, .RADIAN. ) );
#144 = FILL_AREA_STYLE ('',( #217 ) ) ;
#145 = EDGE_LOOP ( 'NONE', ( #59, #287, #197, #166 ) ) ;
#146 = AXIS2_PLACEMENT_3D ( 'NONE', #253, #139, #231 ) ;
#147 = SURFACE_STYLE_USAGE ( .BOTH. , #5 ) ;
#148 = ORIENTED_EDGE ( 'NONE', *, *, #18, .T. ) ;
#149 = CARTESIAN_POINT ( 'NONE',  ( 0.000000000000000000, 0.000000000000000000, 0.000000000000000000 ) ) ;
#150 = DIRECTION ( 'NONE',  ( 0.000000000000000000, -1.000000000000000000, -0.000000000000000000 ) ) ;
#151 = CARTESIAN_POINT ( 'NONE',  ( 0.000000000000000000, 2.500000000000000000, 0.000000000000000000 ) ) ;
#152 = COLOUR_RGB ( '',0.7921568627450980005, 0.8196078431372548767, 0.9333333333333333481 ) ;
#153 = DIRECTION ( 'NONE',  ( -4.898587196589413075E-17, 1.000000000000000000, -0.000000000000000000 ) ) ;
#154 = AXIS2_PLACEMENT_3D ( 'NONE', #149, #191, #75 ) ;
#155 = DIRECTION ( 'NONE',  ( -4.898587196589412459E-17, 1.000000000000000000, 0.000000000000000000 ) ) ;
#156 = DIRECTION ( 'NONE',  ( -0.000000000000000000, -1.000000000000000000, -0.000000000000000000 ) ) ;
#157 = CARTESIAN_POINT ( 'NONE',  ( 1.516480271171051896E-32, 2.500000000000000000, 0.000000000000000000 ) ) ;
#158 = ADVANCED_FACE ( 'NONE', ( #135 ), #254, .T. ) ;
#159 = CIRCLE ( 'NONE', #67, 0.2500000000000001110 ) ;
#160 = PRESENTATION_STYLE_ASSIGNMENT (( #182 ) ) ;
#161 = DIMENSIONAL_EXPONENTS ( 1.000000000000000000, 0.000000000000000000, 0.000000000000000000, 0.000000000000000000, 0.000000000000000000, 0.000000000000000000, 0.000000000000000000 ) ;
#162 = PLANE ( 'NONE',  #258 ) ;
#163 = SURFACE_STYLE_FILL_AREA ( #293 ) ;
#164 = PRESENTATION_STYLE_ASSIGNMENT (( #222 ) ) ;
#165 = AXIS2_PLACEMENT_3D ( 'NONE', #25, #150, #35 ) ;
#166 = ORIENTED_EDGE ( 'NONE', *, *, #136, .F. ) ;
#167 = CIRCLE ( 'NONE', #146, 0.2500000000000000000 ) ;
#168 = PRODUCT_DEFINITION_FORMATION_WITH_SPECIFIED_SOURCE ( 'ANY', '', #195, .NOT_KNOWN. ) ;
#169 = APPLICATION_PROTOCOL_DEFINITION ( 'draft international standard', 'automotive_design', 1998, #87 ) ;
#170 = EDGE_LOOP ( 'NONE', ( #148, #187 ) ) ;
#171 = PRESENTATION_STYLE_ASSIGNMENT (( #57 ) ) ;
#172 = LINE ( 'NONE', #37, #213 ) ;
#173 = EDGE_CURVE ( 'NONE', #62, #247, #11, .T. ) ;
#174 = DIRECTION ( 'NONE',  ( 0.000000000000000000, 1.000000000000000000, 0.000000000000000000 ) ) ;
#175 = PRESENTATION_STYLE_ASSIGNMENT (( #245 ) ) ;
#176 =( LENGTH_UNIT ( ) NAMED_UNIT ( * ) SI_UNIT ( $, .METRE. ) );
#177 = COLOUR_RGB ( '',0.7921568627450980005, 0.8196078431372548767, 0.9333333333333333481 ) ;
#178 = CARTESIAN_POINT ( 'NONE',  ( -1.224646799147353207E-16, 5.000000000000000000, 0.000000000000000000 ) ) ;
#179 = DIRECTION ( 'NONE',  ( -1.000000000000000000, -4.898587196589412459E-17, 0.000000000000000000 ) ) ;
#180 = FILL_AREA_STYLE_COLOUR ( '', #177 ) ;
#181 = UNCERTAINTY_MEASURE_WITH_UNIT (LENGTH_MEASURE( 1.000000000000000082E-05 ), #218, 'distance_accuracy_value', 'NONE');
#182 = SURFACE_STYLE_USAGE ( .BOTH. , #286 ) ;
#183 = AXIS2_PLACEMENT_3D ( 'NONE', #17, #137, #199 ) ;
#184 = DIRECTION ( 'NONE',  ( -4.898587196589413075E-17, 1.000000000000000000, -0.000000000000000000 ) ) ;
#185 = DIMENSIONAL_EXPONENTS ( 1.000000000000000000, 0.000000000000000000, 0.000000000000000000, 0.000000000000000000, 0.000000000000000000, 0.000000000000000000, 0.000000000000000000 ) ;
#186 = PLANE ( 'NONE',  #221 ) ;
#187 = ORIENTED_EDGE ( 'NONE', *, *, #205, .T. ) ;
#188 = AXIS2_PLACEMENT_3D ( 'NONE', #304, #155, #179 ) ;
#189 = CARTESIAN_POINT ( 'NONE',  ( -0.2500000000000000000, 2.500000000000000000, 0.000000000000000000 ) ) ;
#190 = VERTEX_POINT ( 'NONE', #284 ) ;
#191 = DIRECTION ( 'NONE',  ( 0.000000000000000000, 0.000000000000000000, 1.000000000000000000 ) ) ;
#192 =( NAMED_UNIT ( * ) SI_UNIT ( $, .STERADIAN. ) SOLID_ANGLE_UNIT ( ) );
#193 = ADVANCED_FACE ( 'NONE', ( #118 ), #200, .F. ) ;
#194 =( GEOMETRIC_REPRESENTATION_CONTEXT ( 3 ) GLOBAL_UNCERTAINTY_ASSIGNED_CONTEXT ( ( #73 ) ) GLOBAL_UNIT_ASSIGNED_CONTEXT ( ( #127, #224, #192 ) ) REPRESENTATION_CONTEXT ( 'NONE', 'WORKASPACE' ) );
#195 = PRODUCT ( '01510', '01510', '', ( #269 ) ) ;
#196 = FACE_OUTER_BOUND ( 'NONE', #290, .T. ) ;
#197 = ORIENTED_EDGE ( 'NONE', *, *, #268, .F. ) ;
#198 = LENGTH_MEASURE_WITH_UNIT ( LENGTH_MEASURE( 0.02539999999999999897 ), #176 );
#199 = DIRECTION ( 'NONE',  ( 0.000000000000000000, 0.000000000000000000, -1.000000000000000000 ) ) ;
#200 = PLANE ( 'NONE',  #188 ) ;
#201 = STYLED_ITEM ( 'NONE', ( #208 ), #106 ) ;
#202 = UNCERTAINTY_MEASURE_WITH_UNIT (LENGTH_MEASURE( 1.000000000000000082E-05 ), #121, 'distance_accuracy_value', 'NONE');
#203 = CARTESIAN_POINT ( 'NONE',  ( 1.516480271171051896E-32, 2.500000000000000000, 0.000000000000000000 ) ) ;
#204 = PRODUCT_DEFINITION_SHAPE ( 'NONE', 'NONE',  #21 ) ;
#205 = EDGE_CURVE ( 'NONE', #247, #79, #24, .T. ) ;
#206 = CARTESIAN_POINT ( 'NONE',  ( 0.000000000000000000, 2.500000000000000000, 0.000000000000000000 ) ) ;
#207 = DIRECTION ( 'NONE',  ( 1.000000000000000000, 4.898587196589412459E-17, 0.000000000000000000 ) ) ;
#208 = PRESENTATION_STYLE_ASSIGNMENT (( #50 ) ) ;
#209 = UNCERTAINTY_MEASURE_WITH_UNIT (LENGTH_MEASURE( 1.000000000000000082E-05 ), #223, 'distance_accuracy_value', 'NONE');
#210 = SURFACE_SIDE_STYLE ('',( #93 ) ) ;
#211 = FILL_AREA_STYLE_COLOUR ( '', #32 ) ;
#212 = EDGE_LOOP ( 'NONE', ( #10, #109, #56, #111 ) ) ;
#213 = VECTOR ( 'NONE', #296, 39.37007874015748143 ) ;
#214 =( GEOMETRIC_REPRESENTATION_CONTEXT ( 3 ) GLOBAL_UNCERTAINTY_ASSIGNED_CONTEXT ( ( #259 ) ) GLOBAL_UNIT_ASSIGNED_CONTEXT ( ( #82, #305, #52 ) ) REPRESENTATION_CONTEXT ( 'NONE', 'WORKASPACE' ) );
#215 =( LENGTH_UNIT ( ) NAMED_UNIT ( * ) SI_UNIT ( $, .METRE. ) );
#216 = EDGE_CURVE ( 'NONE', #62, #271, #307, .T. ) ;
#217 = FILL_AREA_STYLE_COLOUR ( '', #38 ) ;
#218 =( CONVERSION_BASED_UNIT ( 'INCH', #94 ) LENGTH_UNIT ( ) NAMED_UNIT ( #185 ) );
#219 = PRODUCT_RELATED_PRODUCT_CATEGORY ( 'part', '', ( #195 ) ) ;
#220 = VERTEX_POINT ( 'NONE', #15 ) ;
#221 = AXIS2_PLACEMENT_3D ( 'NONE', #250, #174, #249 ) ;
#222 = SURFACE_STYLE_USAGE ( .BOTH. , #28 ) ;
#223 =( CONVERSION_BASED_UNIT ( 'INCH', #30 ) LENGTH_UNIT ( ) NAMED_UNIT ( #161 ) );
#224 =( NAMED_UNIT ( * ) PLANE_ANGLE_UNIT ( ) SI_UNIT ( $, .RADIAN. ) );
#225 = ORIENTED_EDGE ( 'NONE', *, *, #300, .F. ) ;
#226 = ADVANCED_FACE ( 'NONE', ( #115 ), #91, .T. ) ;
#227 = ORIENTED_EDGE ( 'NONE', *, *, #173, .T. ) ;
#228 = PRESENTATION_LAYER_ASSIGNMENT (  '', '', ( #20 ) ) ;
#229 = MECHANICAL_DESIGN_GEOMETRIC_PRESENTATION_REPRESENTATION (  '', ( #119 ), #194 ) ;
#230 = DIRECTION ( 'NONE',  ( -0.000000000000000000, -1.000000000000000000, -0.000000000000000000 ) ) ;
#231 = DIRECTION ( 'NONE',  ( 0.000000000000000000, 0.000000000000000000, -1.000000000000000000 ) ) ;
#232 = ADVANCED_FACE ( 'NONE', ( #196 ), #58, .T. ) ;
#233 = DIRECTION ( 'NONE',  ( -1.000000000000000000, 0.000000000000000000, 0.000000000000000000 ) ) ;
#234 = AXIS2_PLACEMENT_3D ( 'NONE', #285, #48, #264 ) ;
#235 = CARTESIAN_POINT ( 'NONE',  ( 0.2500000000000000555, 2.500000000000000000, 3.061616997868384251E-17 ) ) ;
#236 = DIRECTION ( 'NONE',  ( -0.000000000000000000, -1.000000000000000000, -0.000000000000000000 ) ) ;
#237 = AXIS2_PLACEMENT_3D ( 'NONE', #178, #278, #64 ) ;
#238 = AXIS2_PLACEMENT_3D ( 'NONE', #151, #230, #12 ) ;
#239 = EDGE_CURVE ( 'NONE', #105, #190, #277, .T. ) ;
#240 = DIRECTION ( 'NONE',  ( -1.000000000000000000, 0.000000000000000000, 0.000000000000000000 ) ) ;
#241 =( LENGTH_UNIT ( ) NAMED_UNIT ( * ) SI_UNIT ( $, .METRE. ) );
#242 = CARTESIAN_POINT ( 'NONE',  ( -1.224646799147353207E-16, 5.000000000000000000, 0.000000000000000000 ) ) ;
#243 = ADVANCED_BREP_SHAPE_REPRESENTATION ( '01510', ( #106, #113, #154 ), #124 ) ;
#244 =( NAMED_UNIT ( * ) PLANE_ANGLE_UNIT ( ) SI_UNIT ( $, .RADIAN. ) );
#245 = SURFACE_STYLE_USAGE ( .BOTH. , #301 ) ;
#246 = EDGE_LOOP ( 'NONE', ( #9, #297 ) ) ;
#247 = VERTEX_POINT ( 'NONE', #117 ) ;
#248 = DIRECTION ( 'NONE',  ( -1.000000000000000000, 0.000000000000000000, 0.000000000000000000 ) ) ;
#249 = DIRECTION ( 'NONE',  ( 0.000000000000000000, -0.000000000000000000, 1.000000000000000000 ) ) ;
#250 = CARTESIAN_POINT ( 'NONE',  ( 0.000000000000000000, 2.500000000000000000, 0.000000000000000000 ) ) ;
#251 = ADVANCED_FACE ( 'NONE', ( #98 ), #162, .F. ) ;
#252 = COLOUR_RGB ( '',1.000000000000000000, 0.000000000000000000, 0.000000000000000000 ) ;
#253 = CARTESIAN_POINT ( 'NONE',  ( 0.000000000000000000, 0.000000000000000000, 0.000000000000000000 ) ) ;
#254 = CYLINDRICAL_SURFACE ( 'NONE', #138, 0.2500000000000000555 ) ;
#255 = CARTESIAN_POINT ( 'NONE',  ( 0.000000000000000000, 2.500000000000000000, -0.2500000000000000000 ) ) ;
#256 = DIRECTION ( 'NONE',  ( -4.898587196589413075E-17, 1.000000000000000000, -0.000000000000000000 ) ) ;
#257 =( GEOMETRIC_REPRESENTATION_CONTEXT ( 3 ) GLOBAL_UNCERTAINTY_ASSIGNED_CONTEXT ( ( #181 ) ) GLOBAL_UNIT_ASSIGNED_CONTEXT ( ( #218, #244, #261 ) ) REPRESENTATION_CONTEXT ( 'NONE', 'WORKASPACE' ) );
#258 = AXIS2_PLACEMENT_3D ( 'NONE', #262, #45, #207 ) ;
#259 = UNCERTAINTY_MEASURE_WITH_UNIT (LENGTH_MEASURE( 1.000000000000000082E-05 ), #82, 'distance_accuracy_value', 'NONE');
#260 =( NAMED_UNIT ( * ) SI_UNIT ( $, .STERADIAN. ) SOLID_ANGLE_UNIT ( ) );
#261 =( NAMED_UNIT ( * ) SI_UNIT ( $, .STERADIAN. ) SOLID_ANGLE_UNIT ( ) );
#262 = CARTESIAN_POINT ( 'NONE',  ( 0.2500000000000000000, 5.000000000000000000, 0.000000000000000000 ) ) ;
#263 = DIRECTION ( 'NONE',  ( -0.000000000000000000, -1.000000000000000000, -0.000000000000000000 ) ) ;
#264 = DIRECTION ( 'NONE',  ( 0.000000000000000000, 0.000000000000000000, -1.000000000000000000 ) ) ;
#265 = ORIENTED_EDGE ( 'NONE', *, *, #68, .F. ) ;
#266 = LENGTH_MEASURE_WITH_UNIT ( LENGTH_MEASURE( 0.02539999999999999897 ), #215 );
#267 = MECHANICAL_DESIGN_GEOMETRIC_PRESENTATION_REPRESENTATION (  '', ( #47 ), #2 ) ;
#268 = EDGE_CURVE ( 'NONE', #220, #125, #54, .T. ) ;
#269 = PRODUCT_CONTEXT ( 'NONE', #87, 'mechanical' ) ;
#270 =( CONVERSION_BASED_UNIT ( 'INCH', #49 ) LENGTH_UNIT ( ) NAMED_UNIT ( #308 ) );
#271 = VERTEX_POINT ( 'NONE', #189 ) ;
#272 = LENGTH_MEASURE_WITH_UNIT ( LENGTH_MEASURE( 0.02539999999999999897 ), #78 );
#273 = CARTESIAN_POINT ( 'NONE',  ( -1.224646799147353207E-16, 5.000000000000000000, 0.000000000000000000 ) ) ;
#274 = SURFACE_SIDE_STYLE ('',( #26 ) ) ;
#275 =( CONVERSION_BASED_UNIT ( 'INCH', #198 ) LENGTH_UNIT ( ) NAMED_UNIT ( #51 ) );
#276 = PRESENTATION_LAYER_ASSIGNMENT (  '', '', ( #47 ) ) ;
#277 = CIRCLE ( 'NONE', #84, 0.2500000000000000000 ) ;
#278 = DIRECTION ( 'NONE',  ( -4.898587196589413075E-17, 1.000000000000000000, -0.000000000000000000 ) ) ;
#279 = DIRECTION ( 'NONE',  ( -1.000000000000000000, 0.000000000000000000, 0.000000000000000000 ) ) ;
#280 = CLOSED_SHELL ( 'NONE', ( #29, #114, #232, #226 ) ) ;
#281 =( NAMED_UNIT ( * ) PLANE_ANGLE_UNIT ( ) SI_UNIT ( $, .RADIAN. ) );
#282 = SURFACE_STYLE_FILL_AREA ( #19 ) ;
#283 = CARTESIAN_POINT ( 'NONE',  ( 0.000000000000000000, 0.000000000000000000, 0.000000000000000000 ) ) ;
#284 = CARTESIAN_POINT ( 'NONE',  ( 3.061616997868383018E-17, 2.500000000000000000, 0.2500000000000000000 ) ) ;
#285 = CARTESIAN_POINT ( 'NONE',  ( 0.000000000000000000, 0.000000000000000000, 0.000000000000000000 ) ) ;
#286 = SURFACE_SIDE_STYLE ('',( #163 ) ) ;
#287 = ORIENTED_EDGE ( 'NONE', *, *, #132, .T. ) ;
#288 = APPLICATION_CONTEXT ( 'automotive_design' ) ;
#289 = FILL_AREA_STYLE_COLOUR ( '', #252 ) ;
#290 = EDGE_LOOP ( 'NONE', ( #134, #72, #131, #265 ) ) ;
#291 =( GEOMETRIC_REPRESENTATION_CONTEXT ( 3 ) GLOBAL_UNCERTAINTY_ASSIGNED_CONTEXT ( ( #209 ) ) GLOBAL_UNIT_ASSIGNED_CONTEXT ( ( #223, #303, #65 ) ) REPRESENTATION_CONTEXT ( 'NONE', 'WORKASPACE' ) );
#292 = STYLED_ITEM ( 'NONE', ( #108 ), #232 ) ;
#293 = FILL_AREA_STYLE ('',( #96 ) ) ;
#294 = ORIENTED_EDGE ( 'NONE', *, *, #216, .F. ) ;
#295 = DIRECTION ( 'NONE',  ( -4.898587196589413075E-17, 1.000000000000000000, -0.000000000000000000 ) ) ;
#296 = DIRECTION ( 'NONE',  ( -0.000000000000000000, -1.000000000000000000, -0.000000000000000000 ) ) ;
#297 = ORIENTED_EDGE ( 'NONE', *, *, #68, .T. ) ;
#298 = PRESENTATION_LAYER_ASSIGNMENT (  '', '', ( #201 ) ) ;
#299 = PRESENTATION_LAYER_ASSIGNMENT (  '', '', ( #119 ) ) ;
#300 = EDGE_CURVE ( 'NONE', #271, #79, #309, .T. ) ;
#301 = SURFACE_SIDE_STYLE ('',( #34 ) ) ;
#302 = ORIENTED_EDGE ( 'NONE', *, *, #44, .F. ) ;
#303 =( NAMED_UNIT ( * ) PLANE_ANGLE_UNIT ( ) SI_UNIT ( $, .RADIAN. ) );
#304 = CARTESIAN_POINT ( 'NONE',  ( 2.999519565323715729E-34, 2.500000000000000000, 0.000000000000000000 ) ) ;
#305 =( NAMED_UNIT ( * ) PLANE_ANGLE_UNIT ( ) SI_UNIT ( $, .RADIAN. ) );
#306 = CARTESIAN_POINT ( 'NONE',  ( -1.224646799147353207E-16, 5.000000000000000000, 0.000000000000000000 ) ) ;
#307 = CIRCLE ( 'NONE', #71, 0.2500000000000000000 ) ;
#308 = DIMENSIONAL_EXPONENTS ( 1.000000000000000000, 0.000000000000000000, 0.000000000000000000, 0.000000000000000000, 0.000000000000000000, 0.000000000000000000, 0.000000000000000000 ) ;
#309 = LINE ( 'NONE', #95, #142 ) ;
ENDSEC;
END-ISO-10303-21;
