ISO-10303-21;
HEADER;
FILE_DESCRIPTION (( 'STEP AP214' ),
    '1' );
FILE_NAME ('Micro_RDE-80.STEP',
    '2021-08-31T17:03:03',
    ( '' ),
    ( '' ),
    'SwSTEP 2.0',
    'SolidWorks 2020',
    '' );
FILE_SCHEMA (( 'AUTOMOTIVE_DESIGN' ));
ENDSEC;

DATA;
#1 = LENGTH_MEASURE_WITH_UNIT ( LENGTH_MEASURE( 0.02539999999999999897 ), #203 );
#2 = ORIENTED_EDGE ( 'NONE', *, *, #212, .F. ) ;
#3 = ORIENTED_EDGE ( 'NONE', *, *, #161, .F. ) ;
#4 = COLOUR_RGB ( '',0.7921568627450980005, 0.8196078431372548767, 0.9333333333333333481 ) ;
#5 = SURFACE_SIDE_STYLE ('',( #209 ) ) ;
#6 = DIRECTION ( 'NONE',  ( -1.000000000000000000, 0.0000000000000000000, 0.0000000000000000000 ) ) ;
#7 = CIRCLE ( 'NONE', #167, 0.1250000000000000000 ) ;
#8 = DIRECTION ( 'NONE',  ( -1.000000000000000000, 0.0000000000000000000, 1.224646799147353700E-16 ) ) ;
#9 = AXIS2_PLACEMENT_3D ( 'NONE', #157, #30, #73 ) ;
#10 = ADVANCED_FACE ( 'NONE', ( #256 ), #207, .T. ) ;
#11 = CARTESIAN_POINT ( 'NONE',  ( 0.1248750000000001248, 0.0000000000000000000, 1.000000000000000000 ) ) ;
#12 = DIRECTION ( 'NONE',  ( -0.0000000000000000000, -0.0000000000000000000, -1.000000000000000000 ) ) ;
#13 = EDGE_CURVE ( 'NONE', #20, #87, #182, .T. ) ;
#14 = AXIS2_PLACEMENT_3D ( 'NONE', #57, #224, #140 ) ;
#15 = CARTESIAN_POINT ( 'NONE',  ( 0.0000000000000000000, 0.0000000000000000000, 3.000000000000000444 ) ) ;
#16 = FACE_OUTER_BOUND ( 'NONE', #298, .T. ) ;
#17 = CARTESIAN_POINT ( 'NONE',  ( 0.1100000000000004446, 1.438959988998142687E-17, 3.000000000000000444 ) ) ;
#18 = DIRECTION ( 'NONE',  ( -1.224646799147353454E-16, -0.0000000000000000000, -1.000000000000000000 ) ) ;
#19 = EDGE_LOOP ( 'NONE', ( #233, #107, #173, #47 ) ) ;
#20 = VERTEX_POINT ( 'NONE', #94 ) ;
#21 = AXIS2_PLACEMENT_3D ( 'NONE', #91, #27, #265 ) ;
#22 =( LENGTH_UNIT ( ) NAMED_UNIT ( * ) SI_UNIT ( $, .METRE. ) );
#23 = ORIENTED_EDGE ( 'NONE', *, *, #109, .F. ) ;
#24 = ORIENTED_EDGE ( 'NONE', *, *, #267, .F. ) ;
#25 = DIRECTION ( 'NONE',  ( 1.000000000000000000, 0.0000000000000000000, 0.0000000000000000000 ) ) ;
#26 = ORIENTED_EDGE ( 'NONE', *, *, #258, .F. ) ;
#27 = DIRECTION ( 'NONE',  ( 0.0000000000000000000, 0.0000000000000000000, 1.000000000000000000 ) ) ;
#28 = CIRCLE ( 'NONE', #21, 0.1100000000000004446 ) ;
#29 = CARTESIAN_POINT ( 'NONE',  ( 0.0000000000000000000, 0.0000000000000000000, 3.000000000000000444 ) ) ;
#30 = DIRECTION ( 'NONE',  ( -1.224646799147353454E-16, -0.0000000000000000000, -1.000000000000000000 ) ) ;
#31 = DIMENSIONAL_EXPONENTS ( 1.000000000000000000, 0.0000000000000000000, 0.0000000000000000000, 0.0000000000000000000, 0.0000000000000000000, 0.0000000000000000000, 0.0000000000000000000 ) ;
#32 = LINE ( 'NONE', #135, #51 ) ;
#33 = LINE ( 'NONE', #116, #164 ) ;
#34 = FACE_OUTER_BOUND ( 'NONE', #195, .T. ) ;
#35 = CARTESIAN_POINT ( 'NONE',  ( 0.0000000000000000000, 0.0000000000000000000, 3.000000000000000444 ) ) ;
#36 = ADVANCED_FACE ( 'NONE', ( #75 ), #122, .T. ) ;
#37 = CIRCLE ( 'NONE', #270, 0.1248749999999999999 ) ;
#38 = CARTESIAN_POINT ( 'NONE',  ( 0.1248749999999999999, 1.529277690435257475E-17, 0.0000000000000000000 ) ) ;
#39 = DIRECTION ( 'NONE',  ( 1.000000000000000000, 0.0000000000000000000, 0.0000000000000000000 ) ) ;
#40 = CARTESIAN_POINT ( 'NONE',  ( 0.1248749999999999999, 1.529277690435257475E-17, -1.529277690435257783E-17 ) ) ;
#41 = ADVANCED_FACE ( 'NONE', ( #177 ), #283, .T. ) ;
#42 = ORIENTED_EDGE ( 'NONE', *, *, #109, .T. ) ;
#43 = AXIS2_PLACEMENT_3D ( 'NONE', #183, #115, #257 ) ;
#44 = CARTESIAN_POINT ( 'NONE',  ( 0.0000000000000000000, 0.0000000000000000000, 0.0000000000000000000 ) ) ;
#45 = ORIENTED_EDGE ( 'NONE', *, *, #247, .F. ) ;
#46 =( NAMED_UNIT ( * ) SI_UNIT ( $, .STERADIAN. ) SOLID_ANGLE_UNIT ( ) );
#47 = ORIENTED_EDGE ( 'NONE', *, *, #178, .F. ) ;
#48 = CARTESIAN_POINT ( 'NONE',  ( 0.0000000000000000000, 0.0000000000000000000, 0.0000000000000000000 ) ) ;
#49 = PRESENTATION_LAYER_ASSIGNMENT (  '', '', ( #145 ) ) ;
#50 = CARTESIAN_POINT ( 'NONE',  ( -0.1100000000000004446, 0.0000000000000000000, 3.000000000000000444 ) ) ;
#51 = VECTOR ( 'NONE', #181, 39.37007874015748143 ) ;
#52 = FACE_OUTER_BOUND ( 'NONE', #228, .T. ) ;
#53 = CARTESIAN_POINT ( 'NONE',  ( -0.1248749999999998889, 1.529277690435257475E-17, 1.000000000000000000 ) ) ;
#54 = PRODUCT_RELATED_PRODUCT_CATEGORY ( 'part', '', ( #261 ) ) ;
#55 = DIRECTION ( 'NONE',  ( -0.7071067811865566766, 0.0000000000000000000, -0.7071067811865382469 ) ) ;
#56 = CARTESIAN_POINT ( 'NONE',  ( 1.224646799147353454E-16, 0.0000000000000000000, 1.000000000000000000 ) ) ;
#57 = CARTESIAN_POINT ( 'NONE',  ( 1.225514963788285700E-16, 0.0000000000000000000, 1.000708910227452231 ) ) ;
#58 = AXIS2_PLACEMENT_3D ( 'NONE', #271, #273, #288 ) ;
#59 = FACE_OUTER_BOUND ( 'NONE', #150, .T. ) ;
#60 = CIRCLE ( 'NONE', #9, 0.1248749999999999999 ) ;
#61 = CARTESIAN_POINT ( 'NONE',  ( 1.224646799147353454E-16, 0.0000000000000000000, 1.000000000000000000 ) ) ;
#62 = ORIENTED_EDGE ( 'NONE', *, *, #72, .F. ) ;
#63 = CIRCLE ( 'NONE', #136, 0.1248749999999999999 ) ;
#64 = ORIENTED_EDGE ( 'NONE', *, *, #281, .F. ) ;
#65 = EDGE_CURVE ( 'NONE', #290, #153, #60, .T. ) ;
#66 = ORIENTED_EDGE ( 'NONE', *, *, #132, .F. ) ;
#67 = ORIENTED_EDGE ( 'NONE', *, *, #212, .T. ) ;
#68 = ORIENTED_EDGE ( 'NONE', *, *, #144, .T. ) ;
#69 = VERTEX_POINT ( 'NONE', #179 ) ;
#70 = DIRECTION ( 'NONE',  ( -0.1736481776669311916, 2.126576849575783316E-17, 0.9848077530122080203 ) ) ;
#71 = SURFACE_STYLE_USAGE ( .BOTH. , #5 ) ;
#72 = EDGE_CURVE ( 'NONE', #255, #87, #184, .T. ) ;
#73 = DIRECTION ( 'NONE',  ( -1.000000000000000000, 0.0000000000000000000, 0.0000000000000000000 ) ) ;
#74 = VECTOR ( 'NONE', #55, 39.37007874015748854 ) ;
#75 = FACE_OUTER_BOUND ( 'NONE', #176, .T. ) ;
#76 = AXIS2_PLACEMENT_3D ( 'NONE', #191, #294, #25 ) ;
#77 = DIRECTION ( 'NONE',  ( 0.0000000000000000000, 0.0000000000000000000, 1.000000000000000000 ) ) ;
#78 = CARTESIAN_POINT ( 'NONE',  ( -0.1100000000000004446, 0.0000000000000000000, 3.000000000000000444 ) ) ;
#79 = CYLINDRICAL_SURFACE ( 'NONE', #249, 0.1248749999999999999 ) ;
#80 = CONICAL_SURFACE ( 'NONE', #229, 0.1100000000000004446, 0.7853981633974613796 ) ;
#81 = EDGE_CURVE ( 'NONE', #290, #279, #159, .T. ) ;
#82 =( CONVERSION_BASED_UNIT ( 'INCH', #117 ) LENGTH_UNIT ( ) NAMED_UNIT ( #31 ) );
#83 = SURFACE_STYLE_FILL_AREA ( #149 ) ;
#84 = APPLICATION_PROTOCOL_DEFINITION ( 'draft international standard', 'automotive_design', 1998, #201 ) ;
#85 = ORIENTED_EDGE ( 'NONE', *, *, #258, .T. ) ;
#86 = PRODUCT_DEFINITION_CONTEXT ( 'detailed design', #264, 'design' ) ;
#87 = VERTEX_POINT ( 'NONE', #280 ) ;
#88 = CONICAL_SURFACE ( 'NONE', #221, 0.1248749999999999999, 0.1745329251994338915 ) ;
#89 = DIRECTION ( 'NONE',  ( 1.000000000000000000, 0.0000000000000000000, -0.0000000000000000000 ) ) ;
#90 = CLOSED_SHELL ( 'NONE', ( #10, #232, #133, #239, #197, #41, #219, #36, #185, #98 ) ) ;
#91 = CARTESIAN_POINT ( 'NONE',  ( 0.0000000000000000000, 0.0000000000000000000, 3.000000000000000444 ) ) ;
#92 = CIRCLE ( 'NONE', #243, 0.1100000000000004446 ) ;
#93 = DIRECTION ( 'NONE',  ( 1.224646799147353454E-16, 0.0000000000000000000, 1.000000000000000000 ) ) ;
#94 = CARTESIAN_POINT ( 'NONE',  ( 0.1250000000000000000, 1.530808498934191201E-17, 2.985000000000001208 ) ) ;
#95 = DIRECTION ( 'NONE',  ( -1.224646799147353454E-16, -0.0000000000000000000, -1.000000000000000000 ) ) ;
#96 = DIRECTION ( 'NONE',  ( -1.000000000000000000, 0.0000000000000000000, 0.0000000000000000000 ) ) ;
#97 = CYLINDRICAL_SURFACE ( 'NONE', #58, 0.1250000000000000000 ) ;
#98 = ADVANCED_FACE ( 'NONE', ( #113 ), #137, .F. ) ;
#99 = CARTESIAN_POINT ( 'NONE',  ( -0.1249999999999998751, 0.0000000000000000000, 1.000708910227452231 ) ) ;
#100 = AXIS2_PLACEMENT_3D ( 'NONE', #29, #154, #6 ) ;
#101 = DIRECTION ( 'NONE',  ( -1.000000000000000000, 0.0000000000000000000, 1.224646799147353700E-16 ) ) ;
#102 = ORIENTED_EDGE ( 'NONE', *, *, #188, .T. ) ;
#103 = SURFACE_STYLE_USAGE ( .BOTH. , #166 ) ;
#104 = EDGE_LOOP ( 'NONE', ( #127, #131, #68, #199 ) ) ;
#105 = UNCERTAINTY_MEASURE_WITH_UNIT (LENGTH_MEASURE( 1.000000000000000082E-05 ), #82, 'distance_accuracy_value', 'NONE');
#106 = PRESENTATION_STYLE_ASSIGNMENT (( #103 ) ) ;
#107 = ORIENTED_EDGE ( 'NONE', *, *, #247, .T. ) ;
#108 = ORIENTED_EDGE ( 'NONE', *, *, #161, .T. ) ;
#109 = EDGE_CURVE ( 'NONE', #277, #20, #216, .T. ) ;
#110 = ORIENTED_EDGE ( 'NONE', *, *, #272, .T. ) ;
#111 = FILL_AREA_STYLE_COLOUR ( '', #4 ) ;
#112 = DIRECTION ( 'NONE',  ( 0.0000000000000000000, 0.0000000000000000000, -1.000000000000000000 ) ) ;
#113 = FACE_OUTER_BOUND ( 'NONE', #226, .T. ) ;
#114 = VECTOR ( 'NONE', #12, 39.37007874015748143 ) ;
#115 = DIRECTION ( 'NONE',  ( 0.0000000000000000000, 0.0000000000000000000, 1.000000000000000000 ) ) ;
#116 = CARTESIAN_POINT ( 'NONE',  ( 0.1248750000000001248, 0.0000000000000000000, 1.000000000000000000 ) ) ;
#117 = LENGTH_MEASURE_WITH_UNIT ( LENGTH_MEASURE( 0.02539999999999999897 ), #259 );
#118 = CARTESIAN_POINT ( 'NONE',  ( 1.224646799147353454E-16, 0.0000000000000000000, 1.000000000000000000 ) ) ;
#119 = VECTOR ( 'NONE', #18, 39.37007874015748143 ) ;
#120 = DIRECTION ( 'NONE',  ( -1.000000000000000000, 0.0000000000000000000, 0.0000000000000000000 ) ) ;
#121 = EDGE_CURVE ( 'NONE', #69, #276, #63, .T. ) ;
#122 = CONICAL_SURFACE ( 'NONE', #202, 0.1248749999999999999, 0.1745329251994338915 ) ;
#123 = DIRECTION ( 'NONE',  ( -1.000000000000000000, 0.0000000000000000000, 0.0000000000000000000 ) ) ;
#124 = CONICAL_SURFACE ( 'NONE', #100, 0.1100000000000004446, 0.7853981633974613796 ) ;
#125 = PRODUCT_CONTEXT ( 'NONE', #201, 'mechanical' ) ;
#126 = PRODUCT_DEFINITION ( 'UNKNOWN', '', #287, #86 ) ;
#127 = ORIENTED_EDGE ( 'NONE', *, *, #188, .F. ) ;
#128 = APPLICATION_PROTOCOL_DEFINITION ( 'draft international standard', 'automotive_design', 1998, #264 ) ;
#129 = ORIENTED_EDGE ( 'NONE', *, *, #65, .F. ) ;
#130 =( NAMED_UNIT ( * ) PLANE_ANGLE_UNIT ( ) SI_UNIT ( $, .RADIAN. ) );
#131 = ORIENTED_EDGE ( 'NONE', *, *, #13, .T. ) ;
#132 = EDGE_CURVE ( 'NONE', #153, #242, #33, .T. ) ;
#133 = ADVANCED_FACE ( 'NONE', ( #52 ), #124, .T. ) ;
#134 = DIRECTION ( 'NONE',  ( 1.000000000000000000, 0.0000000000000000000, 0.0000000000000000000 ) ) ;
#135 = CARTESIAN_POINT ( 'NONE',  ( -0.1250000000000000000, 0.0000000000000000000, 3.000000000000000444 ) ) ;
#136 = AXIS2_PLACEMENT_3D ( 'NONE', #285, #262, #238 ) ;
#137 = PLANE ( 'NONE',  #43 ) ;
#138 = DIRECTION ( 'NONE',  ( 1.000000000000000000, 0.0000000000000000000, 0.0000000000000000000 ) ) ;
#139 = DIRECTION ( 'NONE',  ( -1.000000000000000000, 0.0000000000000000000, 1.224646799147353700E-16 ) ) ;
#140 = DIRECTION ( 'NONE',  ( 1.000000000000000000, 0.0000000000000000000, 0.0000000000000000000 ) ) ;
#141 = AXIS2_PLACEMENT_3D ( 'NONE', #15, #289, #96 ) ;
#142 = LINE ( 'NONE', #241, #114 ) ;
#143 = DIRECTION ( 'NONE',  ( 0.0000000000000000000, 0.0000000000000000000, -1.000000000000000000 ) ) ;
#144 = EDGE_CURVE ( 'NONE', #87, #279, #32, .T. ) ;
#145 = STYLED_ITEM ( 'NONE', ( #106 ), #215 ) ;
#146 =( CONVERSION_BASED_UNIT ( 'INCH', #1 ) LENGTH_UNIT ( ) NAMED_UNIT ( #217 ) );
#147 = ORIENTED_EDGE ( 'NONE', *, *, #121, .T. ) ;
#148 = ORIENTED_EDGE ( 'NONE', *, *, #178, .T. ) ;
#149 = FILL_AREA_STYLE ('',( #227 ) ) ;
#150 = EDGE_LOOP ( 'NONE', ( #129, #152, #204, #66 ) ) ;
#151 = STYLED_ITEM ( 'NONE', ( #156 ), #172 ) ;
#152 = ORIENTED_EDGE ( 'NONE', *, *, #81, .T. ) ;
#153 = VERTEX_POINT ( 'NONE', #11 ) ;
#154 = DIRECTION ( 'NONE',  ( 0.0000000000000000000, 0.0000000000000000000, -1.000000000000000000 ) ) ;
#155 = PRODUCT_DEFINITION_SHAPE ( 'NONE', 'NONE',  #126 ) ;
#156 = PRESENTATION_STYLE_ASSIGNMENT (( #71 ) ) ;
#157 = CARTESIAN_POINT ( 'NONE',  ( 1.224646799147353454E-16, 0.0000000000000000000, 1.000000000000000000 ) ) ;
#158 = CIRCLE ( 'NONE', #76, 0.1250000000000000000 ) ;
#159 = LINE ( 'NONE', #53, #274 ) ;
#160 = DIRECTION ( 'NONE',  ( 1.000000000000000000, 0.0000000000000000000, 0.0000000000000000000 ) ) ;
#161 = EDGE_CURVE ( 'NONE', #277, #255, #28, .T. ) ;
#162 = CARTESIAN_POINT ( 'NONE',  ( -0.1248749999999999999, 0.0000000000000000000, 1.529277690435257783E-17 ) ) ;
#163 = CARTESIAN_POINT ( 'NONE',  ( 0.1250000000000001110, 1.530808498934192433E-17, 1.000708910227452231 ) ) ;
#164 = VECTOR ( 'NONE', #235, 39.37007874015748143 ) ;
#165 = CARTESIAN_POINT ( 'NONE',  ( 0.0000000000000000000, 0.0000000000000000000, 3.000000000000000444 ) ) ;
#166 = SURFACE_SIDE_STYLE ('',( #83 ) ) ;
#167 = AXIS2_PLACEMENT_3D ( 'NONE', #193, #244, #223 ) ;
#168 = SHAPE_DEFINITION_REPRESENTATION ( #155, #215 ) ;
#169 = ORIENTED_EDGE ( 'NONE', *, *, #13, .F. ) ;
#170 = CARTESIAN_POINT ( 'NONE',  ( -0.1248749999999998889, 1.530043094684724646E-17, 1.000000000000000000 ) ) ;
#171 = ORIENTED_EDGE ( 'NONE', *, *, #281, .T. ) ;
#172 = MANIFOLD_SOLID_BREP ( 'Cut-Revolve1', #90 ) ;
#173 = ORIENTED_EDGE ( 'NONE', *, *, #121, .F. ) ;
#174 = MECHANICAL_DESIGN_GEOMETRIC_PRESENTATION_REPRESENTATION (  '', ( #151 ), #234 ) ;
#175 = DIRECTION ( 'NONE',  ( 0.0000000000000000000, 0.0000000000000000000, 1.000000000000000000 ) ) ;
#176 = EDGE_LOOP ( 'NONE', ( #231, #296, #230, #110 ) ) ;
#177 = FACE_OUTER_BOUND ( 'NONE', #194, .T. ) ;
#178 = EDGE_CURVE ( 'NONE', #290, #69, #236, .T. ) ;
#179 = CARTESIAN_POINT ( 'NONE',  ( -0.1248749999999999999, 0.0000000000000000000, 3.058555380870515566E-17 ) ) ;
#180 = VECTOR ( 'NONE', #293, 39.37007874015748143 ) ;
#181 = DIRECTION ( 'NONE',  ( -0.0000000000000000000, -0.0000000000000000000, -1.000000000000000000 ) ) ;
#182 = CIRCLE ( 'NONE', #210, 0.1250000000000000000 ) ;
#183 = CARTESIAN_POINT ( 'NONE',  ( 0.0000000000000000000, 0.0000000000000000000, 0.0000000000000000000 ) ) ;
#184 = LINE ( 'NONE', #50, #74 ) ;
#185 = ADVANCED_FACE ( 'NONE', ( #34 ), #79, .T. ) ;
#186 =( GEOMETRIC_REPRESENTATION_CONTEXT ( 3 ) GLOBAL_UNCERTAINTY_ASSIGNED_CONTEXT ( ( #200 ) ) GLOBAL_UNIT_ASSIGNED_CONTEXT ( ( #205, #198, #46 ) ) REPRESENTATION_CONTEXT ( 'NONE', 'WORKASPACE' ) );
#187 = FACE_OUTER_BOUND ( 'NONE', #104, .T. ) ;
#188 = EDGE_CURVE ( 'NONE', #20, #242, #142, .T. ) ;
#189 = CARTESIAN_POINT ( 'NONE',  ( 0.0000000000000000000, 0.0000000000000000000, 0.0000000000000000000 ) ) ;
#190 = CYLINDRICAL_SURFACE ( 'NONE', #141, 0.1250000000000000000 ) ;
#191 = CARTESIAN_POINT ( 'NONE',  ( 0.0000000000000000000, 0.0000000000000000000, 2.985000000000001208 ) ) ;
#192 = PRESENTATION_LAYER_ASSIGNMENT (  '', '', ( #151 ) ) ;
#193 = CARTESIAN_POINT ( 'NONE',  ( 1.225514963788285700E-16, 0.0000000000000000000, 1.000708910227452231 ) ) ;
#194 = EDGE_LOOP ( 'NONE', ( #67, #108 ) ) ;
#195 = EDGE_LOOP ( 'NONE', ( #45, #251, #148, #26 ) ) ;
#196 = AXIS2_PLACEMENT_3D ( 'NONE', #44, #175, #248 ) ;
#197 = ADVANCED_FACE ( 'NONE', ( #187 ), #97, .T. ) ;
#198 =( NAMED_UNIT ( * ) PLANE_ANGLE_UNIT ( ) SI_UNIT ( $, .RADIAN. ) );
#199 = ORIENTED_EDGE ( 'NONE', *, *, #272, .F. ) ;
#200 = UNCERTAINTY_MEASURE_WITH_UNIT (LENGTH_MEASURE( 1.000000000000000082E-05 ), #205, 'distance_accuracy_value', 'NONE');
#201 = APPLICATION_CONTEXT ( 'automotive_design' ) ;
#202 = AXIS2_PLACEMENT_3D ( 'NONE', #56, #93, #138 ) ;
#203 =( LENGTH_UNIT ( ) NAMED_UNIT ( * ) SI_UNIT ( $, .METRE. ) );
#204 = ORIENTED_EDGE ( 'NONE', *, *, #267, .T. ) ;
#205 =( CONVERSION_BASED_UNIT ( 'INCH', #252 ) LENGTH_UNIT ( ) NAMED_UNIT ( #266 ) );
#206 = EDGE_CURVE ( 'NONE', #153, #290, #208, .T. ) ;
#207 = CYLINDRICAL_SURFACE ( 'NONE', #284, 0.1248749999999999999 ) ;
#208 = CIRCLE ( 'NONE', #213, 0.1248749999999999999 ) ;
#209 = SURFACE_STYLE_FILL_AREA ( #282 ) ;
#210 = AXIS2_PLACEMENT_3D ( 'NONE', #263, #112, #134 ) ;
#211 = CARTESIAN_POINT ( 'NONE',  ( 0.0000000000000000000, 0.0000000000000000000, 3.000000000000000444 ) ) ;
#212 = EDGE_CURVE ( 'NONE', #255, #277, #92, .T. ) ;
#213 = AXIS2_PLACEMENT_3D ( 'NONE', #61, #245, #123 ) ;
#214 = DIRECTION ( 'NONE',  ( 0.7071067811865566766, 8.659560562355046257E-17, -0.7071067811865382469 ) ) ;
#215 = ADVANCED_BREP_SHAPE_REPRESENTATION ( 'Micro_RDE-80', ( #172, #196 ), #297 ) ;
#216 = LINE ( 'NONE', #237, #292 ) ;
#217 = DIMENSIONAL_EXPONENTS ( 1.000000000000000000, 0.0000000000000000000, 0.0000000000000000000, 0.0000000000000000000, 0.0000000000000000000, 0.0000000000000000000, 0.0000000000000000000 ) ;
#218 =( NAMED_UNIT ( * ) SI_UNIT ( $, .STERADIAN. ) SOLID_ANGLE_UNIT ( ) );
#219 = ADVANCED_FACE ( 'NONE', ( #268 ), #80, .T. ) ;
#220 = MECHANICAL_DESIGN_GEOMETRIC_PRESENTATION_REPRESENTATION (  '', ( #145 ), #186 ) ;
#221 = AXIS2_PLACEMENT_3D ( 'NONE', #118, #222, #39 ) ;
#222 = DIRECTION ( 'NONE',  ( 1.224646799147353454E-16, 0.0000000000000000000, 1.000000000000000000 ) ) ;
#223 = DIRECTION ( 'NONE',  ( 1.000000000000000000, 0.0000000000000000000, 0.0000000000000000000 ) ) ;
#224 = DIRECTION ( 'NONE',  ( -1.224646799147353454E-16, -0.0000000000000000000, -1.000000000000000000 ) ) ;
#225 = CARTESIAN_POINT ( 'NONE',  ( 1.872825028598995495E-33, 0.0000000000000000000, 1.529277690435257783E-17 ) ) ;
#226 = EDGE_LOOP ( 'NONE', ( #147, #85 ) ) ;
#227 = FILL_AREA_STYLE_COLOUR ( '', #278 ) ;
#228 = EDGE_LOOP ( 'NONE', ( #3, #42, #64, #62 ) ) ;
#229 = AXIS2_PLACEMENT_3D ( 'NONE', #35, #143, #120 ) ;
#230 = ORIENTED_EDGE ( 'NONE', *, *, #132, .T. ) ;
#231 = ORIENTED_EDGE ( 'NONE', *, *, #81, .F. ) ;
#232 = ADVANCED_FACE ( 'NONE', ( #59 ), #88, .T. ) ;
#233 = ORIENTED_EDGE ( 'NONE', *, *, #65, .T. ) ;
#234 =( GEOMETRIC_REPRESENTATION_CONTEXT ( 3 ) GLOBAL_UNCERTAINTY_ASSIGNED_CONTEXT ( ( #105 ) ) GLOBAL_UNIT_ASSIGNED_CONTEXT ( ( #82, #291, #218 ) ) REPRESENTATION_CONTEXT ( 'NONE', 'WORKASPACE' ) );
#235 = DIRECTION ( 'NONE',  ( 0.1736481776669313859, 0.0000000000000000000, 0.9848077530122077983 ) ) ;
#236 = LINE ( 'NONE', #162, #180 ) ;
#237 = CARTESIAN_POINT ( 'NONE',  ( 0.1100000000000004446, 1.347111479062094019E-17, 3.000000000000000444 ) ) ;
#238 = DIRECTION ( 'NONE',  ( -1.000000000000000000, 0.0000000000000000000, 1.224646799147353700E-16 ) ) ;
#239 = ADVANCED_FACE ( 'NONE', ( #16 ), #190, .T. ) ;
#240 = DIRECTION ( 'NONE',  ( -1.224646799147353454E-16, -0.0000000000000000000, -1.000000000000000000 ) ) ;
#241 = CARTESIAN_POINT ( 'NONE',  ( 0.1250000000000000000, 1.530808498934191201E-17, 3.000000000000000444 ) ) ;
#242 = VERTEX_POINT ( 'NONE', #163 ) ;
#243 = AXIS2_PLACEMENT_3D ( 'NONE', #165, #77, #160 ) ;
#244 = DIRECTION ( 'NONE',  ( -1.224646799147353454E-16, -0.0000000000000000000, -1.000000000000000000 ) ) ;
#245 = DIRECTION ( 'NONE',  ( -1.224646799147353454E-16, -0.0000000000000000000, -1.000000000000000000 ) ) ;
#246 = LINE ( 'NONE', #40, #119 ) ;
#247 = EDGE_CURVE ( 'NONE', #153, #276, #246, .T. ) ;
#248 = DIRECTION ( 'NONE',  ( 1.000000000000000000, 0.0000000000000000000, 0.0000000000000000000 ) ) ;
#249 = AXIS2_PLACEMENT_3D ( 'NONE', #189, #240, #139 ) ;
#250 = ORIENTED_EDGE ( 'NONE', *, *, #144, .F. ) ;
#251 = ORIENTED_EDGE ( 'NONE', *, *, #206, .T. ) ;
#252 = LENGTH_MEASURE_WITH_UNIT ( LENGTH_MEASURE( 0.02539999999999999897 ), #22 );
#253 = EDGE_LOOP ( 'NONE', ( #23, #2, #275, #169 ) ) ;
#254 = CIRCLE ( 'NONE', #14, 0.1250000000000000000 ) ;
#255 = VERTEX_POINT ( 'NONE', #78 ) ;
#256 = FACE_OUTER_BOUND ( 'NONE', #19, .T. ) ;
#257 = DIRECTION ( 'NONE',  ( 1.000000000000000000, 0.0000000000000000000, -0.0000000000000000000 ) ) ;
#258 = EDGE_CURVE ( 'NONE', #276, #69, #37, .T. ) ;
#259 =( LENGTH_UNIT ( ) NAMED_UNIT ( * ) SI_UNIT ( $, .METRE. ) );
#260 = AXIS2_PLACEMENT_3D ( 'NONE', #211, #286, #89 ) ;
#261 = PRODUCT ( 'Micro_RDE-80', 'Micro_RDE-80', '', ( #125 ) ) ;
#262 = DIRECTION ( 'NONE',  ( -1.224646799147353454E-16, -0.0000000000000000000, -1.000000000000000000 ) ) ;
#263 = CARTESIAN_POINT ( 'NONE',  ( 0.0000000000000000000, 0.0000000000000000000, 2.985000000000001208 ) ) ;
#264 = APPLICATION_CONTEXT ( 'automotive_design' ) ;
#265 = DIRECTION ( 'NONE',  ( 1.000000000000000000, 0.0000000000000000000, 0.0000000000000000000 ) ) ;
#266 = DIMENSIONAL_EXPONENTS ( 1.000000000000000000, 0.0000000000000000000, 0.0000000000000000000, 0.0000000000000000000, 0.0000000000000000000, 0.0000000000000000000, 0.0000000000000000000 ) ;
#267 = EDGE_CURVE ( 'NONE', #279, #242, #254, .T. ) ;
#268 = FACE_OUTER_BOUND ( 'NONE', #253, .T. ) ;
#269 = DIRECTION ( 'NONE',  ( -1.224646799147353454E-16, -0.0000000000000000000, -1.000000000000000000 ) ) ;
#270 = AXIS2_PLACEMENT_3D ( 'NONE', #225, #269, #101 ) ;
#271 = CARTESIAN_POINT ( 'NONE',  ( 0.0000000000000000000, 0.0000000000000000000, 3.000000000000000444 ) ) ;
#272 = EDGE_CURVE ( 'NONE', #242, #279, #7, .T. ) ;
#273 = DIRECTION ( 'NONE',  ( -0.0000000000000000000, -0.0000000000000000000, -1.000000000000000000 ) ) ;
#274 = VECTOR ( 'NONE', #70, 39.37007874015747433 ) ;
#275 = ORIENTED_EDGE ( 'NONE', *, *, #72, .T. ) ;
#276 = VERTEX_POINT ( 'NONE', #38 ) ;
#277 = VERTEX_POINT ( 'NONE', #17 ) ;
#278 = COLOUR_RGB ( '',0.7921568627450980005, 0.8196078431372548767, 0.9333333333333333481 ) ;
#279 = VERTEX_POINT ( 'NONE', #99 ) ;
#280 = CARTESIAN_POINT ( 'NONE',  ( -0.1250000000000000000, 0.0000000000000000000, 2.985000000000001208 ) ) ;
#281 = EDGE_CURVE ( 'NONE', #87, #20, #158, .T. ) ;
#282 = FILL_AREA_STYLE ('',( #111 ) ) ;
#283 = PLANE ( 'NONE',  #260 ) ;
#284 = AXIS2_PLACEMENT_3D ( 'NONE', #48, #95, #8 ) ;
#285 = CARTESIAN_POINT ( 'NONE',  ( 1.872825028598995495E-33, 0.0000000000000000000, 1.529277690435257783E-17 ) ) ;
#286 = DIRECTION ( 'NONE',  ( 0.0000000000000000000, 0.0000000000000000000, 1.000000000000000000 ) ) ;
#287 = PRODUCT_DEFINITION_FORMATION_WITH_SPECIFIED_SOURCE ( 'ANY', '', #261, .NOT_KNOWN. ) ;
#288 = DIRECTION ( 'NONE',  ( -1.000000000000000000, 0.0000000000000000000, 0.0000000000000000000 ) ) ;
#289 = DIRECTION ( 'NONE',  ( -0.0000000000000000000, -0.0000000000000000000, -1.000000000000000000 ) ) ;
#290 = VERTEX_POINT ( 'NONE', #170 ) ;
#291 =( NAMED_UNIT ( * ) PLANE_ANGLE_UNIT ( ) SI_UNIT ( $, .RADIAN. ) );
#292 = VECTOR ( 'NONE', #214, 39.37007874015748854 ) ;
#293 = DIRECTION ( 'NONE',  ( -1.224646799147353454E-16, -0.0000000000000000000, -1.000000000000000000 ) ) ;
#294 = DIRECTION ( 'NONE',  ( 0.0000000000000000000, 0.0000000000000000000, -1.000000000000000000 ) ) ;
#295 =( NAMED_UNIT ( * ) SI_UNIT ( $, .STERADIAN. ) SOLID_ANGLE_UNIT ( ) );
#296 = ORIENTED_EDGE ( 'NONE', *, *, #206, .F. ) ;
#297 =( GEOMETRIC_REPRESENTATION_CONTEXT ( 3 ) GLOBAL_UNCERTAINTY_ASSIGNED_CONTEXT ( ( #299 ) ) GLOBAL_UNIT_ASSIGNED_CONTEXT ( ( #146, #130, #295 ) ) REPRESENTATION_CONTEXT ( 'NONE', 'WORKASPACE' ) );
#298 = EDGE_LOOP ( 'NONE', ( #171, #102, #24, #250 ) ) ;
#299 = UNCERTAINTY_MEASURE_WITH_UNIT (LENGTH_MEASURE( 1.000000000000000082E-05 ), #146, 'distance_accuracy_value', 'NONE');
ENDSEC;
END-ISO-10303-21;
