ISO-10303-21;
HEADER;
FILE_DESCRIPTION (( 'STEP AP214' ),
    '1' );
FILE_NAME ('Micro_RMEM-015-2X.STEP',
    '2021-09-02T00:07:53',
    ( '' ),
    ( '' ),
    'SwSTEP 2.0',
    'SolidWorks 2020',
    '' );
FILE_SCHEMA (( 'AUTOMOTIVE_DESIGN' ));
ENDSEC;

DATA;
#1 = LINE ( 'NONE', #251, #254 ) ;
#2 = FACE_OUTER_BOUND ( 'NONE', #240, .T. ) ;
#3 = DIRECTION ( 'NONE',  ( -1.224646799147353207E-16, -0.0000000000000000000, -1.000000000000000000 ) ) ;
#4 = DIRECTION ( 'NONE',  ( 0.0000000000000000000, 0.0000000000000000000, 1.000000000000000000 ) ) ;
#5 = EDGE_CURVE ( 'NONE', #136, #38, #87, .T. ) ;
#6 = AXIS2_PLACEMENT_3D ( 'NONE', #70, #46, #207 ) ;
#7 = LINE ( 'NONE', #282, #79 ) ;
#8 = VECTOR ( 'NONE', #34, 39.37007874015748143 ) ;
#9 = DIRECTION ( 'NONE',  ( 1.000000000000000000, 0.0000000000000000000, 0.0000000000000000000 ) ) ;
#10 = EDGE_CURVE ( 'NONE', #177, #201, #117, .T. ) ;
#11 = CARTESIAN_POINT ( 'NONE',  ( -0.02949797249999999704, 0.0000000000000000000, 7.224919520692329689E-18 ) ) ;
#12 =( NAMED_UNIT ( * ) SI_UNIT ( $, .STERADIAN. ) SOLID_ANGLE_UNIT ( ) );
#13 = CONICAL_SURFACE ( 'NONE', #270, 0.02949797249999999357, 0.1745329251994338915 ) ;
#14 = EDGE_CURVE ( 'NONE', #201, #269, #199, .T. ) ;
#15 = ORIENTED_EDGE ( 'NONE', *, *, #278, .F. ) ;
#16 = CARTESIAN_POINT ( 'NONE',  ( -0.02949797249999999357, 0.0000000000000000000, 3.612459760346164074E-18 ) ) ;
#17 = ORIENTED_EDGE ( 'NONE', *, *, #43, .T. ) ;
#18 = APPLICATION_PROTOCOL_DEFINITION ( 'draft international standard', 'automotive_design', 1998, #274 ) ;
#19 = ORIENTED_EDGE ( 'NONE', *, *, #99, .F. ) ;
#20 = VECTOR ( 'NONE', #135, 39.37007874015748143 ) ;
#21 = EDGE_LOOP ( 'NONE', ( #26, #120, #244, #40 ) ) ;
#22 = CYLINDRICAL_SURFACE ( 'NONE', #123, 0.02949797249999999357 ) ;
#23 = DIRECTION ( 'NONE',  ( -0.0000000000000000000, -0.0000000000000000000, -1.000000000000000000 ) ) ;
#24 = DIRECTION ( 'NONE',  ( -1.000000000000000000, 0.0000000000000000000, 1.224646799147353207E-16 ) ) ;
#25 = ADVANCED_FACE ( 'NONE', ( #211 ), #210, .T. ) ;
#26 = ORIENTED_EDGE ( 'NONE', *, *, #10, .F. ) ;
#27 = CARTESIAN_POINT ( 'NONE',  ( -0.02949797249999997276, 3.612459760346164074E-18, 0.1653539999999999732 ) ) ;
#28 = AXIS2_PLACEMENT_3D ( 'NONE', #144, #128, #9 ) ;
#29 = FACE_OUTER_BOUND ( 'NONE', #161, .T. ) ;
#30 = ADVANCED_FACE ( 'NONE', ( #2 ), #273, .T. ) ;
#31 = FACE_OUTER_BOUND ( 'NONE', #111, .T. ) ;
#32 = CARTESIAN_POINT ( 'NONE',  ( 0.05905500000000004496, 7.232151672364700045E-18, 0.3329802327026897824 ) ) ;
#33 =( CONVERSION_BASED_UNIT ( 'INCH', #54 ) LENGTH_UNIT ( ) NAMED_UNIT ( #69 ) );
#34 = DIRECTION ( 'NONE',  ( 0.1736481776669313859, 0.0000000000000000000, 0.9848077530122077983 ) ) ;
#35 = COLOUR_RGB ( '',0.7921568627450980005, 0.8196078431372548767, 0.9333333333333333481 ) ;
#36 = CARTESIAN_POINT ( 'NONE',  ( 0.0000000000000000000, 0.0000000000000000000, 0.0000000000000000000 ) ) ;
#37 = ORIENTED_EDGE ( 'NONE', *, *, #272, .F. ) ;
#38 = VERTEX_POINT ( 'NONE', #227 ) ;
#39 = DIRECTION ( 'NONE',  ( 1.000000000000000000, 0.0000000000000000000, 0.0000000000000000000 ) ) ;
#40 = ORIENTED_EDGE ( 'NONE', *, *, #49, .T. ) ;
#41 = ORIENTED_EDGE ( 'NONE', *, *, #99, .T. ) ;
#42 = EDGE_LOOP ( 'NONE', ( #61, #17, #114, #206 ) ) ;
#43 = EDGE_CURVE ( 'NONE', #97, #177, #100, .T. ) ;
#44 = CARTESIAN_POINT ( 'NONE',  ( 0.0000000000000000000, 0.0000000000000000000, 1.496062999999999921 ) ) ;
#45 = MECHANICAL_DESIGN_GEOMETRIC_PRESENTATION_REPRESENTATION (  '', ( #212 ), #57 ) ;
#46 = DIRECTION ( 'NONE',  ( -1.224646799147353207E-16, -0.0000000000000000000, -1.000000000000000000 ) ) ;
#47 = DIRECTION ( 'NONE',  ( -0.1736481776669311916, 2.126576849575783316E-17, 0.9848077530122080203 ) ) ;
#48 = DIRECTION ( 'NONE',  ( 1.000000000000000000, 0.0000000000000000000, -0.0000000000000000000 ) ) ;
#49 = EDGE_CURVE ( 'NONE', #269, #201, #67, .T. ) ;
#50 = AXIS2_PLACEMENT_3D ( 'NONE', #145, #250, #92 ) ;
#51 = AXIS2_PLACEMENT_3D ( 'NONE', #169, #4, #74 ) ;
#52 = DIRECTION ( 'NONE',  ( 1.224646799147353207E-16, 0.0000000000000000000, 1.000000000000000000 ) ) ;
#53 = DIRECTION ( 'NONE',  ( -1.224646799147353207E-16, -0.0000000000000000000, -1.000000000000000000 ) ) ;
#54 = LENGTH_MEASURE_WITH_UNIT ( LENGTH_MEASURE( 0.02539999999999999897 ), #103 );
#55 = CARTESIAN_POINT ( 'NONE',  ( 0.02949797250000001439, 0.0000000000000000000, 0.1653539999999999732 ) ) ;
#56 = ORIENTED_EDGE ( 'NONE', *, *, #14, .T. ) ;
#57 =( GEOMETRIC_REPRESENTATION_CONTEXT ( 3 ) GLOBAL_UNCERTAINTY_ASSIGNED_CONTEXT ( ( #283 ) ) GLOBAL_UNIT_ASSIGNED_CONTEXT ( ( #153, #241, #130 ) ) REPRESENTATION_CONTEXT ( 'NONE', 'WORKASPACE' ) );
#58 = SURFACE_SIDE_STYLE ('',( #176 ) ) ;
#59 = ORIENTED_EDGE ( 'NONE', *, *, #230, .F. ) ;
#60 = ADVANCED_FACE ( 'NONE', ( #119 ), #93, .F. ) ;
#61 = ORIENTED_EDGE ( 'NONE', *, *, #121, .F. ) ;
#62 = AXIS2_PLACEMENT_3D ( 'NONE', #65, #277, #163 ) ;
#63 = ADVANCED_FACE ( 'NONE', ( #275 ), #164, .T. ) ;
#64 = ORIENTED_EDGE ( 'NONE', *, *, #137, .F. ) ;
#65 = CARTESIAN_POINT ( 'NONE',  ( 4.077831761586898795E-17, 0.0000000000000000000, 0.3329802327026897824 ) ) ;
#66 = DIRECTION ( 'NONE',  ( 0.0000000000000000000, 0.0000000000000000000, 1.000000000000000000 ) ) ;
#67 = CIRCLE ( 'NONE', #62, 0.05905500000000000332 ) ;
#68 = AXIS2_PLACEMENT_3D ( 'NONE', #77, #173, #39 ) ;
#69 = DIMENSIONAL_EXPONENTS ( 1.000000000000000000, 0.0000000000000000000, 0.0000000000000000000, 0.0000000000000000000, 0.0000000000000000000, 0.0000000000000000000, 0.0000000000000000000 ) ;
#70 = CARTESIAN_POINT ( 'NONE',  ( 4.423987282556545093E-34, 0.0000000000000000000, 3.612459760346164844E-18 ) ) ;
#71 = LINE ( 'NONE', #168, #127 ) ;
#72 = LINE ( 'NONE', #55, #8 ) ;
#73 = AXIS2_PLACEMENT_3D ( 'NONE', #208, #299, #189 ) ;
#74 = DIRECTION ( 'NONE',  ( 1.000000000000000000, 0.0000000000000000000, 0.0000000000000000000 ) ) ;
#75 = FACE_OUTER_BOUND ( 'NONE', #21, .T. ) ;
#76 = UNCERTAINTY_MEASURE_WITH_UNIT (LENGTH_MEASURE( 1.000000000000000082E-05 ), #236, 'distance_accuracy_value', 'NONE');
#77 = CARTESIAN_POINT ( 'NONE',  ( 0.0000000000000000000, 0.0000000000000000000, 1.496062999999999921 ) ) ;
#78 = PRESENTATION_LAYER_ASSIGNMENT (  '', '', ( #178 ) ) ;
#79 = VECTOR ( 'NONE', #229, 39.37007874015748143 ) ;
#80 = DIMENSIONAL_EXPONENTS ( 1.000000000000000000, 0.0000000000000000000, 0.0000000000000000000, 0.0000000000000000000, 0.0000000000000000000, 0.0000000000000000000, 0.0000000000000000000 ) ;
#81 = FILL_AREA_STYLE ('',( #291 ) ) ;
#82 = ORIENTED_EDGE ( 'NONE', *, *, #235, .F. ) ;
#83 = VERTEX_POINT ( 'NONE', #280 ) ;
#84 = AXIS2_PLACEMENT_3D ( 'NONE', #150, #52, #149 ) ;
#85 =( LENGTH_UNIT ( ) NAMED_UNIT ( * ) SI_UNIT ( $, .METRE. ) );
#86 = ADVANCED_BREP_SHAPE_REPRESENTATION ( 'Micro_RMEM-015-2X', ( #143, #160 ), #288 ) ;
#87 = CIRCLE ( 'NONE', #73, 0.05905500000000000332 ) ;
#88 = ORIENTED_EDGE ( 'NONE', *, *, #116, .T. ) ;
#89 = AXIS2_PLACEMENT_3D ( 'NONE', #226, #23, #140 ) ;
#90 = PRESENTATION_LAYER_ASSIGNMENT (  '', '', ( #212 ) ) ;
#91 = PRODUCT_DEFINITION_SHAPE ( 'NONE', 'NONE',  #108 ) ;
#92 = DIRECTION ( 'NONE',  ( 1.000000000000000000, 0.0000000000000000000, 0.0000000000000000000 ) ) ;
#93 = PLANE ( 'NONE',  #238 ) ;
#94 = DIRECTION ( 'NONE',  ( -0.0000000000000000000, -0.0000000000000000000, -1.000000000000000000 ) ) ;
#95 = MECHANICAL_DESIGN_GEOMETRIC_PRESENTATION_REPRESENTATION (  '', ( #178 ), #287 ) ;
#96 = CARTESIAN_POINT ( 'NONE',  ( 0.0000000000000000000, 0.0000000000000000000, 0.0000000000000000000 ) ) ;
#97 = VERTEX_POINT ( 'NONE', #165 ) ;
#98 = DIRECTION ( 'NONE',  ( 0.0000000000000000000, 0.0000000000000000000, -1.000000000000000000 ) ) ;
#99 = EDGE_CURVE ( 'NONE', #136, #269, #1, .T. ) ;
#100 = CIRCLE ( 'NONE', #262, 0.02949797249999999357 ) ;
#101 = PRODUCT_DEFINITION_FORMATION_WITH_SPECIFIED_SOURCE ( 'ANY', '', #162, .NOT_KNOWN. ) ;
#102 = FACE_OUTER_BOUND ( 'NONE', #219, .T. ) ;
#103 =( LENGTH_UNIT ( ) NAMED_UNIT ( * ) SI_UNIT ( $, .METRE. ) );
#104 = DIRECTION ( 'NONE',  ( -1.000000000000000000, 0.0000000000000000000, 0.0000000000000000000 ) ) ;
#105 = CONICAL_SURFACE ( 'NONE', #142, 0.04405499999999973326, 0.7853981633974491672 ) ;
#106 = CARTESIAN_POINT ( 'NONE',  ( 2.025002468262114287E-17, 0.0000000000000000000, 0.1653539999999999732 ) ) ;
#107 = CARTESIAN_POINT ( 'NONE',  ( 0.0000000000000000000, 0.0000000000000000000, 0.0000000000000000000 ) ) ;
#108 = PRODUCT_DEFINITION ( 'UNKNOWN', '', #101, #298 ) ;
#109 = ORIENTED_EDGE ( 'NONE', *, *, #249, .T. ) ;
#110 = LENGTH_MEASURE_WITH_UNIT ( LENGTH_MEASURE( 0.02539999999999999897 ), #243 );
#111 = EDGE_LOOP ( 'NONE', ( #247, #134, #261, #290 ) ) ;
#112 = DIMENSIONAL_EXPONENTS ( 1.000000000000000000, 0.0000000000000000000, 0.0000000000000000000, 0.0000000000000000000, 0.0000000000000000000, 0.0000000000000000000, 0.0000000000000000000 ) ;
#113 = PRODUCT_RELATED_PRODUCT_CATEGORY ( 'part', '', ( #162 ) ) ;
#114 = ORIENTED_EDGE ( 'NONE', *, *, #292, .T. ) ;
#115 = FACE_OUTER_BOUND ( 'NONE', #42, .T. ) ;
#116 = EDGE_CURVE ( 'NONE', #293, #186, #281, .T. ) ;
#117 = LINE ( 'NONE', #27, #188 ) ;
#118 = AXIS2_PLACEMENT_3D ( 'NONE', #44, #66, #48 ) ;
#119 = FACE_OUTER_BOUND ( 'NONE', #157, .T. ) ;
#120 = ORIENTED_EDGE ( 'NONE', *, *, #43, .F. ) ;
#121 = EDGE_CURVE ( 'NONE', #97, #293, #71, .T. ) ;
#122 = ORIENTED_EDGE ( 'NONE', *, *, #172, .T. ) ;
#123 = AXIS2_PLACEMENT_3D ( 'NONE', #107, #246, #294 ) ;
#124 = DIRECTION ( 'NONE',  ( 1.000000000000000000, 0.0000000000000000000, -0.0000000000000000000 ) ) ;
#125 = FACE_OUTER_BOUND ( 'NONE', #202, .T. ) ;
#126 = DIRECTION ( 'NONE',  ( 1.224646799147353207E-16, 0.0000000000000000000, 1.000000000000000000 ) ) ;
#127 = VECTOR ( 'NONE', #185, 39.37007874015748143 ) ;
#128 = DIRECTION ( 'NONE',  ( 0.0000000000000000000, 0.0000000000000000000, -1.000000000000000000 ) ) ;
#129 = CARTESIAN_POINT ( 'NONE',  ( 0.04405499999999973326, 5.395181473643630390E-18, 1.496062999999999921 ) ) ;
#130 =( NAMED_UNIT ( * ) SI_UNIT ( $, .STERADIAN. ) SOLID_ANGLE_UNIT ( ) );
#131 = PRODUCT_CONTEXT ( 'NONE', #274, 'mechanical' ) ;
#132 = ADVANCED_FACE ( 'NONE', ( #29 ), #167, .T. ) ;
#133 = EDGE_LOOP ( 'NONE', ( #122, #41, #204, #37 ) ) ;
#134 = ORIENTED_EDGE ( 'NONE', *, *, #235, .T. ) ;
#135 = DIRECTION ( 'NONE',  ( -1.224646799147353207E-16, -0.0000000000000000000, -1.000000000000000000 ) ) ;
#136 = VERTEX_POINT ( 'NONE', #138 ) ;
#137 = EDGE_CURVE ( 'NONE', #186, #293, #276, .T. ) ;
#138 = CARTESIAN_POINT ( 'NONE',  ( 0.05905500000000000332, 7.232151672364695422E-18, 1.481062999999999574 ) ) ;
#139 = CLOSED_SHELL ( 'NONE', ( #132, #213, #205, #63, #25, #30, #193, #263, #297, #60 ) ) ;
#140 = DIRECTION ( 'NONE',  ( -1.000000000000000000, 0.0000000000000000000, 0.0000000000000000000 ) ) ;
#141 = AXIS2_PLACEMENT_3D ( 'NONE', #248, #225, #24 ) ;
#142 = AXIS2_PLACEMENT_3D ( 'NONE', #175, #257, #255 ) ;
#143 = MANIFOLD_SOLID_BREP ( 'Cut-Revolve1', #139 ) ;
#144 = CARTESIAN_POINT ( 'NONE',  ( 0.0000000000000000000, 0.0000000000000000000, 1.481062999999999574 ) ) ;
#145 = CARTESIAN_POINT ( 'NONE',  ( 4.077831761586898795E-17, 0.0000000000000000000, 0.3329802327026897824 ) ) ;
#146 = DIRECTION ( 'NONE',  ( -1.000000000000000000, 0.0000000000000000000, 1.224646799147353454E-16 ) ) ;
#147 = AXIS2_PLACEMENT_3D ( 'NONE', #197, #98, #104 ) ;
#148 = SURFACE_STYLE_FILL_AREA ( #196 ) ;
#149 = DIRECTION ( 'NONE',  ( 1.000000000000000000, 0.0000000000000000000, 0.0000000000000000000 ) ) ;
#150 = CARTESIAN_POINT ( 'NONE',  ( 2.025002468262114287E-17, 0.0000000000000000000, 0.1653539999999999732 ) ) ;
#151 = SURFACE_STYLE_USAGE ( .BOTH. , #58 ) ;
#152 = VECTOR ( 'NONE', #232, 39.37007874015748143 ) ;
#153 =( CONVERSION_BASED_UNIT ( 'INCH', #110 ) LENGTH_UNIT ( ) NAMED_UNIT ( #112 ) );
#154 = ORIENTED_EDGE ( 'NONE', *, *, #249, .F. ) ;
#155 = DIRECTION ( 'NONE',  ( 1.000000000000000000, 0.0000000000000000000, 0.0000000000000000000 ) ) ;
#156 = ORIENTED_EDGE ( 'NONE', *, *, #187, .T. ) ;
#157 = EDGE_LOOP ( 'NONE', ( #265, #88 ) ) ;
#158 = CIRCLE ( 'NONE', #28, 0.05905500000000000332 ) ;
#159 = LINE ( 'NONE', #16, #20 ) ;
#160 = AXIS2_PLACEMENT_3D ( 'NONE', #36, #264, #155 ) ;
#161 = EDGE_LOOP ( 'NONE', ( #109, #200, #64, #267 ) ) ;
#162 = PRODUCT ( 'Micro_RMEM-015-2X', 'Micro_RMEM-015-2X', '', ( #131 ) ) ;
#163 = DIRECTION ( 'NONE',  ( 1.000000000000000000, 0.0000000000000000000, 0.0000000000000000000 ) ) ;
#164 = CYLINDRICAL_SURFACE ( 'NONE', #89, 0.05905500000000000332 ) ;
#165 = CARTESIAN_POINT ( 'NONE',  ( 0.02949797250000001439, 0.0000000000000000000, 0.1653539999999999732 ) ) ;
#166 = AXIS2_PLACEMENT_3D ( 'NONE', #106, #53, #231 ) ;
#167 = CYLINDRICAL_SURFACE ( 'NONE', #141, 0.02949797249999999357 ) ;
#168 = CARTESIAN_POINT ( 'NONE',  ( 0.02949797249999999357, 3.612459760346164074E-18, -3.612459760346164074E-18 ) ) ;
#169 = CARTESIAN_POINT ( 'NONE',  ( 0.0000000000000000000, 0.0000000000000000000, 1.496062999999999921 ) ) ;
#170 = PRESENTATION_STYLE_ASSIGNMENT (( #286 ) ) ;
#171 = LINE ( 'NONE', #129, #245 ) ;
#172 = EDGE_CURVE ( 'NONE', #38, #136, #158, .T. ) ;
#173 = DIRECTION ( 'NONE',  ( 0.0000000000000000000, 0.0000000000000000000, 1.000000000000000000 ) ) ;
#174 = CONICAL_SURFACE ( 'NONE', #147, 0.04405499999999973326, 0.7853981633974491672 ) ;
#175 = CARTESIAN_POINT ( 'NONE',  ( 0.0000000000000000000, 0.0000000000000000000, 1.496062999999999921 ) ) ;
#176 = SURFACE_STYLE_FILL_AREA ( #81 ) ;
#177 = VERTEX_POINT ( 'NONE', #234 ) ;
#178 = STYLED_ITEM ( 'NONE', ( #170 ), #143 ) ;
#179 = CIRCLE ( 'NONE', #68, 0.04405499999999973326 ) ;
#180 = APPLICATION_PROTOCOL_DEFINITION ( 'draft international standard', 'automotive_design', 1998, #220 ) ;
#181 = VERTEX_POINT ( 'NONE', #214 ) ;
#182 = ORIENTED_EDGE ( 'NONE', *, *, #49, .F. ) ;
#183 = CIRCLE ( 'NONE', #166, 0.02949797249999999357 ) ;
#184 = ORIENTED_EDGE ( 'NONE', *, *, #5, .F. ) ;
#185 = DIRECTION ( 'NONE',  ( -1.224646799147353207E-16, -0.0000000000000000000, -1.000000000000000000 ) ) ;
#186 = VERTEX_POINT ( 'NONE', #11 ) ;
#187 = EDGE_CURVE ( 'NONE', #181, #38, #7, .T. ) ;
#188 = VECTOR ( 'NONE', #47, 39.37007874015747433 ) ;
#189 = DIRECTION ( 'NONE',  ( 1.000000000000000000, 0.0000000000000000000, 0.0000000000000000000 ) ) ;
#190 = UNCERTAINTY_MEASURE_WITH_UNIT (LENGTH_MEASURE( 1.000000000000000082E-05 ), #33, 'distance_accuracy_value', 'NONE');
#191 = DIRECTION ( 'NONE',  ( -1.224646799147353207E-16, -0.0000000000000000000, -1.000000000000000000 ) ) ;
#192 = DIRECTION ( 'NONE',  ( -1.000000000000000000, 0.0000000000000000000, 0.0000000000000000000 ) ) ;
#193 = ADVANCED_FACE ( 'NONE', ( #102 ), #174, .T. ) ;
#194 = SURFACE_SIDE_STYLE ('',( #148 ) ) ;
#195 = CIRCLE ( 'NONE', #51, 0.04405499999999973326 ) ;
#196 = FILL_AREA_STYLE ('',( #296 ) ) ;
#197 = CARTESIAN_POINT ( 'NONE',  ( 0.0000000000000000000, 0.0000000000000000000, 1.496062999999999921 ) ) ;
#198 = CARTESIAN_POINT ( 'NONE',  ( -0.05905499999999996169, 0.0000000000000000000, 0.3329802327026897824 ) ) ;
#199 = CIRCLE ( 'NONE', #50, 0.05905500000000000332 ) ;
#200 = ORIENTED_EDGE ( 'NONE', *, *, #121, .T. ) ;
#201 = VERTEX_POINT ( 'NONE', #198 ) ;
#202 = EDGE_LOOP ( 'NONE', ( #154, #295, #56, #59 ) ) ;
#203 =( NAMED_UNIT ( * ) PLANE_ANGLE_UNIT ( ) SI_UNIT ( $, .RADIAN. ) );
#204 = ORIENTED_EDGE ( 'NONE', *, *, #14, .F. ) ;
#205 = ADVANCED_FACE ( 'NONE', ( #31 ), #105, .T. ) ;
#206 = ORIENTED_EDGE ( 'NONE', *, *, #116, .F. ) ;
#207 = DIRECTION ( 'NONE',  ( -1.000000000000000000, 0.0000000000000000000, 1.224646799147353454E-16 ) ) ;
#208 = CARTESIAN_POINT ( 'NONE',  ( 0.0000000000000000000, 0.0000000000000000000, 1.481062999999999574 ) ) ;
#209 = DIRECTION ( 'NONE',  ( 0.0000000000000000000, 0.0000000000000000000, 1.000000000000000000 ) ) ;
#210 = CYLINDRICAL_SURFACE ( 'NONE', #224, 0.05905500000000000332 ) ;
#211 = FACE_OUTER_BOUND ( 'NONE', #218, .T. ) ;
#212 = STYLED_ITEM ( 'NONE', ( #239 ), #86 ) ;
#213 = ADVANCED_FACE ( 'NONE', ( #125 ), #13, .T. ) ;
#214 = CARTESIAN_POINT ( 'NONE',  ( -0.04405499999999973326, 0.0000000000000000000, 1.496062999999999921 ) ) ;
#215 = DIRECTION ( 'NONE',  ( 0.7071067811865482389, 8.659560562354941486E-17, -0.7071067811865469066 ) ) ;
#216 = CONICAL_SURFACE ( 'NONE', #84, 0.02949797249999999357, 0.1745329251994338915 ) ;
#217 =( NAMED_UNIT ( * ) SI_UNIT ( $, .STERADIAN. ) SOLID_ANGLE_UNIT ( ) );
#218 = EDGE_LOOP ( 'NONE', ( #19, #271, #242, #182 ) ) ;
#219 = EDGE_LOOP ( 'NONE', ( #82, #15, #156, #184 ) ) ;
#220 = APPLICATION_CONTEXT ( 'automotive_design' ) ;
#221 = COLOUR_RGB ( '',0.7921568627450980005, 0.8196078431372548767, 0.9333333333333333481 ) ;
#222 = ORIENTED_EDGE ( 'NONE', *, *, #278, .T. ) ;
#223 = DIRECTION ( 'NONE',  ( -1.000000000000000000, 0.0000000000000000000, 0.0000000000000000000 ) ) ;
#224 = AXIS2_PLACEMENT_3D ( 'NONE', #228, #253, #192 ) ;
#225 = DIRECTION ( 'NONE',  ( -1.224646799147353207E-16, -0.0000000000000000000, -1.000000000000000000 ) ) ;
#226 = CARTESIAN_POINT ( 'NONE',  ( 0.0000000000000000000, 0.0000000000000000000, 1.496062999999999921 ) ) ;
#227 = CARTESIAN_POINT ( 'NONE',  ( -0.05905500000000000332, 0.0000000000000000000, 1.481062999999999574 ) ) ;
#228 = CARTESIAN_POINT ( 'NONE',  ( 0.0000000000000000000, 0.0000000000000000000, 1.496062999999999921 ) ) ;
#229 = DIRECTION ( 'NONE',  ( -0.7071067811865482389, 0.0000000000000000000, -0.7071067811865469066 ) ) ;
#230 = EDGE_CURVE ( 'NONE', #97, #269, #72, .T. ) ;
#231 = DIRECTION ( 'NONE',  ( -1.000000000000000000, 0.0000000000000000000, 0.0000000000000000000 ) ) ;
#232 = DIRECTION ( 'NONE',  ( -0.0000000000000000000, -0.0000000000000000000, -1.000000000000000000 ) ) ;
#233 = AXIS2_PLACEMENT_3D ( 'NONE', #279, #191, #146 ) ;
#234 = CARTESIAN_POINT ( 'NONE',  ( -0.02949797249999997276, 5.422305716355429748E-18, 0.1653539999999999732 ) ) ;
#235 = EDGE_CURVE ( 'NONE', #83, #136, #171, .T. ) ;
#236 =( CONVERSION_BASED_UNIT ( 'INCH', #289 ) LENGTH_UNIT ( ) NAMED_UNIT ( #80 ) );
#237 = ORIENTED_EDGE ( 'NONE', *, *, #260, .T. ) ;
#238 = AXIS2_PLACEMENT_3D ( 'NONE', #96, #209, #124 ) ;
#239 = PRESENTATION_STYLE_ASSIGNMENT (( #151 ) ) ;
#240 = EDGE_LOOP ( 'NONE', ( #222, #237 ) ) ;
#241 =( NAMED_UNIT ( * ) PLANE_ANGLE_UNIT ( ) SI_UNIT ( $, .RADIAN. ) );
#242 = ORIENTED_EDGE ( 'NONE', *, *, #272, .T. ) ;
#243 =( LENGTH_UNIT ( ) NAMED_UNIT ( * ) SI_UNIT ( $, .METRE. ) );
#244 = ORIENTED_EDGE ( 'NONE', *, *, #230, .T. ) ;
#245 = VECTOR ( 'NONE', #215, 39.37007874015748143 ) ;
#246 = DIRECTION ( 'NONE',  ( -1.224646799147353207E-16, -0.0000000000000000000, -1.000000000000000000 ) ) ;
#247 = ORIENTED_EDGE ( 'NONE', *, *, #260, .F. ) ;
#248 = CARTESIAN_POINT ( 'NONE',  ( 0.0000000000000000000, 0.0000000000000000000, 0.0000000000000000000 ) ) ;
#249 = EDGE_CURVE ( 'NONE', #177, #97, #183, .T. ) ;
#250 = DIRECTION ( 'NONE',  ( -1.224646799147353207E-16, -0.0000000000000000000, -1.000000000000000000 ) ) ;
#251 = CARTESIAN_POINT ( 'NONE',  ( 0.05905500000000000332, 7.232151672364695422E-18, 1.496062999999999921 ) ) ;
#252 = CARTESIAN_POINT ( 'NONE',  ( 2.025002468262114287E-17, 0.0000000000000000000, 0.1653539999999999732 ) ) ;
#253 = DIRECTION ( 'NONE',  ( -0.0000000000000000000, -0.0000000000000000000, -1.000000000000000000 ) ) ;
#254 = VECTOR ( 'NONE', #94, 39.37007874015748143 ) ;
#255 = DIRECTION ( 'NONE',  ( -1.000000000000000000, 0.0000000000000000000, 0.0000000000000000000 ) ) ;
#256 = DIRECTION ( 'NONE',  ( 1.000000000000000000, 0.0000000000000000000, 0.0000000000000000000 ) ) ;
#257 = DIRECTION ( 'NONE',  ( 0.0000000000000000000, 0.0000000000000000000, -1.000000000000000000 ) ) ;
#258 = LINE ( 'NONE', #285, #152 ) ;
#259 = CARTESIAN_POINT ( 'NONE',  ( 2.025002468262114287E-17, 0.0000000000000000000, 0.1653539999999999732 ) ) ;
#260 = EDGE_CURVE ( 'NONE', #83, #181, #195, .T. ) ;
#261 = ORIENTED_EDGE ( 'NONE', *, *, #172, .F. ) ;
#262 = AXIS2_PLACEMENT_3D ( 'NONE', #252, #3, #223 ) ;
#263 = ADVANCED_FACE ( 'NONE', ( #75 ), #216, .T. ) ;
#264 = DIRECTION ( 'NONE',  ( 0.0000000000000000000, 0.0000000000000000000, 1.000000000000000000 ) ) ;
#265 = ORIENTED_EDGE ( 'NONE', *, *, #137, .T. ) ;
#266 = SHAPE_DEFINITION_REPRESENTATION ( #91, #86 ) ;
#267 = ORIENTED_EDGE ( 'NONE', *, *, #292, .F. ) ;
#268 = CARTESIAN_POINT ( 'NONE',  ( 0.02949797250000000398, 3.612459760346164844E-18, 0.0000000000000000000 ) ) ;
#269 = VERTEX_POINT ( 'NONE', #32 ) ;
#270 = AXIS2_PLACEMENT_3D ( 'NONE', #259, #126, #256 ) ;
#271 = ORIENTED_EDGE ( 'NONE', *, *, #5, .T. ) ;
#272 = EDGE_CURVE ( 'NONE', #38, #201, #258, .T. ) ;
#273 = PLANE ( 'NONE',  #118 ) ;
#274 = APPLICATION_CONTEXT ( 'automotive_design' ) ;
#275 = FACE_OUTER_BOUND ( 'NONE', #133, .T. ) ;
#276 = CIRCLE ( 'NONE', #6, 0.02949797249999999704 ) ;
#277 = DIRECTION ( 'NONE',  ( -1.224646799147353207E-16, -0.0000000000000000000, -1.000000000000000000 ) ) ;
#278 = EDGE_CURVE ( 'NONE', #181, #83, #179, .T. ) ;
#279 = CARTESIAN_POINT ( 'NONE',  ( 4.423987282556545093E-34, 0.0000000000000000000, 3.612459760346164844E-18 ) ) ;
#280 = CARTESIAN_POINT ( 'NONE',  ( 0.04405499999999973326, 6.313666573004162521E-18, 1.496062999999999921 ) ) ;
#281 = CIRCLE ( 'NONE', #233, 0.02949797249999999704 ) ;
#282 = CARTESIAN_POINT ( 'NONE',  ( -0.04405499999999973326, 0.0000000000000000000, 1.496062999999999921 ) ) ;
#283 = UNCERTAINTY_MEASURE_WITH_UNIT (LENGTH_MEASURE( 1.000000000000000082E-05 ), #153, 'distance_accuracy_value', 'NONE');
#284 =( NAMED_UNIT ( * ) PLANE_ANGLE_UNIT ( ) SI_UNIT ( $, .RADIAN. ) );
#285 = CARTESIAN_POINT ( 'NONE',  ( -0.05905500000000000332, 0.0000000000000000000, 1.496062999999999921 ) ) ;
#286 = SURFACE_STYLE_USAGE ( .BOTH. , #194 ) ;
#287 =( GEOMETRIC_REPRESENTATION_CONTEXT ( 3 ) GLOBAL_UNCERTAINTY_ASSIGNED_CONTEXT ( ( #190 ) ) GLOBAL_UNIT_ASSIGNED_CONTEXT ( ( #33, #284, #12 ) ) REPRESENTATION_CONTEXT ( 'NONE', 'WORKASPACE' ) );
#288 =( GEOMETRIC_REPRESENTATION_CONTEXT ( 3 ) GLOBAL_UNCERTAINTY_ASSIGNED_CONTEXT ( ( #76 ) ) GLOBAL_UNIT_ASSIGNED_CONTEXT ( ( #236, #203, #217 ) ) REPRESENTATION_CONTEXT ( 'NONE', 'WORKASPACE' ) );
#289 = LENGTH_MEASURE_WITH_UNIT ( LENGTH_MEASURE( 0.02539999999999999897 ), #85 );
#290 = ORIENTED_EDGE ( 'NONE', *, *, #187, .F. ) ;
#291 = FILL_AREA_STYLE_COLOUR ( '', #35 ) ;
#292 = EDGE_CURVE ( 'NONE', #177, #186, #159, .T. ) ;
#293 = VERTEX_POINT ( 'NONE', #268 ) ;
#294 = DIRECTION ( 'NONE',  ( -1.000000000000000000, 0.0000000000000000000, 1.224646799147353207E-16 ) ) ;
#295 = ORIENTED_EDGE ( 'NONE', *, *, #10, .T. ) ;
#296 = FILL_AREA_STYLE_COLOUR ( '', #221 ) ;
#297 = ADVANCED_FACE ( 'NONE', ( #115 ), #22, .T. ) ;
#298 = PRODUCT_DEFINITION_CONTEXT ( 'detailed design', #220, 'design' ) ;
#299 = DIRECTION ( 'NONE',  ( 0.0000000000000000000, 0.0000000000000000000, -1.000000000000000000 ) ) ;
ENDSEC;
END-ISO-10303-21;
