ISO-10303-21;
HEADER;
FILE_DESCRIPTION (( 'STEP AP214' ),
    '1' );
FILE_NAME ('Micro_RTC-312-14.STEP',
    '2021-09-03T18:14:38',
    ( '' ),
    ( '' ),
    'SwSTEP 2.0',
    'SolidWorks 2020',
    '' );
FILE_SCHEMA (( 'AUTOMOTIVE_DESIGN' ));
ENDSEC;

DATA;
#1 = AXIS2_PLACEMENT_3D ( 'NONE', #223, #226, #110 ) ;
#2 = VERTEX_POINT ( 'NONE', #222 ) ;
#3 = AXIS2_PLACEMENT_3D ( 'NONE', #248, #244, #114 ) ;
#4 =( NAMED_UNIT ( * ) SI_UNIT ( $, .STERADIAN. ) SOLID_ANGLE_UNIT ( ) );
#5 = ORIENTED_EDGE ( 'NONE', *, *, #69, .T. ) ;
#6 = ORIENTED_EDGE ( 'NONE', *, *, #174, .T. ) ;
#7 = DIRECTION ( 'NONE',  ( 1.000000000000000000, 0.0000000000000000000, -0.0000000000000000000 ) ) ;
#8 = AXIS2_PLACEMENT_3D ( 'NONE', #221, #42, #56 ) ;
#9 = CYLINDRICAL_SURFACE ( 'NONE', #88, 0.1562500000000000000 ) ;
#10 = LINE ( 'NONE', #128, #150 ) ;
#11 = ADVANCED_FACE ( 'NONE', ( #103 ), #46, .T. ) ;
#12 = DIRECTION ( 'NONE',  ( 0.0000000000000000000, 0.0000000000000000000, -1.000000000000000000 ) ) ;
#13 = AXIS2_PLACEMENT_3D ( 'NONE', #68, #17, #91 ) ;
#14 = DIRECTION ( 'NONE',  ( 0.0000000000000000000, 0.0000000000000000000, 1.000000000000000000 ) ) ;
#15 = ADVANCED_FACE ( 'NONE', ( #181 ), #113, .T. ) ;
#16 = SURFACE_STYLE_FILL_AREA ( #183 ) ;
#17 = DIRECTION ( 'NONE',  ( 0.0000000000000000000, 0.0000000000000000000, -1.000000000000000000 ) ) ;
#18 = AXIS2_PLACEMENT_3D ( 'NONE', #106, #12, #165 ) ;
#19 = DIRECTION ( 'NONE',  ( -1.000000000000000000, 0.0000000000000000000, 0.0000000000000000000 ) ) ;
#20 = DIRECTION ( 'NONE',  ( 1.000000000000000000, 0.0000000000000000000, 0.0000000000000000000 ) ) ;
#21 = PRODUCT_RELATED_PRODUCT_CATEGORY ( 'part', '', ( #60 ) ) ;
#22 = CARTESIAN_POINT ( 'NONE',  ( 0.0000000000000000000, 0.0000000000000000000, 0.0000000000000000000 ) ) ;
#23 = ORIENTED_EDGE ( 'NONE', *, *, #154, .F. ) ;
#24 = ORIENTED_EDGE ( 'NONE', *, *, #59, .F. ) ;
#25 = ORIENTED_EDGE ( 'NONE', *, *, #125, .T. ) ;
#26 = ORIENTED_EDGE ( 'NONE', *, *, #130, .T. ) ;
#27 = DIRECTION ( 'NONE',  ( -1.000000000000000000, 0.0000000000000000000, 0.0000000000000000000 ) ) ;
#28 = ORIENTED_EDGE ( 'NONE', *, *, #205, .F. ) ;
#29 = CIRCLE ( 'NONE', #3, 0.003999999999999999216 ) ;
#30 = ORIENTED_EDGE ( 'NONE', *, *, #78, .F. ) ;
#31 = CARTESIAN_POINT ( 'NONE',  ( -0.1562500000000000000, 0.0000000000000000000, 4.000000000000000000 ) ) ;
#32 = DIRECTION ( 'NONE',  ( -0.0000000000000000000, -0.0000000000000000000, -1.000000000000000000 ) ) ;
#33 = DIRECTION ( 'NONE',  ( 0.0000000000000000000, 0.0000000000000000000, -1.000000000000000000 ) ) ;
#34 = CARTESIAN_POINT ( 'NONE',  ( 0.0000000000000000000, 0.0000000000000000000, 0.0000000000000000000 ) ) ;
#35 = EDGE_CURVE ( 'NONE', #194, #2, #146, .T. ) ;
#36 = PRODUCT_DEFINITION_SHAPE ( 'NONE', 'NONE',  #185 ) ;
#37 =( NAMED_UNIT ( * ) SI_UNIT ( $, .STERADIAN. ) SOLID_ANGLE_UNIT ( ) );
#38 = ORIENTED_EDGE ( 'NONE', *, *, #92, .T. ) ;
#39 =( CONVERSION_BASED_UNIT ( 'INCH', #212 ) LENGTH_UNIT ( ) NAMED_UNIT ( #127 ) );
#40 = ORIENTED_EDGE ( 'NONE', *, *, #246, .T. ) ;
#41 = STYLED_ITEM ( 'NONE', ( #192 ), #145 ) ;
#42 = DIRECTION ( 'NONE',  ( 0.0000000000000000000, 0.0000000000000000000, 1.000000000000000000 ) ) ;
#43 = VERTEX_POINT ( 'NONE', #162 ) ;
#44 = ORIENTED_EDGE ( 'NONE', *, *, #78, .T. ) ;
#45 = CARTESIAN_POINT ( 'NONE',  ( 0.0000000000000000000, 0.0000000000000000000, 4.000000000000000000 ) ) ;
#46 = CYLINDRICAL_SURFACE ( 'NONE', #155, 0.1562500000000000000 ) ;
#47 = VECTOR ( 'NONE', #108, 39.37007874015748143 ) ;
#48 = SURFACE_STYLE_USAGE ( .BOTH. , #151 ) ;
#49 = PLANE ( 'NONE',  #115 ) ;
#50 = ADVANCED_FACE ( 'NONE', ( #203 ), #120, .T. ) ;
#51 = MECHANICAL_DESIGN_GEOMETRIC_PRESENTATION_REPRESENTATION (  '', ( #41 ), #72 ) ;
#52 =( CONVERSION_BASED_UNIT ( 'INCH', #129 ) LENGTH_UNIT ( ) NAMED_UNIT ( #107 ) );
#53 = EDGE_LOOP ( 'NONE', ( #160, #213, #23, #126 ) ) ;
#54 = VECTOR ( 'NONE', #180, 39.37007874015748143 ) ;
#55 = APPLICATION_PROTOCOL_DEFINITION ( 'draft international standard', 'automotive_design', 1998, #79 ) ;
#56 = DIRECTION ( 'NONE',  ( 1.000000000000000000, 0.0000000000000000000, 0.0000000000000000000 ) ) ;
#57 = CONICAL_SURFACE ( 'NONE', #173, 0.1412500000000000422, 0.7853981633974391752 ) ;
#58 = CARTESIAN_POINT ( 'NONE',  ( -0.1562500000000000000, 0.0000000000000000000, 3.984999999999999876 ) ) ;
#59 = EDGE_CURVE ( 'NONE', #96, #43, #179, .T. ) ;
#60 = PRODUCT ( 'Micro_RTC-312-14', 'Micro_RTC-312-14', '', ( #157 ) ) ;
#61 = DIRECTION ( 'NONE',  ( -0.0000000000000000000, -0.0000000000000000000, -1.000000000000000000 ) ) ;
#62 = FACE_OUTER_BOUND ( 'NONE', #214, .T. ) ;
#63 = VECTOR ( 'NONE', #85, 39.37007874015748143 ) ;
#64 = CARTESIAN_POINT ( 'NONE',  ( 0.0000000000000000000, 0.0000000000000000000, 4.000000000000000000 ) ) ;
#65 = DIRECTION ( 'NONE',  ( 0.0000000000000000000, 0.0000000000000000000, -1.000000000000000000 ) ) ;
#66 = DIRECTION ( 'NONE',  ( -1.000000000000000000, 0.0000000000000000000, 0.0000000000000000000 ) ) ;
#67 =( GEOMETRIC_REPRESENTATION_CONTEXT ( 3 ) GLOBAL_UNCERTAINTY_ASSIGNED_CONTEXT ( ( #90 ) ) GLOBAL_UNIT_ASSIGNED_CONTEXT ( ( #133, #206, #135 ) ) REPRESENTATION_CONTEXT ( 'NONE', 'WORKASPACE' ) );
#68 = CARTESIAN_POINT ( 'NONE',  ( 0.0000000000000000000, 0.0000000000000000000, 3.984999999999999876 ) ) ;
#69 = EDGE_CURVE ( 'NONE', #75, #87, #10, .T. ) ;
#70 = CARTESIAN_POINT ( 'NONE',  ( 0.1562500000000000000, 1.913510623667739463E-17, 4.000000000000000000 ) ) ;
#71 = DIRECTION ( 'NONE',  ( -0.0000000000000000000, -0.0000000000000000000, -1.000000000000000000 ) ) ;
#72 =( GEOMETRIC_REPRESENTATION_CONTEXT ( 3 ) GLOBAL_UNCERTAINTY_ASSIGNED_CONTEXT ( ( #245 ) ) GLOBAL_UNIT_ASSIGNED_CONTEXT ( ( #39, #235, #37 ) ) REPRESENTATION_CONTEXT ( 'NONE', 'WORKASPACE' ) );
#73 = DIRECTION ( 'NONE',  ( 0.0000000000000000000, 0.0000000000000000000, 1.000000000000000000 ) ) ;
#74 = SURFACE_SIDE_STYLE ('',( #215 ) ) ;
#75 = VERTEX_POINT ( 'NONE', #238 ) ;
#76 = APPLICATION_PROTOCOL_DEFINITION ( 'draft international standard', 'automotive_design', 1998, #101 ) ;
#77 = STYLED_ITEM ( 'NONE', ( #186 ), #199 ) ;
#78 = EDGE_CURVE ( 'NONE', #231, #2, #104, .T. ) ;
#79 = APPLICATION_CONTEXT ( 'automotive_design' ) ;
#80 = ORIENTED_EDGE ( 'NONE', *, *, #225, .F. ) ;
#81 = EDGE_LOOP ( 'NONE', ( #201, #26 ) ) ;
#82 = ADVANCED_FACE ( 'NONE', ( #102 ), #9, .T. ) ;
#83 = ORIENTED_EDGE ( 'NONE', *, *, #225, .T. ) ;
#84 = UNCERTAINTY_MEASURE_WITH_UNIT (LENGTH_MEASURE( 1.000000000000000082E-05 ), #52, 'distance_accuracy_value', 'NONE');
#85 = DIRECTION ( 'NONE',  ( 0.2588190451025216832, 0.0000000000000000000, 0.9659258262890679791 ) ) ;
#86 = DIRECTION ( 'NONE',  ( -1.000000000000000000, 0.0000000000000000000, 0.0000000000000000000 ) ) ;
#87 = VERTEX_POINT ( 'NONE', #58 ) ;
#88 = AXIS2_PLACEMENT_3D ( 'NONE', #240, #239, #218 ) ;
#89 = DIRECTION ( 'NONE',  ( 0.0000000000000000000, 0.0000000000000000000, 1.000000000000000000 ) ) ;
#90 = UNCERTAINTY_MEASURE_WITH_UNIT (LENGTH_MEASURE( 1.000000000000000082E-05 ), #133, 'distance_accuracy_value', 'NONE');
#91 = DIRECTION ( 'NONE',  ( 1.000000000000000000, 0.0000000000000000000, 0.0000000000000000000 ) ) ;
#92 = EDGE_CURVE ( 'NONE', #177, #231, #243, .T. ) ;
#93 = DIRECTION ( 'NONE',  ( 0.0000000000000000000, 0.0000000000000000000, 1.000000000000000000 ) ) ;
#94 = CIRCLE ( 'NONE', #98, 0.1562500000000000000 ) ;
#95 = EDGE_LOOP ( 'NONE', ( #24, #139, #5, #236 ) ) ;
#96 = VERTEX_POINT ( 'NONE', #142 ) ;
#97 = SURFACE_STYLE_USAGE ( .BOTH. , #74 ) ;
#98 = AXIS2_PLACEMENT_3D ( 'NONE', #249, #153, #148 ) ;
#99 = MECHANICAL_DESIGN_GEOMETRIC_PRESENTATION_REPRESENTATION (  '', ( #77 ), #67 ) ;
#100 = EDGE_LOOP ( 'NONE', ( #80, #25, #191, #30 ) ) ;
#101 = APPLICATION_CONTEXT ( 'automotive_design' ) ;
#102 = FACE_OUTER_BOUND ( 'NONE', #196, .T. ) ;
#103 = FACE_OUTER_BOUND ( 'NONE', #100, .T. ) ;
#104 = CIRCLE ( 'NONE', #232, 0.1562500000000000000 ) ;
#105 = DIRECTION ( 'NONE',  ( -0.0000000000000000000, -0.0000000000000000000, -1.000000000000000000 ) ) ;
#106 = CARTESIAN_POINT ( 'NONE',  ( 0.0000000000000000000, 0.0000000000000000000, 3.984999999999999876 ) ) ;
#107 = DIMENSIONAL_EXPONENTS ( 1.000000000000000000, 0.0000000000000000000, 0.0000000000000000000, 0.0000000000000000000, 0.0000000000000000000, 0.0000000000000000000, 0.0000000000000000000 ) ;
#108 = DIRECTION ( 'NONE',  ( -0.2588190451025216832, 3.169619151431776035E-17, 0.9659258262890679791 ) ) ;
#109 = AXIS2_PLACEMENT_3D ( 'NONE', #22, #73, #229 ) ;
#110 = DIRECTION ( 'NONE',  ( 1.000000000000000000, 0.0000000000000000000, 0.0000000000000000000 ) ) ;
#111 = ADVANCED_FACE ( 'NONE', ( #62 ), #227, .T. ) ;
#112 = CARTESIAN_POINT ( 'NONE',  ( 0.0000000000000000000, 0.0000000000000000000, 4.000000000000000000 ) ) ;
#113 = CONICAL_SURFACE ( 'NONE', #8, 0.003999999999999999216, 0.2617993877991502960 ) ;
#114 = DIRECTION ( 'NONE',  ( -1.000000000000000000, 0.0000000000000000000, 0.0000000000000000000 ) ) ;
#115 = AXIS2_PLACEMENT_3D ( 'NONE', #172, #93, #204 ) ;
#116 = EDGE_CURVE ( 'NONE', #87, #2, #163, .T. ) ;
#117 = PRODUCT_DEFINITION_CONTEXT ( 'detailed design', #79, 'design' ) ;
#118 = CIRCLE ( 'NONE', #1, 0.1412500000000000422 ) ;
#119 = CARTESIAN_POINT ( 'NONE',  ( 0.0000000000000000000, 0.0000000000000000000, 4.000000000000000000 ) ) ;
#120 = PLANE ( 'NONE',  #195 ) ;
#121 = CLOSED_SHELL ( 'NONE', ( #111, #237, #82, #11, #50, #198, #15, #137 ) ) ;
#122 = EDGE_LOOP ( 'NONE', ( #156, #6 ) ) ;
#123 = AXIS2_PLACEMENT_3D ( 'NONE', #188, #65, #19 ) ;
#124 = DIMENSIONAL_EXPONENTS ( 1.000000000000000000, 0.0000000000000000000, 0.0000000000000000000, 0.0000000000000000000, 0.0000000000000000000, 0.0000000000000000000, 0.0000000000000000000 ) ;
#125 = EDGE_CURVE ( 'NONE', #43, #87, #176, .T. ) ;
#126 = ORIENTED_EDGE ( 'NONE', *, *, #69, .F. ) ;
#127 = DIMENSIONAL_EXPONENTS ( 1.000000000000000000, 0.0000000000000000000, 0.0000000000000000000, 0.0000000000000000000, 0.0000000000000000000, 0.0000000000000000000, 0.0000000000000000000 ) ;
#128 = CARTESIAN_POINT ( 'NONE',  ( -0.1412500000000000422, 0.0000000000000000000, 4.000000000000000000 ) ) ;
#129 = LENGTH_MEASURE_WITH_UNIT ( LENGTH_MEASURE( 0.02539999999999999897 ), #210 );
#130 = EDGE_CURVE ( 'NONE', #96, #75, #224, .T. ) ;
#131 =( GEOMETRIC_REPRESENTATION_CONTEXT ( 3 ) GLOBAL_UNCERTAINTY_ASSIGNED_CONTEXT ( ( #84 ) ) GLOBAL_UNIT_ASSIGNED_CONTEXT ( ( #52, #230, #4 ) ) REPRESENTATION_CONTEXT ( 'NONE', 'WORKASPACE' ) );
#132 = LENGTH_MEASURE_WITH_UNIT ( LENGTH_MEASURE( 0.02539999999999999897 ), #247 );
#133 =( CONVERSION_BASED_UNIT ( 'INCH', #132 ) LENGTH_UNIT ( ) NAMED_UNIT ( #124 ) );
#134 = CARTESIAN_POINT ( 'NONE',  ( -0.003999999999999999216, 9.812482478168164334E-18, 0.0000000000000000000 ) ) ;
#135 =( NAMED_UNIT ( * ) SI_UNIT ( $, .STERADIAN. ) SOLID_ANGLE_UNIT ( ) );
#136 = EDGE_LOOP ( 'NONE', ( #138, #28, #38, #44 ) ) ;
#137 = ADVANCED_FACE ( 'NONE', ( #149 ), #49, .F. ) ;
#138 = ORIENTED_EDGE ( 'NONE', *, *, #35, .F. ) ;
#139 = ORIENTED_EDGE ( 'NONE', *, *, #147, .F. ) ;
#140 = ORIENTED_EDGE ( 'NONE', *, *, #92, .F. ) ;
#141 = ORIENTED_EDGE ( 'NONE', *, *, #246, .F. ) ;
#142 = CARTESIAN_POINT ( 'NONE',  ( 0.1412500000000000422, 1.821662113731687868E-17, 4.000000000000000000 ) ) ;
#143 = CARTESIAN_POINT ( 'NONE',  ( 0.003999999999999999216, 0.0000000000000000000, 0.0000000000000000000 ) ) ;
#144 = CARTESIAN_POINT ( 'NONE',  ( 0.0000000000000000000, 0.0000000000000000000, 0.0000000000000000000 ) ) ;
#145 = ADVANCED_BREP_SHAPE_REPRESENTATION ( 'Micro_RTC-312-14', ( #199, #109 ), #131 ) ;
#146 = LINE ( 'NONE', #197, #47 ) ;
#147 = EDGE_CURVE ( 'NONE', #75, #96, #118, .T. ) ;
#148 = DIRECTION ( 'NONE',  ( -1.000000000000000000, 0.0000000000000000000, 0.0000000000000000000 ) ) ;
#149 = FACE_OUTER_BOUND ( 'NONE', #122, .T. ) ;
#150 = VECTOR ( 'NONE', #164, 39.37007874015748143 ) ;
#151 = SURFACE_SIDE_STYLE ('',( #16 ) ) ;
#152 = FACE_OUTER_BOUND ( 'NONE', #53, .T. ) ;
#153 = DIRECTION ( 'NONE',  ( -0.0000000000000000000, -0.0000000000000000000, -1.000000000000000000 ) ) ;
#154 = EDGE_CURVE ( 'NONE', #87, #43, #242, .T. ) ;
#155 = AXIS2_PLACEMENT_3D ( 'NONE', #119, #105, #86 ) ;
#156 = ORIENTED_EDGE ( 'NONE', *, *, #205, .T. ) ;
#157 = PRODUCT_CONTEXT ( 'NONE', #101, 'mechanical' ) ;
#158 = VECTOR ( 'NONE', #71, 39.37007874015748143 ) ;
#159 = ORIENTED_EDGE ( 'NONE', *, *, #35, .T. ) ;
#160 = ORIENTED_EDGE ( 'NONE', *, *, #130, .F. ) ;
#161 = CIRCLE ( 'NONE', #190, 0.003999999999999999216 ) ;
#162 = CARTESIAN_POINT ( 'NONE',  ( 0.1562500000000000000, 1.913510623667739463E-17, 3.984999999999999876 ) ) ;
#163 = LINE ( 'NONE', #31, #216 ) ;
#164 = DIRECTION ( 'NONE',  ( -0.7071067811865411334, 0.0000000000000000000, -0.7071067811865539010 ) ) ;
#165 = DIRECTION ( 'NONE',  ( 1.000000000000000000, 0.0000000000000000000, 0.0000000000000000000 ) ) ;
#166 = COLOUR_RGB ( '',0.7921568627450980005, 0.8196078431372548767, 0.9333333333333333481 ) ;
#167 = DIRECTION ( 'NONE',  ( -0.0000000000000000000, -0.0000000000000000000, -1.000000000000000000 ) ) ;
#168 = CARTESIAN_POINT ( 'NONE',  ( 0.003999999999999999216, 0.0000000000000000000, 0.0000000000000000000 ) ) ;
#169 = FILL_AREA_STYLE_COLOUR ( '', #209 ) ;
#170 = AXIS2_PLACEMENT_3D ( 'NONE', #144, #14, #202 ) ;
#171 = LINE ( 'NONE', #70, #158 ) ;
#172 = CARTESIAN_POINT ( 'NONE',  ( 0.0000000000000000000, 0.0000000000000000000, 0.0000000000000000000 ) ) ;
#173 = AXIS2_PLACEMENT_3D ( 'NONE', #112, #33, #66 ) ;
#174 = EDGE_CURVE ( 'NONE', #194, #177, #161, .T. ) ;
#175 =( LENGTH_UNIT ( ) NAMED_UNIT ( * ) SI_UNIT ( $, .METRE. ) );
#176 = CIRCLE ( 'NONE', #18, 0.1562500000000000000 ) ;
#177 = VERTEX_POINT ( 'NONE', #168 ) ;
#178 = DIRECTION ( 'NONE',  ( 0.0000000000000000000, 0.0000000000000000000, 1.000000000000000000 ) ) ;
#179 = LINE ( 'NONE', #182, #54 ) ;
#180 = DIRECTION ( 'NONE',  ( 0.7071067811865411334, 8.659560562354852739E-17, -0.7071067811865539010 ) ) ;
#181 = FACE_OUTER_BOUND ( 'NONE', #136, .T. ) ;
#182 = CARTESIAN_POINT ( 'NONE',  ( 0.1412500000000000422, 1.729813603795636273E-17, 4.000000000000000000 ) ) ;
#183 = FILL_AREA_STYLE ('',( #169 ) ) ;
#184 = CARTESIAN_POINT ( 'NONE',  ( 0.1562500000000000000, 1.913510623667739463E-17, 0.5682047354523593885 ) ) ;
#185 = PRODUCT_DEFINITION ( 'UNKNOWN', '', #211, #117 ) ;
#186 = PRESENTATION_STYLE_ASSIGNMENT (( #48 ) ) ;
#187 = PRESENTATION_LAYER_ASSIGNMENT (  '', '', ( #41 ) ) ;
#188 = CARTESIAN_POINT ( 'NONE',  ( 0.0000000000000000000, 0.0000000000000000000, 4.000000000000000000 ) ) ;
#189 = FACE_OUTER_BOUND ( 'NONE', #95, .T. ) ;
#190 = AXIS2_PLACEMENT_3D ( 'NONE', #34, #167, #207 ) ;
#191 = ORIENTED_EDGE ( 'NONE', *, *, #116, .T. ) ;
#192 = PRESENTATION_STYLE_ASSIGNMENT (( #97 ) ) ;
#193 = FILL_AREA_STYLE_COLOUR ( '', #166 ) ;
#194 = VERTEX_POINT ( 'NONE', #134 ) ;
#195 = AXIS2_PLACEMENT_3D ( 'NONE', #45, #178, #7 ) ;
#196 = EDGE_LOOP ( 'NONE', ( #217, #83, #141, #219 ) ) ;
#197 = CARTESIAN_POINT ( 'NONE',  ( -0.003999999999999999216, 4.898587196589411612E-19, 0.0000000000000000000 ) ) ;
#198 = ADVANCED_FACE ( 'NONE', ( #189 ), #57, .T. ) ;
#199 = MANIFOLD_SOLID_BREP ( 'Cut-Revolve1', #121 ) ;
#200 = AXIS2_PLACEMENT_3D ( 'NONE', #64, #89, #20 ) ;
#201 = ORIENTED_EDGE ( 'NONE', *, *, #147, .T. ) ;
#202 = DIRECTION ( 'NONE',  ( 1.000000000000000000, 0.0000000000000000000, 0.0000000000000000000 ) ) ;
#203 = FACE_OUTER_BOUND ( 'NONE', #81, .T. ) ;
#204 = DIRECTION ( 'NONE',  ( 1.000000000000000000, 0.0000000000000000000, -0.0000000000000000000 ) ) ;
#205 = EDGE_CURVE ( 'NONE', #177, #194, #29, .T. ) ;
#206 =( NAMED_UNIT ( * ) PLANE_ANGLE_UNIT ( ) SI_UNIT ( $, .RADIAN. ) );
#207 = DIRECTION ( 'NONE',  ( -1.000000000000000000, 0.0000000000000000000, 0.0000000000000000000 ) ) ;
#208 = CONICAL_SURFACE ( 'NONE', #123, 0.1412500000000000422, 0.7853981633974391752 ) ;
#209 = COLOUR_RGB ( '',0.7921568627450980005, 0.8196078431372548767, 0.9333333333333333481 ) ;
#210 =( LENGTH_UNIT ( ) NAMED_UNIT ( * ) SI_UNIT ( $, .METRE. ) );
#211 = PRODUCT_DEFINITION_FORMATION_WITH_SPECIFIED_SOURCE ( 'ANY', '', #60, .NOT_KNOWN. ) ;
#212 = LENGTH_MEASURE_WITH_UNIT ( LENGTH_MEASURE( 0.02539999999999999897 ), #175 );
#213 = ORIENTED_EDGE ( 'NONE', *, *, #59, .T. ) ;
#214 = EDGE_LOOP ( 'NONE', ( #234, #159, #40, #140 ) ) ;
#215 = SURFACE_STYLE_FILL_AREA ( #228 ) ;
#216 = VECTOR ( 'NONE', #61, 39.37007874015748143 ) ;
#217 = ORIENTED_EDGE ( 'NONE', *, *, #154, .T. ) ;
#218 = DIRECTION ( 'NONE',  ( -1.000000000000000000, 0.0000000000000000000, 0.0000000000000000000 ) ) ;
#219 = ORIENTED_EDGE ( 'NONE', *, *, #116, .F. ) ;
#220 = PRESENTATION_LAYER_ASSIGNMENT (  '', '', ( #77 ) ) ;
#221 = CARTESIAN_POINT ( 'NONE',  ( 0.0000000000000000000, 0.0000000000000000000, 0.0000000000000000000 ) ) ;
#222 = CARTESIAN_POINT ( 'NONE',  ( -0.1562500000000000000, 0.0000000000000000000, 0.5682047354523593885 ) ) ;
#223 = CARTESIAN_POINT ( 'NONE',  ( 0.0000000000000000000, 0.0000000000000000000, 4.000000000000000000 ) ) ;
#224 = CIRCLE ( 'NONE', #200, 0.1412500000000000422 ) ;
#225 = EDGE_CURVE ( 'NONE', #43, #231, #171, .T. ) ;
#226 = DIRECTION ( 'NONE',  ( 0.0000000000000000000, 0.0000000000000000000, 1.000000000000000000 ) ) ;
#227 = CONICAL_SURFACE ( 'NONE', #170, 0.003999999999999999216, 0.2617993877991502960 ) ;
#228 = FILL_AREA_STYLE ('',( #193 ) ) ;
#229 = DIRECTION ( 'NONE',  ( 1.000000000000000000, 0.0000000000000000000, 0.0000000000000000000 ) ) ;
#230 =( NAMED_UNIT ( * ) PLANE_ANGLE_UNIT ( ) SI_UNIT ( $, .RADIAN. ) );
#231 = VERTEX_POINT ( 'NONE', #184 ) ;
#232 = AXIS2_PLACEMENT_3D ( 'NONE', #241, #32, #27 ) ;
#233 = SHAPE_DEFINITION_REPRESENTATION ( #36, #145 ) ;
#234 = ORIENTED_EDGE ( 'NONE', *, *, #174, .F. ) ;
#235 =( NAMED_UNIT ( * ) PLANE_ANGLE_UNIT ( ) SI_UNIT ( $, .RADIAN. ) );
#236 = ORIENTED_EDGE ( 'NONE', *, *, #125, .F. ) ;
#237 = ADVANCED_FACE ( 'NONE', ( #152 ), #208, .T. ) ;
#238 = CARTESIAN_POINT ( 'NONE',  ( -0.1412500000000000422, 0.0000000000000000000, 4.000000000000000000 ) ) ;
#239 = DIRECTION ( 'NONE',  ( -0.0000000000000000000, -0.0000000000000000000, -1.000000000000000000 ) ) ;
#240 = CARTESIAN_POINT ( 'NONE',  ( 0.0000000000000000000, 0.0000000000000000000, 4.000000000000000000 ) ) ;
#241 = CARTESIAN_POINT ( 'NONE',  ( 0.0000000000000000000, 0.0000000000000000000, 0.5682047354523593885 ) ) ;
#242 = CIRCLE ( 'NONE', #13, 0.1562500000000000000 ) ;
#243 = LINE ( 'NONE', #143, #63 ) ;
#244 = DIRECTION ( 'NONE',  ( -0.0000000000000000000, -0.0000000000000000000, -1.000000000000000000 ) ) ;
#245 = UNCERTAINTY_MEASURE_WITH_UNIT (LENGTH_MEASURE( 1.000000000000000082E-05 ), #39, 'distance_accuracy_value', 'NONE');
#246 = EDGE_CURVE ( 'NONE', #2, #231, #94, .T. ) ;
#247 =( LENGTH_UNIT ( ) NAMED_UNIT ( * ) SI_UNIT ( $, .METRE. ) );
#248 = CARTESIAN_POINT ( 'NONE',  ( 0.0000000000000000000, 0.0000000000000000000, 0.0000000000000000000 ) ) ;
#249 = CARTESIAN_POINT ( 'NONE',  ( 0.0000000000000000000, 0.0000000000000000000, 0.5682047354523593885 ) ) ;
ENDSEC;
END-ISO-10303-21;
