ISO-10303-21;
HEADER;
FILE_DESCRIPTION (( 'STEP AP214' ),
    '1' );
FILE_NAME ('Micro_SME-014-2.STEP',
    '2021-09-02T10:15:21',
    ( '' ),
    ( '' ),
    'SwSTEP 2.0',
    'SolidWorks 2020',
    '' );
FILE_SCHEMA (( 'AUTOMOTIVE_DESIGN' ));
ENDSEC;

DATA;
#1 = DIRECTION ( 'NONE',  ( 1.000000000000000000, 0.0000000000000000000, 0.0000000000000000000 ) ) ;
#2 =( NAMED_UNIT ( * ) PLANE_ANGLE_UNIT ( ) SI_UNIT ( $, .RADIAN. ) );
#3 = CARTESIAN_POINT ( 'NONE',  ( 0.0000000000000000000, 0.0000000000000000000, 0.0000000000000000000 ) ) ;
#4 = DIRECTION ( 'NONE',  ( 1.000000000000000000, 0.0000000000000000000, 0.0000000000000000000 ) ) ;
#5 = ORIENTED_EDGE ( 'NONE', *, *, #213, .F. ) ;
#6 =( NAMED_UNIT ( * ) SI_UNIT ( $, .STERADIAN. ) SOLID_ANGLE_UNIT ( ) );
#7 = ADVANCED_FACE ( 'NONE', ( #120 ), #212, .T. ) ;
#8 = AXIS2_PLACEMENT_3D ( 'NONE', #52, #231, #98 ) ;
#9 = LINE ( 'NONE', #250, #102 ) ;
#10 = DIRECTION ( 'NONE',  ( 0.0000000000000000000, 0.0000000000000000000, 1.000000000000000000 ) ) ;
#11 = EDGE_CURVE ( 'NONE', #296, #40, #90, .T. ) ;
#12 = CONICAL_SURFACE ( 'NONE', #189, 0.04750000000000064587, 0.7853981633974466137 ) ;
#13 = VECTOR ( 'NONE', #168, 39.37007874015747433 ) ;
#14 = DIRECTION ( 'NONE',  ( -0.7071067811865462405, 0.0000000000000000000, -0.7071067811865486830 ) ) ;
#15 = ADVANCED_FACE ( 'NONE', ( #96 ), #188, .T. ) ;
#16 = ORIENTED_EDGE ( 'NONE', *, *, #190, .T. ) ;
#17 =( NAMED_UNIT ( * ) PLANE_ANGLE_UNIT ( ) SI_UNIT ( $, .RADIAN. ) );
#18 = VERTEX_POINT ( 'NONE', #34 ) ;
#19 = DIRECTION ( 'NONE',  ( -1.000000000000000000, 0.0000000000000000000, 0.0000000000000000000 ) ) ;
#20 = CONICAL_SURFACE ( 'NONE', #240, 0.006992999999999998349, 0.1745329251994338637 ) ;
#21 = EDGE_CURVE ( 'NONE', #78, #142, #105, .T. ) ;
#22 = AXIS2_PLACEMENT_3D ( 'NONE', #147, #299, #55 ) ;
#23 = ORIENTED_EDGE ( 'NONE', *, *, #11, .F. ) ;
#24 = DIRECTION ( 'NONE',  ( -1.000000000000000000, 0.0000000000000000000, 0.0000000000000000000 ) ) ;
#25 =( LENGTH_UNIT ( ) NAMED_UNIT ( * ) SI_UNIT ( $, .METRE. ) );
#26 = FACE_OUTER_BOUND ( 'NONE', #95, .T. ) ;
#27 = ORIENTED_EDGE ( 'NONE', *, *, #291, .F. ) ;
#28 = CARTESIAN_POINT ( 'NONE',  ( 4.112313005758708680E-17, 0.0000000000000000000, 0.3357958399615186829 ) ) ;
#29 = FACE_OUTER_BOUND ( 'NONE', #93, .T. ) ;
#30 = CARTESIAN_POINT ( 'NONE',  ( 0.0000000000000000000, 0.0000000000000000000, 0.0000000000000000000 ) ) ;
#31 = SHAPE_DEFINITION_REPRESENTATION ( #266, #254 ) ;
#32 = DIMENSIONAL_EXPONENTS ( 1.000000000000000000, 0.0000000000000000000, 0.0000000000000000000, 0.0000000000000000000, 0.0000000000000000000, 0.0000000000000000000, 0.0000000000000000000 ) ;
#33 = VECTOR ( 'NONE', #262, 39.37007874015748143 ) ;
#34 = CARTESIAN_POINT ( 'NONE',  ( 0.006992999999999998349, 8.563955066437439857E-19, 0.0000000000000000000 ) ) ;
#35 = CARTESIAN_POINT ( 'NONE',  ( 0.0000000000000000000, 0.0000000000000000000, 1.500000000000000222 ) ) ;
#36 = CARTESIAN_POINT ( 'NONE',  ( 0.04750000000000064587, 6.735557395310483192E-18, 1.500000000000000222 ) ) ;
#37 =( GEOMETRIC_REPRESENTATION_CONTEXT ( 3 ) GLOBAL_UNCERTAINTY_ASSIGNED_CONTEXT ( ( #89 ) ) GLOBAL_UNIT_ASSIGNED_CONTEXT ( ( #38, #225, #269 ) ) REPRESENTATION_CONTEXT ( 'NONE', 'WORKASPACE' ) );
#38 =( CONVERSION_BASED_UNIT ( 'INCH', #198 ) LENGTH_UNIT ( ) NAMED_UNIT ( #32 ) );
#39 = DIRECTION ( 'NONE',  ( 1.000000000000000000, 0.0000000000000000000, -0.0000000000000000000 ) ) ;
#40 = VERTEX_POINT ( 'NONE', #219 ) ;
#41 = LINE ( 'NONE', #182, #152 ) ;
#42 = AXIS2_PLACEMENT_3D ( 'NONE', #3, #82, #127 ) ;
#43 = ORIENTED_EDGE ( 'NONE', *, *, #21, .F. ) ;
#44 = VECTOR ( 'NONE', #76, 39.37007874015748143 ) ;
#45 = FACE_OUTER_BOUND ( 'NONE', #91, .T. ) ;
#46 = ORIENTED_EDGE ( 'NONE', *, *, #259, .T. ) ;
#47 = LINE ( 'NONE', #139, #290 ) ;
#48 = DIRECTION ( 'NONE',  ( 0.0000000000000000000, 0.0000000000000000000, -1.000000000000000000 ) ) ;
#49 = ORIENTED_EDGE ( 'NONE', *, *, #125, .T. ) ;
#50 = EDGE_CURVE ( 'NONE', #144, #166, #205, .T. ) ;
#51 = AXIS2_PLACEMENT_3D ( 'NONE', #30, #215, #4 ) ;
#52 = CARTESIAN_POINT ( 'NONE',  ( 1.048782016015437737E-34, 0.0000000000000000000, 8.563955066437442745E-19 ) ) ;
#53 = EDGE_LOOP ( 'NONE', ( #27, #72, #208, #276 ) ) ;
#54 = ADVANCED_FACE ( 'NONE', ( #211 ), #221, .T. ) ;
#55 = DIRECTION ( 'NONE',  ( 1.000000000000000000, 0.0000000000000000000, 0.0000000000000000000 ) ) ;
#56 = ORIENTED_EDGE ( 'NONE', *, *, #190, .F. ) ;
#57 = DIRECTION ( 'NONE',  ( 1.000000000000000000, 0.0000000000000000000, 0.0000000000000000000 ) ) ;
#58 = AXIS2_PLACEMENT_3D ( 'NONE', #220, #48, #140 ) ;
#59 = DIRECTION ( 'NONE',  ( -1.224646799147353700E-16, -0.0000000000000000000, -1.000000000000000000 ) ) ;
#60 = ADVANCED_FACE ( 'NONE', ( #154 ), #163, .T. ) ;
#61 = CARTESIAN_POINT ( 'NONE',  ( 0.0000000000000000000, 0.0000000000000000000, 1.500000000000000222 ) ) ;
#62 = CIRCLE ( 'NONE', #103, 0.006992999999999998349 ) ;
#63 = COLOUR_RGB ( '',0.7921568627450980005, 0.8196078431372548767, 0.9333333333333333481 ) ;
#64 = EDGE_CURVE ( 'NONE', #18, #142, #170, .T. ) ;
#65 = SURFACE_STYLE_FILL_AREA ( #111 ) ;
#66 =( LENGTH_UNIT ( ) NAMED_UNIT ( * ) SI_UNIT ( $, .METRE. ) );
#67 = DIRECTION ( 'NONE',  ( -1.224646799147353700E-16, -0.0000000000000000000, -1.000000000000000000 ) ) ;
#68 = CARTESIAN_POINT ( 'NONE',  ( -0.04750000000000064587, 0.0000000000000000000, 1.500000000000000222 ) ) ;
#69 = ORIENTED_EDGE ( 'NONE', *, *, #293, .F. ) ;
#70 =( GEOMETRIC_REPRESENTATION_CONTEXT ( 3 ) GLOBAL_UNCERTAINTY_ASSIGNED_CONTEXT ( ( #214 ) ) GLOBAL_UNIT_ASSIGNED_CONTEXT ( ( #258, #2, #148 ) ) REPRESENTATION_CONTEXT ( 'NONE', 'WORKASPACE' ) );
#71 = DIRECTION ( 'NONE',  ( -1.000000000000000000, 0.0000000000000000000, 1.224646799147353700E-16 ) ) ;
#72 = ORIENTED_EDGE ( 'NONE', *, *, #202, .F. ) ;
#73 = LINE ( 'NONE', #253, #13 ) ;
#74 = ORIENTED_EDGE ( 'NONE', *, *, #64, .F. ) ;
#75 = ADVANCED_FACE ( 'NONE', ( #26 ), #191, .T. ) ;
#76 = DIRECTION ( 'NONE',  ( 0.1736481776669313581, 0.0000000000000000000, 0.9848077530122077983 ) ) ;
#77 = DIRECTION ( 'NONE',  ( 1.000000000000000000, 0.0000000000000000000, -0.0000000000000000000 ) ) ;
#78 = VERTEX_POINT ( 'NONE', #110 ) ;
#79 = VERTEX_POINT ( 'NONE', #68 ) ;
#80 = DIRECTION ( 'NONE',  ( 0.0000000000000000000, 0.0000000000000000000, 1.000000000000000000 ) ) ;
#81 = SURFACE_STYLE_FILL_AREA ( #83 ) ;
#82 = DIRECTION ( 'NONE',  ( -1.224646799147353700E-16, -0.0000000000000000000, -1.000000000000000000 ) ) ;
#83 = FILL_AREA_STYLE ('',( #165 ) ) ;
#84 = AXIS2_PLACEMENT_3D ( 'NONE', #35, #195, #280 ) ;
#85 = FACE_OUTER_BOUND ( 'NONE', #184, .T. ) ;
#86 = LINE ( 'NONE', #108, #33 ) ;
#87 = CARTESIAN_POINT ( 'NONE',  ( 0.06250000000000006939, 7.654042494670963708E-18, 0.3357958399615186829 ) ) ;
#88 = DIRECTION ( 'NONE',  ( -1.000000000000000000, 0.0000000000000000000, 0.0000000000000000000 ) ) ;
#89 = UNCERTAINTY_MEASURE_WITH_UNIT (LENGTH_MEASURE( 1.000000000000000082E-05 ), #38, 'distance_accuracy_value', 'NONE');
#90 = CIRCLE ( 'NONE', #58, 0.06250000000000002776 ) ;
#91 = EDGE_LOOP ( 'NONE', ( #16, #238 ) ) ;
#92 = CARTESIAN_POINT ( 'NONE',  ( 0.0000000000000000000, 0.0000000000000000000, 1.500000000000000222 ) ) ;
#93 = EDGE_LOOP ( 'NONE', ( #69, #149, #201, #206 ) ) ;
#94 = ADVANCED_FACE ( 'NONE', ( #45 ), #135, .F. ) ;
#95 = EDGE_LOOP ( 'NONE', ( #173, #281 ) ) ;
#96 = FACE_OUTER_BOUND ( 'NONE', #134, .T. ) ;
#97 = EDGE_LOOP ( 'NONE', ( #224, #49, #23, #5 ) ) ;
#98 = DIRECTION ( 'NONE',  ( -1.000000000000000000, 0.0000000000000000000, 1.224646799147353700E-16 ) ) ;
#99 = PRODUCT_DEFINITION_CONTEXT ( 'detailed design', #186, 'design' ) ;
#100 = VERTEX_POINT ( 'NONE', #36 ) ;
#101 = PRESENTATION_STYLE_ASSIGNMENT (( #174 ) ) ;
#102 = VECTOR ( 'NONE', #14, 39.37007874015748854 ) ;
#103 = AXIS2_PLACEMENT_3D ( 'NONE', #157, #59, #130 ) ;
#104 = EDGE_CURVE ( 'NONE', #296, #144, #86, .T. ) ;
#105 = LINE ( 'NONE', #267, #235 ) ;
#106 = PRESENTATION_LAYER_ASSIGNMENT (  '', '', ( #194 ) ) ;
#107 = CIRCLE ( 'NONE', #193, 0.04750000000000064587 ) ;
#108 = CARTESIAN_POINT ( 'NONE',  ( -0.06250000000000002776, 0.0000000000000000000, 1.500000000000000222 ) ) ;
#109 = MANIFOLD_SOLID_BREP ( 'Cut-Revolve1', #132 ) ;
#110 = CARTESIAN_POINT ( 'NONE',  ( -0.006992999999999996615, 4.255219000657352499E-18, 0.02100000000000000477 ) ) ;
#111 = FILL_AREA_STYLE ('',( #128 ) ) ;
#112 = ORIENTED_EDGE ( 'NONE', *, *, #50, .F. ) ;
#113 = DIRECTION ( 'NONE',  ( 1.000000000000000000, 0.0000000000000000000, 0.0000000000000000000 ) ) ;
#114 = ORIENTED_EDGE ( 'NONE', *, *, #21, .T. ) ;
#115 = CIRCLE ( 'NONE', #217, 0.006992999999999998349 ) ;
#116 = CARTESIAN_POINT ( 'NONE',  ( -0.06250000000000002776, 0.0000000000000000000, 1.485000000000000764 ) ) ;
#117 = LENGTH_MEASURE_WITH_UNIT ( LENGTH_MEASURE( 0.02539999999999999897 ), #25 );
#118 = CARTESIAN_POINT ( 'NONE',  ( 0.0000000000000000000, 0.0000000000000000000, 1.500000000000000222 ) ) ;
#119 =( LENGTH_UNIT ( ) NAMED_UNIT ( * ) SI_UNIT ( $, .METRE. ) );
#120 = FACE_OUTER_BOUND ( 'NONE', #151, .T. ) ;
#121 = PRODUCT_DEFINITION ( 'UNKNOWN', '', #124, #99 ) ;
#122 = AXIS2_PLACEMENT_3D ( 'NONE', #178, #67, #162 ) ;
#123 = LENGTH_MEASURE_WITH_UNIT ( LENGTH_MEASURE( 0.02539999999999999897 ), #119 );
#124 = PRODUCT_DEFINITION_FORMATION_WITH_SPECIFIED_SOURCE ( 'ANY', '', #181, .NOT_KNOWN. ) ;
#125 = EDGE_CURVE ( 'NONE', #100, #40, #222, .T. ) ;
#126 = DIRECTION ( 'NONE',  ( -0.0000000000000000000, -0.0000000000000000000, -1.000000000000000000 ) ) ;
#127 = DIRECTION ( 'NONE',  ( -1.000000000000000000, 0.0000000000000000000, 1.224646799147353700E-16 ) ) ;
#128 = FILL_AREA_STYLE_COLOUR ( '', #289 ) ;
#129 = AXIS2_PLACEMENT_3D ( 'NONE', #244, #10, #39 ) ;
#130 = DIRECTION ( 'NONE',  ( -1.000000000000000000, 0.0000000000000000000, 0.0000000000000000000 ) ) ;
#131 = DIRECTION ( 'NONE',  ( -1.000000000000000000, 0.0000000000000000000, 1.224646799147353700E-16 ) ) ;
#132 = CLOSED_SHELL ( 'NONE', ( #7, #156, #60, #15, #287, #75, #242, #54, #243, #94 ) ) ;
#133 = SURFACE_SIDE_STYLE ('',( #65 ) ) ;
#134 = EDGE_LOOP ( 'NONE', ( #169, #204, #112, #298 ) ) ;
#135 = PLANE ( 'NONE',  #129 ) ;
#136 = ORIENTED_EDGE ( 'NONE', *, *, #50, .T. ) ;
#137 = CARTESIAN_POINT ( 'NONE',  ( 0.006993000000000000951, 0.0000000000000000000, 0.02100000000000000477 ) ) ;
#138 = EDGE_LOOP ( 'NONE', ( #172, #226, #114, #74 ) ) ;
#139 = CARTESIAN_POINT ( 'NONE',  ( 0.06250000000000002776, 7.654042494670959086E-18, 1.500000000000000222 ) ) ;
#140 = DIRECTION ( 'NONE',  ( 1.000000000000000000, 0.0000000000000000000, 0.0000000000000000000 ) ) ;
#141 = CIRCLE ( 'NONE', #246, 0.04750000000000064587 ) ;
#142 = VERTEX_POINT ( 'NONE', #180 ) ;
#143 = PRESENTATION_LAYER_ASSIGNMENT (  '', '', ( #256 ) ) ;
#144 = VERTEX_POINT ( 'NONE', #196 ) ;
#145 = FACE_OUTER_BOUND ( 'NONE', #138, .T. ) ;
#146 = SURFACE_SIDE_STYLE ('',( #81 ) ) ;
#147 = CARTESIAN_POINT ( 'NONE',  ( 0.0000000000000000000, 0.0000000000000000000, 1.485000000000000764 ) ) ;
#148 =( NAMED_UNIT ( * ) SI_UNIT ( $, .STERADIAN. ) SOLID_ANGLE_UNIT ( ) );
#149 = ORIENTED_EDGE ( 'NONE', *, *, #277, .T. ) ;
#150 = APPLICATION_PROTOCOL_DEFINITION ( 'draft international standard', 'automotive_design', 1998, #237 ) ;
#151 = EDGE_LOOP ( 'NONE', ( #46, #260, #56, #43 ) ) ;
#152 = VECTOR ( 'NONE', #197, 39.37007874015748143 ) ;
#153 =( GEOMETRIC_REPRESENTATION_CONTEXT ( 3 ) GLOBAL_UNCERTAINTY_ASSIGNED_CONTEXT ( ( #270 ) ) GLOBAL_UNIT_ASSIGNED_CONTEXT ( ( #209, #17, #6 ) ) REPRESENTATION_CONTEXT ( 'NONE', 'WORKASPACE' ) );
#154 = FACE_OUTER_BOUND ( 'NONE', #97, .T. ) ;
#155 = DIMENSIONAL_EXPONENTS ( 1.000000000000000000, 0.0000000000000000000, 0.0000000000000000000, 0.0000000000000000000, 0.0000000000000000000, 0.0000000000000000000, 0.0000000000000000000 ) ;
#156 = ADVANCED_FACE ( 'NONE', ( #85 ), #20, .T. ) ;
#157 = CARTESIAN_POINT ( 'NONE',  ( 2.571758278209443359E-18, 0.0000000000000000000, 0.02100000000000000477 ) ) ;
#158 = CIRCLE ( 'NONE', #192, 0.006992999999999998349 ) ;
#159 = CIRCLE ( 'NONE', #22, 0.06250000000000002776 ) ;
#160 = DIRECTION ( 'NONE',  ( 0.7071067811865462405, 8.659560562354916834E-17, -0.7071067811865486830 ) ) ;
#161 = DIRECTION ( 'NONE',  ( 1.224646799147353700E-16, 0.0000000000000000000, 1.000000000000000000 ) ) ;
#162 = DIRECTION ( 'NONE',  ( 1.000000000000000000, 0.0000000000000000000, 0.0000000000000000000 ) ) ;
#163 = CONICAL_SURFACE ( 'NONE', #84, 0.04750000000000064587, 0.7853981633974466137 ) ;
#164 = ORIENTED_EDGE ( 'NONE', *, *, #268, .F. ) ;
#165 = FILL_AREA_STYLE_COLOUR ( '', #63 ) ;
#166 = VERTEX_POINT ( 'NONE', #87 ) ;
#167 = DIRECTION ( 'NONE',  ( -1.000000000000000000, 0.0000000000000000000, 0.0000000000000000000 ) ) ;
#168 = DIRECTION ( 'NONE',  ( -0.1736481776669311639, 2.126576849575783008E-17, 0.9848077530122080203 ) ) ;
#169 = ORIENTED_EDGE ( 'NONE', *, *, #11, .T. ) ;
#170 = CIRCLE ( 'NONE', #8, 0.006992999999999998349 ) ;
#171 = ORIENTED_EDGE ( 'NONE', *, *, #125, .F. ) ;
#172 = ORIENTED_EDGE ( 'NONE', *, *, #230, .F. ) ;
#173 = ORIENTED_EDGE ( 'NONE', *, *, #285, .T. ) ;
#174 = SURFACE_STYLE_USAGE ( .BOTH. , #146 ) ;
#175 = AXIS2_PLACEMENT_3D ( 'NONE', #183, #271, #71 ) ;
#176 = DIMENSIONAL_EXPONENTS ( 1.000000000000000000, 0.0000000000000000000, 0.0000000000000000000, 0.0000000000000000000, 0.0000000000000000000, 0.0000000000000000000, 0.0000000000000000000 ) ;
#177 = CIRCLE ( 'NONE', #286, 0.06250000000000002776 ) ;
#178 = CARTESIAN_POINT ( 'NONE',  ( 4.112313005758708680E-17, 0.0000000000000000000, 0.3357958399615186829 ) ) ;
#179 = DIRECTION ( 'NONE',  ( -1.224646799147353700E-16, -0.0000000000000000000, -1.000000000000000000 ) ) ;
#180 = CARTESIAN_POINT ( 'NONE',  ( -0.006992999999999998349, 0.0000000000000000000, 1.712791013287488549E-18 ) ) ;
#181 = PRODUCT ( 'Micro_SME-014-2', 'Micro_SME-014-2', '', ( #283 ) ) ;
#182 = CARTESIAN_POINT ( 'NONE',  ( 0.006992999999999998349, 8.563955066437439857E-19, -8.563955066437442745E-19 ) ) ;
#183 = CARTESIAN_POINT ( 'NONE',  ( 0.0000000000000000000, 0.0000000000000000000, 0.0000000000000000000 ) ) ;
#184 = EDGE_LOOP ( 'NONE', ( #273, #216, #136, #164 ) ) ;
#185 = DIRECTION ( 'NONE',  ( -0.0000000000000000000, -0.0000000000000000000, -1.000000000000000000 ) ) ;
#186 = APPLICATION_CONTEXT ( 'automotive_design' ) ;
#187 = CARTESIAN_POINT ( 'NONE',  ( 0.006993000000000000951, 0.0000000000000000000, 0.02100000000000000477 ) ) ;
#188 = CYLINDRICAL_SURFACE ( 'NONE', #279, 0.06250000000000002776 ) ;
#189 = AXIS2_PLACEMENT_3D ( 'NONE', #292, #264, #88 ) ;
#190 = EDGE_CURVE ( 'NONE', #142, #18, #158, .T. ) ;
#191 = PLANE ( 'NONE',  #228 ) ;
#192 = AXIS2_PLACEMENT_3D ( 'NONE', #263, #179, #131 ) ;
#193 = AXIS2_PLACEMENT_3D ( 'NONE', #118, #80, #234 ) ;
#194 = STYLED_ITEM ( 'NONE', ( #247 ), #109 ) ;
#195 = DIRECTION ( 'NONE',  ( 0.0000000000000000000, 0.0000000000000000000, -1.000000000000000000 ) ) ;
#196 = CARTESIAN_POINT ( 'NONE',  ( -0.06249999999999997918, 0.0000000000000000000, 0.3357958399615186829 ) ) ;
#197 = DIRECTION ( 'NONE',  ( -1.224646799147353700E-16, -0.0000000000000000000, -1.000000000000000000 ) ) ;
#198 = LENGTH_MEASURE_WITH_UNIT ( LENGTH_MEASURE( 0.02539999999999999897 ), #66 );
#199 = MECHANICAL_DESIGN_GEOMETRIC_PRESENTATION_REPRESENTATION (  '', ( #194 ), #37 ) ;
#200 = DIRECTION ( 'NONE',  ( 1.224646799147353700E-16, 0.0000000000000000000, 1.000000000000000000 ) ) ;
#201 = ORIENTED_EDGE ( 'NONE', *, *, #104, .T. ) ;
#202 = EDGE_CURVE ( 'NONE', #274, #78, #62, .T. ) ;
#203 = CARTESIAN_POINT ( 'NONE',  ( 0.04750000000000064587, 5.817072295950006528E-18, 1.500000000000000222 ) ) ;
#204 = ORIENTED_EDGE ( 'NONE', *, *, #293, .T. ) ;
#205 = CIRCLE ( 'NONE', #122, 0.06250000000000002776 ) ;
#206 = ORIENTED_EDGE ( 'NONE', *, *, #261, .F. ) ;
#207 = DIRECTION ( 'NONE',  ( -1.224646799147353700E-16, -0.0000000000000000000, -1.000000000000000000 ) ) ;
#208 = ORIENTED_EDGE ( 'NONE', *, *, #268, .T. ) ;
#209 =( CONVERSION_BASED_UNIT ( 'INCH', #117 ) LENGTH_UNIT ( ) NAMED_UNIT ( #176 ) );
#210 = CARTESIAN_POINT ( 'NONE',  ( 0.0000000000000000000, 0.0000000000000000000, 1.500000000000000222 ) ) ;
#211 = FACE_OUTER_BOUND ( 'NONE', #53, .T. ) ;
#212 = CYLINDRICAL_SURFACE ( 'NONE', #42, 0.006992999999999998349 ) ;
#213 = EDGE_CURVE ( 'NONE', #79, #296, #9, .T. ) ;
#214 = UNCERTAINTY_MEASURE_WITH_UNIT (LENGTH_MEASURE( 1.000000000000000082E-05 ), #258, 'distance_accuracy_value', 'NONE');
#215 = DIRECTION ( 'NONE',  ( 0.0000000000000000000, 0.0000000000000000000, 1.000000000000000000 ) ) ;
#216 = ORIENTED_EDGE ( 'NONE', *, *, #291, .T. ) ;
#217 = AXIS2_PLACEMENT_3D ( 'NONE', #282, #229, #19 ) ;
#218 = PRODUCT_RELATED_PRODUCT_CATEGORY ( 'part', '', ( #181 ) ) ;
#219 = CARTESIAN_POINT ( 'NONE',  ( 0.06250000000000002776, 7.654042494670959086E-18, 1.485000000000000764 ) ) ;
#220 = CARTESIAN_POINT ( 'NONE',  ( 0.0000000000000000000, 0.0000000000000000000, 1.485000000000000764 ) ) ;
#221 = CONICAL_SURFACE ( 'NONE', #272, 0.006992999999999998349, 0.1745329251994338637 ) ;
#222 = LINE ( 'NONE', #203, #245 ) ;
#223 = DIRECTION ( 'NONE',  ( 1.000000000000000000, 0.0000000000000000000, 0.0000000000000000000 ) ) ;
#224 = ORIENTED_EDGE ( 'NONE', *, *, #255, .F. ) ;
#225 =( NAMED_UNIT ( * ) PLANE_ANGLE_UNIT ( ) SI_UNIT ( $, .RADIAN. ) );
#226 = ORIENTED_EDGE ( 'NONE', *, *, #202, .T. ) ;
#227 = DIRECTION ( 'NONE',  ( -0.0000000000000000000, -0.0000000000000000000, -1.000000000000000000 ) ) ;
#228 = AXIS2_PLACEMENT_3D ( 'NONE', #210, #284, #77 ) ;
#229 = DIRECTION ( 'NONE',  ( -1.224646799147353700E-16, -0.0000000000000000000, -1.000000000000000000 ) ) ;
#230 = EDGE_CURVE ( 'NONE', #274, #18, #41, .T. ) ;
#231 = DIRECTION ( 'NONE',  ( -1.224646799147353700E-16, -0.0000000000000000000, -1.000000000000000000 ) ) ;
#232 = ORIENTED_EDGE ( 'NONE', *, *, #213, .T. ) ;
#233 = CARTESIAN_POINT ( 'NONE',  ( 0.0000000000000000000, 0.0000000000000000000, 1.500000000000000222 ) ) ;
#234 = DIRECTION ( 'NONE',  ( 1.000000000000000000, 0.0000000000000000000, 0.0000000000000000000 ) ) ;
#235 = VECTOR ( 'NONE', #251, 39.37007874015748143 ) ;
#236 = MECHANICAL_DESIGN_GEOMETRIC_PRESENTATION_REPRESENTATION (  '', ( #256 ), #70 ) ;
#237 = APPLICATION_CONTEXT ( 'automotive_design' ) ;
#238 = ORIENTED_EDGE ( 'NONE', *, *, #64, .T. ) ;
#239 = APPLICATION_PROTOCOL_DEFINITION ( 'draft international standard', 'automotive_design', 1998, #186 ) ;
#240 = AXIS2_PLACEMENT_3D ( 'NONE', #294, #161, #223 ) ;
#241 = AXIS2_PLACEMENT_3D ( 'NONE', #92, #185, #167 ) ;
#242 = ADVANCED_FACE ( 'NONE', ( #248 ), #12, .T. ) ;
#243 = ADVANCED_FACE ( 'NONE', ( #145 ), #278, .T. ) ;
#244 = CARTESIAN_POINT ( 'NONE',  ( 0.0000000000000000000, 0.0000000000000000000, 0.0000000000000000000 ) ) ;
#245 = VECTOR ( 'NONE', #160, 39.37007874015748854 ) ;
#246 = AXIS2_PLACEMENT_3D ( 'NONE', #233, #257, #1 ) ;
#247 = PRESENTATION_STYLE_ASSIGNMENT (( #265 ) ) ;
#248 = FACE_OUTER_BOUND ( 'NONE', #249, .T. ) ;
#249 = EDGE_LOOP ( 'NONE', ( #171, #295, #232, #252 ) ) ;
#250 = CARTESIAN_POINT ( 'NONE',  ( -0.04750000000000064587, 0.0000000000000000000, 1.500000000000000222 ) ) ;
#251 = DIRECTION ( 'NONE',  ( -1.224646799147353700E-16, -0.0000000000000000000, -1.000000000000000000 ) ) ;
#252 = ORIENTED_EDGE ( 'NONE', *, *, #277, .F. ) ;
#253 = CARTESIAN_POINT ( 'NONE',  ( -0.006992999999999996615, 8.563955066437439857E-19, 0.02100000000000000477 ) ) ;
#254 = ADVANCED_BREP_SHAPE_REPRESENTATION ( 'Micro_SME-014-2', ( #109, #51 ), #153 ) ;
#255 = EDGE_CURVE ( 'NONE', #100, #79, #141, .T. ) ;
#256 = STYLED_ITEM ( 'NONE', ( #101 ), #254 ) ;
#257 = DIRECTION ( 'NONE',  ( 0.0000000000000000000, 0.0000000000000000000, 1.000000000000000000 ) ) ;
#258 =( CONVERSION_BASED_UNIT ( 'INCH', #123 ) LENGTH_UNIT ( ) NAMED_UNIT ( #155 ) );
#259 = EDGE_CURVE ( 'NONE', #78, #274, #115, .T. ) ;
#260 = ORIENTED_EDGE ( 'NONE', *, *, #230, .T. ) ;
#261 = EDGE_CURVE ( 'NONE', #166, #144, #177, .T. ) ;
#262 = DIRECTION ( 'NONE',  ( -0.0000000000000000000, -0.0000000000000000000, -1.000000000000000000 ) ) ;
#263 = CARTESIAN_POINT ( 'NONE',  ( 1.048782016015437737E-34, 0.0000000000000000000, 8.563955066437442745E-19 ) ) ;
#264 = DIRECTION ( 'NONE',  ( 0.0000000000000000000, 0.0000000000000000000, -1.000000000000000000 ) ) ;
#265 = SURFACE_STYLE_USAGE ( .BOTH. , #133 ) ;
#266 = PRODUCT_DEFINITION_SHAPE ( 'NONE', 'NONE',  #121 ) ;
#267 = CARTESIAN_POINT ( 'NONE',  ( -0.006992999999999998349, 0.0000000000000000000, 8.563955066437442745E-19 ) ) ;
#268 = EDGE_CURVE ( 'NONE', #274, #166, #275, .T. ) ;
#269 =( NAMED_UNIT ( * ) SI_UNIT ( $, .STERADIAN. ) SOLID_ANGLE_UNIT ( ) );
#270 = UNCERTAINTY_MEASURE_WITH_UNIT (LENGTH_MEASURE( 1.000000000000000082E-05 ), #209, 'distance_accuracy_value', 'NONE');
#271 = DIRECTION ( 'NONE',  ( -1.224646799147353700E-16, -0.0000000000000000000, -1.000000000000000000 ) ) ;
#272 = AXIS2_PLACEMENT_3D ( 'NONE', #288, #200, #57 ) ;
#273 = ORIENTED_EDGE ( 'NONE', *, *, #259, .F. ) ;
#274 = VERTEX_POINT ( 'NONE', #137 ) ;
#275 = LINE ( 'NONE', #187, #44 ) ;
#276 = ORIENTED_EDGE ( 'NONE', *, *, #261, .T. ) ;
#277 = EDGE_CURVE ( 'NONE', #40, #296, #159, .T. ) ;
#278 = CYLINDRICAL_SURFACE ( 'NONE', #175, 0.006992999999999998349 ) ;
#279 = AXIS2_PLACEMENT_3D ( 'NONE', #61, #126, #24 ) ;
#280 = DIRECTION ( 'NONE',  ( -1.000000000000000000, 0.0000000000000000000, 0.0000000000000000000 ) ) ;
#281 = ORIENTED_EDGE ( 'NONE', *, *, #255, .T. ) ;
#282 = CARTESIAN_POINT ( 'NONE',  ( 2.571758278209443359E-18, 0.0000000000000000000, 0.02100000000000000477 ) ) ;
#283 = PRODUCT_CONTEXT ( 'NONE', #237, 'mechanical' ) ;
#284 = DIRECTION ( 'NONE',  ( 0.0000000000000000000, 0.0000000000000000000, 1.000000000000000000 ) ) ;
#285 = EDGE_CURVE ( 'NONE', #79, #100, #107, .T. ) ;
#286 = AXIS2_PLACEMENT_3D ( 'NONE', #28, #207, #113 ) ;
#287 = ADVANCED_FACE ( 'NONE', ( #29 ), #297, .T. ) ;
#288 = CARTESIAN_POINT ( 'NONE',  ( 2.571758278209443359E-18, 0.0000000000000000000, 0.02100000000000000477 ) ) ;
#289 = COLOUR_RGB ( '',0.7921568627450980005, 0.8196078431372548767, 0.9333333333333333481 ) ;
#290 = VECTOR ( 'NONE', #227, 39.37007874015748143 ) ;
#291 = EDGE_CURVE ( 'NONE', #78, #144, #73, .T. ) ;
#292 = CARTESIAN_POINT ( 'NONE',  ( 0.0000000000000000000, 0.0000000000000000000, 1.500000000000000222 ) ) ;
#293 = EDGE_CURVE ( 'NONE', #40, #166, #47, .T. ) ;
#294 = CARTESIAN_POINT ( 'NONE',  ( 2.571758278209443359E-18, 0.0000000000000000000, 0.02100000000000000477 ) ) ;
#295 = ORIENTED_EDGE ( 'NONE', *, *, #285, .F. ) ;
#296 = VERTEX_POINT ( 'NONE', #116 ) ;
#297 = CYLINDRICAL_SURFACE ( 'NONE', #241, 0.06250000000000002776 ) ;
#298 = ORIENTED_EDGE ( 'NONE', *, *, #104, .F. ) ;
#299 = DIRECTION ( 'NONE',  ( 0.0000000000000000000, 0.0000000000000000000, -1.000000000000000000 ) ) ;
ENDSEC;
END-ISO-10303-21;
