ISO-10303-21;
HEADER;
FILE_DESCRIPTION (( 'STEP AP214' ),
    '1' );
FILE_NAME ('81636.STEP',
    '2023-06-23T02:08:07',
    ( '' ),
    ( '' ),
    'SwSTEP 2.0',
    'SolidWorks 2023',
    '' );
FILE_SCHEMA (( 'AUTOMOTIVE_DESIGN' ));
ENDSEC;

DATA;
#1 = CARTESIAN_POINT ( 'NONE',  ( 7.654042494670960626E-18, 0.000000000000000000, 0.06250000000000002776 ) ) ;
#2 = DIRECTION ( 'NONE',  ( 0.000000000000000000, 0.000000000000000000, -1.000000000000000000 ) ) ;
#3 = UNCERTAINTY_MEASURE_WITH_UNIT (LENGTH_MEASURE( 1.000000000000000082E-05 ), #5, 'distance_accuracy_value', 'NONE');
#4 = PRESENTATION_LAYER_ASSIGNMENT (  '', '', ( #61 ) ) ;
#5 =( CONVERSION_BASED_UNIT ( 'INCH', #296 ) LENGTH_UNIT ( ) NAMED_UNIT ( #220 ) );
#6 = FACE_OUTER_BOUND ( 'NONE', #197, .T. ) ;
#7 = PLANE ( 'NONE',  #200 ) ;
#8 = CIRCLE ( 'NONE', #184, 0.06250000000000005551 ) ;
#9 = CARTESIAN_POINT ( 'NONE',  ( -6.123233995736766036E-17, 2.500000000000000000, 0.000000000000000000 ) ) ;
#10 = DIRECTION ( 'NONE',  ( -1.000000000000000000, 0.000000000000000000, 0.000000000000000000 ) ) ;
#11 =( GEOMETRIC_REPRESENTATION_CONTEXT ( 3 ) GLOBAL_UNCERTAINTY_ASSIGNED_CONTEXT ( ( #37 ) ) GLOBAL_UNIT_ASSIGNED_CONTEXT ( ( #103, #255, #51 ) ) REPRESENTATION_CONTEXT ( 'NONE', 'WORKASPACE' ) );
#12 = EDGE_CURVE ( 'NONE', #273, #20, #219, .T. ) ;
#13 = SURFACE_SIDE_STYLE ('',( #111 ) ) ;
#14 = PRODUCT ( '81636', '81636', '', ( #228 ) ) ;
#15 = LENGTH_MEASURE_WITH_UNIT ( LENGTH_MEASURE( 0.02539999999999999897 ), #34 );
#16 = AXIS2_PLACEMENT_3D ( 'NONE', #178, #106, #248 ) ;
#17 = PRESENTATION_STYLE_ASSIGNMENT (( #133 ) ) ;
#18 = DIRECTION ( 'NONE',  ( -0.000000000000000000, -1.000000000000000000, -0.000000000000000000 ) ) ;
#19 = ORIENTED_EDGE ( 'NONE', *, *, #83, .T. ) ;
#20 = VERTEX_POINT ( 'NONE', #1 ) ;
#21 = VECTOR ( 'NONE', #208, 39.37007874015748143 ) ;
#22 = LENGTH_MEASURE_WITH_UNIT ( LENGTH_MEASURE( 0.02539999999999999897 ), #45 );
#23 = CARTESIAN_POINT ( 'NONE',  ( 0.000000000000000000, 0.000000000000000000, 0.000000000000000000 ) ) ;
#24 = UNCERTAINTY_MEASURE_WITH_UNIT (LENGTH_MEASURE( 1.000000000000000082E-05 ), #60, 'distance_accuracy_value', 'NONE');
#25 = DIRECTION ( 'NONE',  ( -0.000000000000000000, -1.000000000000000000, -0.000000000000000000 ) ) ;
#26 = COLOUR_RGB ( '',0.7921568627450980005, 0.8196078431372548767, 0.9333333333333333481 ) ;
#27 = EDGE_CURVE ( 'NONE', #20, #273, #295, .T. ) ;
#28 = APPLICATION_PROTOCOL_DEFINITION ( 'draft international standard', 'automotive_design', 1998, #271 ) ;
#29 = PRESENTATION_LAYER_ASSIGNMENT (  '', '', ( #299 ) ) ;
#30 = DIRECTION ( 'NONE',  ( -1.000000000000000000, -3.265724797726275178E-17, 0.000000000000000000 ) ) ;
#31 =( LENGTH_UNIT ( ) NAMED_UNIT ( * ) SI_UNIT ( $, .METRE. ) );
#32 = FILL_AREA_STYLE ('',( #258 ) ) ;
#33 = PRESENTATION_LAYER_ASSIGNMENT (  '', '', ( #289 ) ) ;
#34 =( LENGTH_UNIT ( ) NAMED_UNIT ( * ) SI_UNIT ( $, .METRE. ) );
#35 = FILL_AREA_STYLE_COLOUR ( '', #135 ) ;
#36 = AXIS2_PLACEMENT_3D ( 'NONE', #62, #301, #10 ) ;
#37 = UNCERTAINTY_MEASURE_WITH_UNIT (LENGTH_MEASURE( 1.000000000000000082E-05 ), #103, 'distance_accuracy_value', 'NONE');
#38 = CARTESIAN_POINT ( 'NONE',  ( 0.06249999999999997224, 2.500000000000000000, 7.654042494670960626E-18 ) ) ;
#39 = ORIENTED_EDGE ( 'NONE', *, *, #27, .F. ) ;
#40 = DIRECTION ( 'NONE',  ( -0.000000000000000000, -1.000000000000000000, -0.000000000000000000 ) ) ;
#41 = ORIENTED_EDGE ( 'NONE', *, *, #251, .T. ) ;
#42 = SURFACE_STYLE_USAGE ( .BOTH. , #137 ) ;
#43 = CARTESIAN_POINT ( 'NONE',  ( 0.000000000000000000, 0.6250000000000000000, 0.000000000000000000 ) ) ;
#44 = ORIENTED_EDGE ( 'NONE', *, *, #226, .F. ) ;
#45 =( LENGTH_UNIT ( ) NAMED_UNIT ( * ) SI_UNIT ( $, .METRE. ) );
#46 = ORIENTED_EDGE ( 'NONE', *, *, #59, .F. ) ;
#47 = SURFACE_STYLE_USAGE ( .BOTH. , #81 ) ;
#48 =( GEOMETRIC_REPRESENTATION_CONTEXT ( 3 ) GLOBAL_UNCERTAINTY_ASSIGNED_CONTEXT ( ( #188 ) ) GLOBAL_UNIT_ASSIGNED_CONTEXT ( ( #185, #259, #282 ) ) REPRESENTATION_CONTEXT ( 'NONE', 'WORKASPACE' ) );
#49 = STYLED_ITEM ( 'NONE', ( #139 ), #274 ) ;
#50 = SURFACE_STYLE_USAGE ( .BOTH. , #227 ) ;
#51 =( NAMED_UNIT ( * ) SI_UNIT ( $, .STERADIAN. ) SOLID_ANGLE_UNIT ( ) );
#52 = CARTESIAN_POINT ( 'NONE',  ( -0.06250000000000000000, 0.6250000000000000000, 0.000000000000000000 ) ) ;
#53 = DIRECTION ( 'NONE',  ( -0.000000000000000000, -1.000000000000000000, -0.000000000000000000 ) ) ;
#54 =( NAMED_UNIT ( * ) SI_UNIT ( $, .STERADIAN. ) SOLID_ANGLE_UNIT ( ) );
#55 = MANIFOLD_SOLID_BREP ( 'Revolve - Tool Body (Straight Shanked)', #249 ) ;
#56 = LENGTH_MEASURE_WITH_UNIT ( LENGTH_MEASURE( 0.02539999999999999897 ), #229 );
#57 = COLOUR_RGB ( '',1.000000000000000000, 0.000000000000000000, 0.000000000000000000 ) ;
#58 = AXIS2_PLACEMENT_3D ( 'NONE', #305, #224, #162 ) ;
#59 = EDGE_CURVE ( 'NONE', #166, #286, #150, .T. ) ;
#60 =( CONVERSION_BASED_UNIT ( 'INCH', #186 ) LENGTH_UNIT ( ) NAMED_UNIT ( #235 ) );
#61 = STYLED_ITEM ( 'NONE', ( #123 ), #69 ) ;
#62 = CARTESIAN_POINT ( 'NONE',  ( -6.123233995736766036E-17, 2.500000000000000000, 0.000000000000000000 ) ) ;
#63 = SURFACE_SIDE_STYLE ('',( #213 ) ) ;
#64 = PLANE ( 'NONE',  #146 ) ;
#65 = ORIENTED_EDGE ( 'NONE', *, *, #211, .T. ) ;
#66 = CIRCLE ( 'NONE', #214, 0.06250000000000000000 ) ;
#67 = UNCERTAINTY_MEASURE_WITH_UNIT (LENGTH_MEASURE( 1.000000000000000082E-05 ), #222, 'distance_accuracy_value', 'NONE');
#68 = FILL_AREA_STYLE ('',( #269 ) ) ;
#69 = ADVANCED_FACE ( 'NONE', ( #293 ), #294, .T. ) ;
#70 = PRODUCT_DEFINITION_SHAPE ( 'NONE', 'NONE',  #170 ) ;
#71 = EDGE_LOOP ( 'NONE', ( #306, #136, #268, #39 ) ) ;
#72 = CARTESIAN_POINT ( 'NONE',  ( 0.000000000000000000, 0.6250000000000000000, 0.000000000000000000 ) ) ;
#73 = SURFACE_STYLE_FILL_AREA ( #120 ) ;
#74 = CARTESIAN_POINT ( 'NONE',  ( 0.06250000000000000000, 0.6250000000000000000, 7.654042494670963708E-18 ) ) ;
#75 = ORIENTED_EDGE ( 'NONE', *, *, #275, .T. ) ;
#76 = VECTOR ( 'NONE', #53, 39.37007874015748143 ) ;
#77 = CIRCLE ( 'NONE', #291, 0.06250000000000000000 ) ;
#78 =( NAMED_UNIT ( * ) SI_UNIT ( $, .STERADIAN. ) SOLID_ANGLE_UNIT ( ) );
#79 = ORIENTED_EDGE ( 'NONE', *, *, #251, .F. ) ;
#80 = DIRECTION ( 'NONE',  ( 1.000000000000000000, 0.000000000000000000, 0.000000000000000000 ) ) ;
#81 = SURFACE_SIDE_STYLE ('',( #230 ) ) ;
#82 =( NAMED_UNIT ( * ) SI_UNIT ( $, .STERADIAN. ) SOLID_ANGLE_UNIT ( ) );
#83 = EDGE_CURVE ( 'NONE', #286, #20, #176, .T. ) ;
#84 = EDGE_CURVE ( 'NONE', #265, #102, #8, .T. ) ;
#85 = CIRCLE ( 'NONE', #262, 0.06250000000000005551 ) ;
#86 = EDGE_CURVE ( 'NONE', #102, #265, #85, .T. ) ;
#87 = LENGTH_MEASURE_WITH_UNIT ( LENGTH_MEASURE( 0.02539999999999999897 ), #89 );
#88 = FACE_OUTER_BOUND ( 'NONE', #71, .T. ) ;
#89 =( LENGTH_UNIT ( ) NAMED_UNIT ( * ) SI_UNIT ( $, .METRE. ) );
#90 = PRESENTATION_LAYER_ASSIGNMENT (  '', '', ( #209 ) ) ;
#91 = DIRECTION ( 'NONE',  ( 0.000000000000000000, 0.000000000000000000, -1.000000000000000000 ) ) ;
#92 = ADVANCED_FACE ( 'NONE', ( #6 ), #7, .F. ) ;
#93 = DIRECTION ( 'NONE',  ( -3.265724797726275178E-17, 1.000000000000000000, -0.000000000000000000 ) ) ;
#94 = EDGE_LOOP ( 'NONE', ( #161, #169 ) ) ;
#95 = MECHANICAL_DESIGN_GEOMETRIC_PRESENTATION_REPRESENTATION (  '', ( #209 ), #280 ) ;
#96 = DIRECTION ( 'NONE',  ( 3.265724797726275178E-17, -1.000000000000000000, 0.000000000000000000 ) ) ;
#97 = DIRECTION ( 'NONE',  ( -0.000000000000000000, -1.000000000000000000, -0.000000000000000000 ) ) ;
#98 = CARTESIAN_POINT ( 'NONE',  ( 0.000000000000000000, 0.000000000000000000, 0.000000000000000000 ) ) ;
#99 = DIRECTION ( 'NONE',  ( 0.000000000000000000, 0.000000000000000000, -1.000000000000000000 ) ) ;
#100 = DIRECTION ( 'NONE',  ( 1.000000000000000000, 3.265724797726275178E-17, 0.000000000000000000 ) ) ;
#101 = SURFACE_STYLE_USAGE ( .BOTH. , #270 ) ;
#102 = VERTEX_POINT ( 'NONE', #207 ) ;
#103 =( CONVERSION_BASED_UNIT ( 'INCH', #225 ) LENGTH_UNIT ( ) NAMED_UNIT ( #110 ) );
#104 = LINE ( 'NONE', #203, #21 ) ;
#105 = DIRECTION ( 'NONE',  ( -3.265724797726275178E-17, 1.000000000000000000, -0.000000000000000000 ) ) ;
#106 = DIRECTION ( 'NONE',  ( 0.000000000000000000, -1.000000000000000000, -0.000000000000000000 ) ) ;
#107 =( NAMED_UNIT ( * ) PLANE_ANGLE_UNIT ( ) SI_UNIT ( $, .RADIAN. ) );
#108 = MECHANICAL_DESIGN_GEOMETRIC_PRESENTATION_REPRESENTATION (  '', ( #145 ), #48 ) ;
#109 = CARTESIAN_POINT ( 'NONE',  ( 0.000000000000000000, 0.000000000000000000, 0.000000000000000000 ) ) ;
#110 = DIMENSIONAL_EXPONENTS ( 1.000000000000000000, 0.000000000000000000, 0.000000000000000000, 0.000000000000000000, 0.000000000000000000, 0.000000000000000000, 0.000000000000000000 ) ;
#111 = SURFACE_STYLE_FILL_AREA ( #281 ) ;
#112 = SURFACE_STYLE_USAGE ( .BOTH. , #63 ) ;
#113 = AXIS2_PLACEMENT_3D ( 'NONE', #98, #18, #91 ) ;
#114 = ADVANCED_FACE ( 'NONE', ( #298 ), #297, .T. ) ;
#115 = EDGE_LOOP ( 'NONE', ( #46, #202 ) ) ;
#116 = AXIS2_PLACEMENT_3D ( 'NONE', #243, #97, #2 ) ;
#117 = ORIENTED_EDGE ( 'NONE', *, *, #12, .T. ) ;
#118 = ORIENTED_EDGE ( 'NONE', *, *, #275, .F. ) ;
#119 = UNCERTAINTY_MEASURE_WITH_UNIT (LENGTH_MEASURE( 1.000000000000000082E-05 ), #210, 'distance_accuracy_value', 'NONE');
#120 = FILL_AREA_STYLE ('',( #194 ) ) ;
#121 =( GEOMETRIC_REPRESENTATION_CONTEXT ( 3 ) GLOBAL_UNCERTAINTY_ASSIGNED_CONTEXT ( ( #67 ) ) GLOBAL_UNIT_ASSIGNED_CONTEXT ( ( #222, #215, #142 ) ) REPRESENTATION_CONTEXT ( 'NONE', 'WORKASPACE' ) );
#122 = VECTOR ( 'NONE', #267, 39.37007874015748143 ) ;
#123 = PRESENTATION_STYLE_ASSIGNMENT (( #47 ) ) ;
#124 = ADVANCED_FACE ( 'NONE', ( #88 ), #158, .T. ) ;
#125 = SHAPE_DEFINITION_REPRESENTATION ( #70, #153 ) ;
#126 = DIRECTION ( 'NONE',  ( -1.000000000000000000, 0.000000000000000000, 0.000000000000000000 ) ) ;
#127 =( LENGTH_UNIT ( ) NAMED_UNIT ( * ) SI_UNIT ( $, .METRE. ) );
#128 = DIRECTION ( 'NONE',  ( 0.000000000000000000, 1.000000000000000000, 0.000000000000000000 ) ) ;
#129 = DIMENSIONAL_EXPONENTS ( 1.000000000000000000, 0.000000000000000000, 0.000000000000000000, 0.000000000000000000, 0.000000000000000000, 0.000000000000000000, 0.000000000000000000 ) ;
#130 = AXIS2_PLACEMENT_3D ( 'NONE', #109, #182, #156 ) ;
#131 = ADVANCED_FACE ( 'NONE', ( #234 ), #261, .T. ) ;
#132 =( NAMED_UNIT ( * ) PLANE_ANGLE_UNIT ( ) SI_UNIT ( $, .RADIAN. ) );
#133 = SURFACE_STYLE_USAGE ( .BOTH. , #13 ) ;
#134 = ADVANCED_FACE ( 'NONE', ( #183 ), #236, .T. ) ;
#135 = COLOUR_RGB ( '',1.000000000000000000, 0.000000000000000000, 0.000000000000000000 ) ;
#136 = ORIENTED_EDGE ( 'NONE', *, *, #181, .T. ) ;
#137 = SURFACE_SIDE_STYLE ('',( #168 ) ) ;
#138 = DIMENSIONAL_EXPONENTS ( 1.000000000000000000, 0.000000000000000000, 0.000000000000000000, 0.000000000000000000, 0.000000000000000000, 0.000000000000000000, 0.000000000000000000 ) ;
#139 = PRESENTATION_STYLE_ASSIGNMENT (( #42 ) ) ;
#140 = ORIENTED_EDGE ( 'NONE', *, *, #179, .F. ) ;
#141 =( GEOMETRIC_REPRESENTATION_CONTEXT ( 3 ) GLOBAL_UNCERTAINTY_ASSIGNED_CONTEXT ( ( #239 ) ) GLOBAL_UNIT_ASSIGNED_CONTEXT ( ( #152, #107, #82 ) ) REPRESENTATION_CONTEXT ( 'NONE', 'WORKASPACE' ) );
#142 =( NAMED_UNIT ( * ) SI_UNIT ( $, .STERADIAN. ) SOLID_ANGLE_UNIT ( ) );
#143 = PRESENTATION_STYLE_ASSIGNMENT (( #101 ) ) ;
#144 = FILL_AREA_STYLE ('',( #232 ) ) ;
#145 = STYLED_ITEM ( 'NONE', ( #250 ), #114 ) ;
#146 = AXIS2_PLACEMENT_3D ( 'NONE', #308, #96, #100 ) ;
#147 = DIRECTION ( 'NONE',  ( -0.000000000000000000, -1.000000000000000000, -0.000000000000000000 ) ) ;
#148 =( NAMED_UNIT ( * ) PLANE_ANGLE_UNIT ( ) SI_UNIT ( $, .RADIAN. ) );
#149 = FILL_AREA_STYLE ('',( #231 ) ) ;
#150 = CIRCLE ( 'NONE', #205, 0.06250000000000000000 ) ;
#151 = MECHANICAL_DESIGN_GEOMETRIC_PRESENTATION_REPRESENTATION (  '', ( #49 ), #121 ) ;
#152 =( CONVERSION_BASED_UNIT ( 'INCH', #56 ) LENGTH_UNIT ( ) NAMED_UNIT ( #138 ) );
#153 = ADVANCED_BREP_SHAPE_REPRESENTATION ( '81636', ( #274, #55, #201 ), #171 ) ;
#154 = ADVANCED_FACE ( 'NONE', ( #263 ), #218, .T. ) ;
#155 = DIRECTION ( 'NONE',  ( 0.000000000000000000, -0.000000000000000000, 1.000000000000000000 ) ) ;
#156 = DIRECTION ( 'NONE',  ( 0.000000000000000000, 0.000000000000000000, -1.000000000000000000 ) ) ;
#157 = AXIS2_PLACEMENT_3D ( 'NONE', #72, #288, #195 ) ;
#158 = CYLINDRICAL_SURFACE ( 'NONE', #130, 0.06250000000000001388 ) ;
#159 =( NAMED_UNIT ( * ) PLANE_ANGLE_UNIT ( ) SI_UNIT ( $, .RADIAN. ) );
#160 = COLOUR_RGB ( '',1.000000000000000000, 0.000000000000000000, 0.000000000000000000 ) ;
#161 = ORIENTED_EDGE ( 'NONE', *, *, #86, .T. ) ;
#162 = DIRECTION ( 'NONE',  ( -1.000000000000000000, 0.000000000000000000, 0.000000000000000000 ) ) ;
#163 = ORIENTED_EDGE ( 'NONE', *, *, #59, .T. ) ;
#164 = DIMENSIONAL_EXPONENTS ( 1.000000000000000000, 0.000000000000000000, 0.000000000000000000, 0.000000000000000000, 0.000000000000000000, 0.000000000000000000, 0.000000000000000000 ) ;
#165 = CARTESIAN_POINT ( 'NONE',  ( 0.000000000000000000, 0.000000000000000000, -0.06250000000000001388 ) ) ;
#166 = VERTEX_POINT ( 'NONE', #244 ) ;
#167 = ADVANCED_FACE ( 'NONE', ( #240 ), #64, .F. ) ;
#168 = SURFACE_STYLE_FILL_AREA ( #68 ) ;
#169 = ORIENTED_EDGE ( 'NONE', *, *, #84, .T. ) ;
#170 = PRODUCT_DEFINITION ( 'UNKNOWN', '', #238, #266 ) ;
#171 =( GEOMETRIC_REPRESENTATION_CONTEXT ( 3 ) GLOBAL_UNCERTAINTY_ASSIGNED_CONTEXT ( ( #3 ) ) GLOBAL_UNIT_ASSIGNED_CONTEXT ( ( #5, #148, #54 ) ) REPRESENTATION_CONTEXT ( 'NONE', 'WORKASPACE' ) );
#172 = CARTESIAN_POINT ( 'NONE',  ( 0.000000000000000000, 0.6250000000000000000, 0.000000000000000000 ) ) ;
#173 = EDGE_LOOP ( 'NONE', ( #41, #290, #223, #118 ) ) ;
#174 = APPLICATION_PROTOCOL_DEFINITION ( 'draft international standard', 'automotive_design', 1998, #196 ) ;
#175 = CARTESIAN_POINT ( 'NONE',  ( 3.332799517026350632E-35, 0.6250000000000000000, 0.000000000000000000 ) ) ;
#176 = LINE ( 'NONE', #279, #76 ) ;
#177 = SURFACE_STYLE_FILL_AREA ( #144 ) ;
#178 = CARTESIAN_POINT ( 'NONE',  ( 0.000000000000000000, 0.000000000000000000, 0.000000000000000000 ) ) ;
#179 = EDGE_CURVE ( 'NONE', #245, #265, #187, .T. ) ;
#180 = PRESENTATION_STYLE_ASSIGNMENT (( #112 ) ) ;
#181 = EDGE_CURVE ( 'NONE', #286, #166, #77, .T. ) ;
#182 = DIRECTION ( 'NONE',  ( -0.000000000000000000, -1.000000000000000000, -0.000000000000000000 ) ) ;
#183 = FACE_OUTER_BOUND ( 'NONE', #191, .T. ) ;
#184 = AXIS2_PLACEMENT_3D ( 'NONE', #9, #278, #126 ) ;
#185 =( CONVERSION_BASED_UNIT ( 'INCH', #15 ) LENGTH_UNIT ( ) NAMED_UNIT ( #129 ) );
#186 = LENGTH_MEASURE_WITH_UNIT ( LENGTH_MEASURE( 0.02539999999999999897 ), #31 );
#187 = LINE ( 'NONE', #38, #192 ) ;
#188 = UNCERTAINTY_MEASURE_WITH_UNIT (LENGTH_MEASURE( 1.000000000000000082E-05 ), #185, 'distance_accuracy_value', 'NONE');
#189 = DIRECTION ( 'NONE',  ( -1.000000000000000000, 0.000000000000000000, 0.000000000000000000 ) ) ;
#190 = COLOUR_RGB ( '',1.000000000000000000, 0.000000000000000000, 0.000000000000000000 ) ;
#191 = EDGE_LOOP ( 'NONE', ( #163, #19, #241, #44 ) ) ;
#192 = VECTOR ( 'NONE', #198, 39.37007874015748143 ) ;
#193 = DIMENSIONAL_EXPONENTS ( 1.000000000000000000, 0.000000000000000000, 0.000000000000000000, 0.000000000000000000, 0.000000000000000000, 0.000000000000000000, 0.000000000000000000 ) ;
#194 = FILL_AREA_STYLE_COLOUR ( '', #283 ) ;
#195 = DIRECTION ( 'NONE',  ( -1.000000000000000000, 0.000000000000000000, 0.000000000000000000 ) ) ;
#196 = APPLICATION_CONTEXT ( 'automotive_design' ) ;
#197 = EDGE_LOOP ( 'NONE', ( #79, #199 ) ) ;
#198 = DIRECTION ( 'NONE',  ( -3.265724797726275178E-17, 1.000000000000000000, -0.000000000000000000 ) ) ;
#199 = ORIENTED_EDGE ( 'NONE', *, *, #211, .F. ) ;
#200 = AXIS2_PLACEMENT_3D ( 'NONE', #175, #257, #30 ) ;
#201 = AXIS2_PLACEMENT_3D ( 'NONE', #254, #252, #80 ) ;
#202 = ORIENTED_EDGE ( 'NONE', *, *, #181, .F. ) ;
#203 = CARTESIAN_POINT ( 'NONE',  ( -0.06250000000000009714, 2.500000000000000000, 0.000000000000000000 ) ) ;
#204 = DIRECTION ( 'NONE',  ( 0.000000000000000000, 0.000000000000000000, -1.000000000000000000 ) ) ;
#205 = AXIS2_PLACEMENT_3D ( 'NONE', #287, #147, #204 ) ;
#206 = CIRCLE ( 'NONE', #157, 0.06250000000000000000 ) ;
#207 = CARTESIAN_POINT ( 'NONE',  ( -0.06250000000000012490, 2.500000000000000000, 0.000000000000000000 ) ) ;
#208 = DIRECTION ( 'NONE',  ( -3.265724797726275178E-17, 1.000000000000000000, -0.000000000000000000 ) ) ;
#209 = STYLED_ITEM ( 'NONE', ( #180 ), #124 ) ;
#210 =( CONVERSION_BASED_UNIT ( 'INCH', #87 ) LENGTH_UNIT ( ) NAMED_UNIT ( #164 ) );
#211 = EDGE_CURVE ( 'NONE', #245, #309, #206, .T. ) ;
#212 = MECHANICAL_DESIGN_GEOMETRIC_PRESENTATION_REPRESENTATION (  '', ( #289 ), #11 ) ;
#213 = SURFACE_STYLE_FILL_AREA ( #32 ) ;
#214 = AXIS2_PLACEMENT_3D ( 'NONE', #43, #93, #189 ) ;
#215 =( NAMED_UNIT ( * ) PLANE_ANGLE_UNIT ( ) SI_UNIT ( $, .RADIAN. ) );
#216 = DIRECTION ( 'NONE',  ( 0.000000000000000000, 0.000000000000000000, -1.000000000000000000 ) ) ;
#217 = ORIENTED_EDGE ( 'NONE', *, *, #84, .F. ) ;
#218 = CYLINDRICAL_SURFACE ( 'NONE', #58, 0.06250000000000002776 ) ;
#219 = CIRCLE ( 'NONE', #116, 0.06250000000000001388 ) ;
#220 = DIMENSIONAL_EXPONENTS ( 1.000000000000000000, 0.000000000000000000, 0.000000000000000000, 0.000000000000000000, 0.000000000000000000, 0.000000000000000000, 0.000000000000000000 ) ;
#221 = EDGE_LOOP ( 'NONE', ( #140, #65, #75, #217 ) ) ;
#222 =( CONVERSION_BASED_UNIT ( 'INCH', #22 ) LENGTH_UNIT ( ) NAMED_UNIT ( #193 ) );
#223 = ORIENTED_EDGE ( 'NONE', *, *, #86, .F. ) ;
#224 = DIRECTION ( 'NONE',  ( -3.265724797726275178E-17, 1.000000000000000000, -0.000000000000000000 ) ) ;
#225 = LENGTH_MEASURE_WITH_UNIT ( LENGTH_MEASURE( 0.02539999999999999897 ), #247 );
#226 = EDGE_CURVE ( 'NONE', #166, #273, #242, .T. ) ;
#227 = SURFACE_SIDE_STYLE ('',( #177 ) ) ;
#228 = PRODUCT_CONTEXT ( 'NONE', #271, 'mechanical' ) ;
#229 =( LENGTH_UNIT ( ) NAMED_UNIT ( * ) SI_UNIT ( $, .METRE. ) );
#230 = SURFACE_STYLE_FILL_AREA ( #149 ) ;
#231 = FILL_AREA_STYLE_COLOUR ( '', #190 ) ;
#232 = FILL_AREA_STYLE_COLOUR ( '', #57 ) ;
#233 = AXIS2_PLACEMENT_3D ( 'NONE', #304, #128, #155 ) ;
#234 = FACE_OUTER_BOUND ( 'NONE', #173, .T. ) ;
#235 = DIMENSIONAL_EXPONENTS ( 1.000000000000000000, 0.000000000000000000, 0.000000000000000000, 0.000000000000000000, 0.000000000000000000, 0.000000000000000000, 0.000000000000000000 ) ;
#236 = CYLINDRICAL_SURFACE ( 'NONE', #113, 0.06250000000000001388 ) ;
#237 = PRESENTATION_LAYER_ASSIGNMENT (  '', '', ( #145 ) ) ;
#238 = PRODUCT_DEFINITION_FORMATION_WITH_SPECIFIED_SOURCE ( 'ANY', '', #14, .NOT_KNOWN. ) ;
#239 = UNCERTAINTY_MEASURE_WITH_UNIT (LENGTH_MEASURE( 1.000000000000000082E-05 ), #152, 'distance_accuracy_value', 'NONE');
#240 = FACE_OUTER_BOUND ( 'NONE', #94, .T. ) ;
#241 = ORIENTED_EDGE ( 'NONE', *, *, #12, .F. ) ;
#242 = LINE ( 'NONE', #165, #122 ) ;
#243 = CARTESIAN_POINT ( 'NONE',  ( 0.000000000000000000, 0.000000000000000000, 0.000000000000000000 ) ) ;
#244 = CARTESIAN_POINT ( 'NONE',  ( 0.000000000000000000, 0.6250000000000000000, -0.06250000000000000000 ) ) ;
#245 = VERTEX_POINT ( 'NONE', #74 ) ;
#246 = CARTESIAN_POINT ( 'NONE',  ( 7.654042494670959086E-18, 0.6250000000000000000, 0.06250000000000000000 ) ) ;
#247 =( LENGTH_UNIT ( ) NAMED_UNIT ( * ) SI_UNIT ( $, .METRE. ) );
#248 = DIRECTION ( 'NONE',  ( 0.000000000000000000, 0.000000000000000000, -1.000000000000000000 ) ) ;
#249 = CLOSED_SHELL ( 'NONE', ( #131, #92, #154, #167 ) ) ;
#250 = PRESENTATION_STYLE_ASSIGNMENT (( #50 ) ) ;
#251 = EDGE_CURVE ( 'NONE', #309, #245, #66, .T. ) ;
#252 = DIRECTION ( 'NONE',  ( 0.000000000000000000, 0.000000000000000000, 1.000000000000000000 ) ) ;
#253 = DIRECTION ( 'NONE',  ( -1.000000000000000000, 0.000000000000000000, 0.000000000000000000 ) ) ;
#254 = CARTESIAN_POINT ( 'NONE',  ( 0.000000000000000000, 0.000000000000000000, 0.000000000000000000 ) ) ;
#255 =( NAMED_UNIT ( * ) PLANE_ANGLE_UNIT ( ) SI_UNIT ( $, .RADIAN. ) );
#256 = AXIS2_PLACEMENT_3D ( 'NONE', #23, #25, #99 ) ;
#257 = DIRECTION ( 'NONE',  ( -3.265724797726275178E-17, 1.000000000000000000, 0.000000000000000000 ) ) ;
#258 = FILL_AREA_STYLE_COLOUR ( '', #160 ) ;
#259 =( NAMED_UNIT ( * ) PLANE_ANGLE_UNIT ( ) SI_UNIT ( $, .RADIAN. ) );
#260 =( NAMED_UNIT ( * ) SI_UNIT ( $, .STERADIAN. ) SOLID_ANGLE_UNIT ( ) );
#261 = CYLINDRICAL_SURFACE ( 'NONE', #36, 0.06250000000000002776 ) ;
#262 = AXIS2_PLACEMENT_3D ( 'NONE', #292, #105, #253 ) ;
#263 = FACE_OUTER_BOUND ( 'NONE', #221, .T. ) ;
#264 =( GEOMETRIC_REPRESENTATION_CONTEXT ( 3 ) GLOBAL_UNCERTAINTY_ASSIGNED_CONTEXT ( ( #119 ) ) GLOBAL_UNIT_ASSIGNED_CONTEXT ( ( #210, #159, #78 ) ) REPRESENTATION_CONTEXT ( 'NONE', 'WORKASPACE' ) );
#265 = VERTEX_POINT ( 'NONE', #276 ) ;
#266 = PRODUCT_DEFINITION_CONTEXT ( 'detailed design', #196, 'design' ) ;
#267 = DIRECTION ( 'NONE',  ( -0.000000000000000000, -1.000000000000000000, -0.000000000000000000 ) ) ;
#268 = ORIENTED_EDGE ( 'NONE', *, *, #226, .T. ) ;
#269 = FILL_AREA_STYLE_COLOUR ( '', #26 ) ;
#270 = SURFACE_SIDE_STYLE ('',( #73 ) ) ;
#271 = APPLICATION_CONTEXT ( 'automotive_design' ) ;
#272 = MECHANICAL_DESIGN_GEOMETRIC_PRESENTATION_REPRESENTATION (  '', ( #61 ), #141 ) ;
#273 = VERTEX_POINT ( 'NONE', #284 ) ;
#274 = MANIFOLD_SOLID_BREP ( 'Revolve - Cutting Edge', #307 ) ;
#275 = EDGE_CURVE ( 'NONE', #309, #102, #104, .T. ) ;
#276 = CARTESIAN_POINT ( 'NONE',  ( 0.06250000000000000000, 2.500000000000000000, 7.654042494670963708E-18 ) ) ;
#277 = ORIENTED_EDGE ( 'NONE', *, *, #27, .T. ) ;
#278 = DIRECTION ( 'NONE',  ( -3.265724797726275178E-17, 1.000000000000000000, -0.000000000000000000 ) ) ;
#279 = CARTESIAN_POINT ( 'NONE',  ( 7.654042494670959086E-18, 0.000000000000000000, 0.06250000000000001388 ) ) ;
#280 =( GEOMETRIC_REPRESENTATION_CONTEXT ( 3 ) GLOBAL_UNCERTAINTY_ASSIGNED_CONTEXT ( ( #24 ) ) GLOBAL_UNIT_ASSIGNED_CONTEXT ( ( #60, #132, #260 ) ) REPRESENTATION_CONTEXT ( 'NONE', 'WORKASPACE' ) );
#281 = FILL_AREA_STYLE ('',( #35 ) ) ;
#282 =( NAMED_UNIT ( * ) SI_UNIT ( $, .STERADIAN. ) SOLID_ANGLE_UNIT ( ) );
#283 = COLOUR_RGB ( '',0.7921568627450980005, 0.8196078431372548767, 0.9333333333333333481 ) ;
#284 = CARTESIAN_POINT ( 'NONE',  ( 0.000000000000000000, 0.000000000000000000, -0.06250000000000001388 ) ) ;
#285 = EDGE_LOOP ( 'NONE', ( #117, #277 ) ) ;
#286 = VERTEX_POINT ( 'NONE', #246 ) ;
#287 = CARTESIAN_POINT ( 'NONE',  ( 0.000000000000000000, 0.6250000000000000000, 0.000000000000000000 ) ) ;
#288 = DIRECTION ( 'NONE',  ( -3.265724797726275178E-17, 1.000000000000000000, -0.000000000000000000 ) ) ;
#289 = STYLED_ITEM ( 'NONE', ( #143 ), #55 ) ;
#290 = ORIENTED_EDGE ( 'NONE', *, *, #179, .T. ) ;
#291 = AXIS2_PLACEMENT_3D ( 'NONE', #172, #40, #216 ) ;
#292 = CARTESIAN_POINT ( 'NONE',  ( -6.123233995736766036E-17, 2.500000000000000000, 0.000000000000000000 ) ) ;
#293 = FACE_OUTER_BOUND ( 'NONE', #285, .T. ) ;
#294 = PLANE ( 'NONE',  #16 ) ;
#295 = CIRCLE ( 'NONE', #256, 0.06250000000000001388 ) ;
#296 = LENGTH_MEASURE_WITH_UNIT ( LENGTH_MEASURE( 0.02539999999999999897 ), #127 );
#297 = PLANE ( 'NONE',  #233 ) ;
#298 = FACE_OUTER_BOUND ( 'NONE', #115, .T. ) ;
#299 = STYLED_ITEM ( 'NONE', ( #17 ), #134 ) ;
#300 = PRESENTATION_LAYER_ASSIGNMENT (  '', '', ( #49 ) ) ;
#301 = DIRECTION ( 'NONE',  ( -3.265724797726275178E-17, 1.000000000000000000, -0.000000000000000000 ) ) ;
#302 = PRODUCT_RELATED_PRODUCT_CATEGORY ( 'part', '', ( #14 ) ) ;
#303 = MECHANICAL_DESIGN_GEOMETRIC_PRESENTATION_REPRESENTATION (  '', ( #299 ), #264 ) ;
#304 = CARTESIAN_POINT ( 'NONE',  ( 0.000000000000000000, 0.6250000000000000000, 0.000000000000000000 ) ) ;
#305 = CARTESIAN_POINT ( 'NONE',  ( -6.123233995736766036E-17, 2.500000000000000000, 0.000000000000000000 ) ) ;
#306 = ORIENTED_EDGE ( 'NONE', *, *, #83, .F. ) ;
#307 = CLOSED_SHELL ( 'NONE', ( #134, #114, #124, #69 ) ) ;
#308 = CARTESIAN_POINT ( 'NONE',  ( 0.06250000000000000000, 2.500000000000000000, 0.000000000000000000 ) ) ;
#309 = VERTEX_POINT ( 'NONE', #52 ) ;
ENDSEC;
END-ISO-10303-21;
