ISO-10303-21;
HEADER;
FILE_DESCRIPTION (( 'STEP AP214' ),
    '1' );
FILE_NAME ('81374.STEP',
    '2023-06-23T00:58:15',
    ( '' ),
    ( '' ),
    'SwSTEP 2.0',
    'SolidWorks 2023',
    '' );
FILE_SCHEMA (( 'AUTOMOTIVE_DESIGN' ));
ENDSEC;

DATA;
#1 = LENGTH_MEASURE_WITH_UNIT ( LENGTH_MEASURE( 0.02539999999999999897 ), #94 );
#2 = CLOSED_SHELL ( 'NONE', ( #281, #218, #150, #302 ) ) ;
#3 = VECTOR ( 'NONE', #130, 39.37007874015748143 ) ;
#4 = EDGE_CURVE ( 'NONE', #178, #37, #116, .T. ) ;
#5 = DIRECTION ( 'NONE',  ( 0.000000000000000000, 0.000000000000000000, -1.000000000000000000 ) ) ;
#6 = FILL_AREA_STYLE_COLOUR ( '', #263 ) ;
#7 = DIMENSIONAL_EXPONENTS ( 1.000000000000000000, 0.000000000000000000, 0.000000000000000000, 0.000000000000000000, 0.000000000000000000, 0.000000000000000000, 0.000000000000000000 ) ;
#8 = PLANE ( 'NONE',  #68 ) ;
#9 = DIRECTION ( 'NONE',  ( 0.000000000000000000, 1.000000000000000000, 0.000000000000000000 ) ) ;
#10 = DIMENSIONAL_EXPONENTS ( 1.000000000000000000, 0.000000000000000000, 0.000000000000000000, 0.000000000000000000, 0.000000000000000000, 0.000000000000000000, 0.000000000000000000 ) ;
#11 = ORIENTED_EDGE ( 'NONE', *, *, #275, .F. ) ;
#12 = PRESENTATION_LAYER_ASSIGNMENT (  '', '', ( #95 ) ) ;
#13 = FACE_OUTER_BOUND ( 'NONE', #244, .T. ) ;
#14 = APPLICATION_CONTEXT ( 'automotive_design' ) ;
#15 = EDGE_LOOP ( 'NONE', ( #292, #294 ) ) ;
#16 = CARTESIAN_POINT ( 'NONE',  ( -0.3749999999999999445, 2.750000000000000000, 0.000000000000000000 ) ) ;
#17 = UNCERTAINTY_MEASURE_WITH_UNIT (LENGTH_MEASURE( 1.000000000000000082E-05 ), #104, 'distance_accuracy_value', 'NONE');
#18 = AXIS2_PLACEMENT_3D ( 'NONE', #183, #40, #65 ) ;
#19 = FILL_AREA_STYLE ('',( #133 ) ) ;
#20 = CARTESIAN_POINT ( 'NONE',  ( 0.000000000000000000, 2.750000000000000000, -0.3749999999999999445 ) ) ;
#21 = APPLICATION_CONTEXT ( 'automotive_design' ) ;
#22 =( NAMED_UNIT ( * ) PLANE_ANGLE_UNIT ( ) SI_UNIT ( $, .RADIAN. ) );
#23 = PLANE ( 'NONE',  #266 ) ;
#24 = DIRECTION ( 'NONE',  ( -1.360718665719281396E-16, 1.000000000000000000, -0.000000000000000000 ) ) ;
#25 = VECTOR ( 'NONE', #182, 39.37007874015748143 ) ;
#26 = DIRECTION ( 'NONE',  ( 0.000000000000000000, 0.000000000000000000, 1.000000000000000000 ) ) ;
#27 =( NAMED_UNIT ( * ) SI_UNIT ( $, .STERADIAN. ) SOLID_ANGLE_UNIT ( ) );
#28 = PRESENTATION_LAYER_ASSIGNMENT (  '', '', ( #201 ) ) ;
#29 = MECHANICAL_DESIGN_GEOMETRIC_PRESENTATION_REPRESENTATION (  '', ( #142 ), #126 ) ;
#30 = LENGTH_MEASURE_WITH_UNIT ( LENGTH_MEASURE( 0.02539999999999999897 ), #197 );
#31 = ADVANCED_FACE ( 'NONE', ( #106 ), #200, .T. ) ;
#32 = SURFACE_STYLE_FILL_AREA ( #149 ) ;
#33 = ORIENTED_EDGE ( 'NONE', *, *, #134, .T. ) ;
#34 = ORIENTED_EDGE ( 'NONE', *, *, #186, .T. ) ;
#35 =( CONVERSION_BASED_UNIT ( 'INCH', #194 ) LENGTH_UNIT ( ) NAMED_UNIT ( #10 ) );
#36 = PRESENTATION_STYLE_ASSIGNMENT (( #137 ) ) ;
#37 = VERTEX_POINT ( 'NONE', #16 ) ;
#38 = CIRCLE ( 'NONE', #206, 0.3750000000000002220 ) ;
#39 = STYLED_ITEM ( 'NONE', ( #82 ), #218 ) ;
#40 = DIRECTION ( 'NONE',  ( -0.000000000000000000, -1.000000000000000000, -0.000000000000000000 ) ) ;
#41 =( NAMED_UNIT ( * ) PLANE_ANGLE_UNIT ( ) SI_UNIT ( $, .RADIAN. ) );
#42 = FILL_AREA_STYLE_COLOUR ( '', #237 ) ;
#43 = PRESENTATION_STYLE_ASSIGNMENT (( #131 ) ) ;
#44 = DIRECTION ( 'NONE',  ( -1.360718665719281396E-16, 1.000000000000000000, -0.000000000000000000 ) ) ;
#45 =( CONVERSION_BASED_UNIT ( 'INCH', #110 ) LENGTH_UNIT ( ) NAMED_UNIT ( #242 ) );
#46 =( GEOMETRIC_REPRESENTATION_CONTEXT ( 3 ) GLOBAL_UNCERTAINTY_ASSIGNED_CONTEXT ( ( #75 ) ) GLOBAL_UNIT_ASSIGNED_CONTEXT ( ( #45, #41, #225 ) ) REPRESENTATION_CONTEXT ( 'NONE', 'WORKASPACE' ) );
#47 = LENGTH_MEASURE_WITH_UNIT ( LENGTH_MEASURE( 0.02539999999999999897 ), #132 );
#48 =( NAMED_UNIT ( * ) SI_UNIT ( $, .STERADIAN. ) SOLID_ANGLE_UNIT ( ) );
#49 = FILL_AREA_STYLE ('',( #202 ) ) ;
#50 = DIRECTION ( 'NONE',  ( 1.000000000000000000, 0.000000000000000000, 0.000000000000000000 ) ) ;
#51 =( GEOMETRIC_REPRESENTATION_CONTEXT ( 3 ) GLOBAL_UNCERTAINTY_ASSIGNED_CONTEXT ( ( #238 ) ) GLOBAL_UNIT_ASSIGNED_CONTEXT ( ( #304, #22, #87 ) ) REPRESENTATION_CONTEXT ( 'NONE', 'WORKASPACE' ) );
#52 = EDGE_CURVE ( 'NONE', #54, #215, #38, .T. ) ;
#53 = DIRECTION ( 'NONE',  ( -1.360718665719281396E-16, 1.000000000000000000, -0.000000000000000000 ) ) ;
#54 = VERTEX_POINT ( 'NONE', #187 ) ;
#55 = DIMENSIONAL_EXPONENTS ( 1.000000000000000000, 0.000000000000000000, 0.000000000000000000, 0.000000000000000000, 0.000000000000000000, 0.000000000000000000, 0.000000000000000000 ) ;
#56 = VERTEX_POINT ( 'NONE', #20 ) ;
#57 = ORIENTED_EDGE ( 'NONE', *, *, #4, .F. ) ;
#58 = UNCERTAINTY_MEASURE_WITH_UNIT (LENGTH_MEASURE( 1.000000000000000082E-05 ), #166, 'distance_accuracy_value', 'NONE');
#59 = DIRECTION ( 'NONE',  ( 0.000000000000000000, -0.000000000000000000, 1.000000000000000000 ) ) ;
#60 = ORIENTED_EDGE ( 'NONE', *, *, #289, .F. ) ;
#61 =( LENGTH_UNIT ( ) NAMED_UNIT ( * ) SI_UNIT ( $, .METRE. ) );
#62 = ORIENTED_EDGE ( 'NONE', *, *, #52, .F. ) ;
#63 = FILL_AREA_STYLE ('',( #42 ) ) ;
#64 = DIRECTION ( 'NONE',  ( -1.000000000000000000, 0.000000000000000000, 0.000000000000000000 ) ) ;
#65 = DIRECTION ( 'NONE',  ( 0.000000000000000000, 0.000000000000000000, -1.000000000000000000 ) ) ;
#66 = SURFACE_SIDE_STYLE ('',( #203 ) ) ;
#67 = CARTESIAN_POINT ( 'NONE',  ( -0.3750000000000003886, 5.000000000000000000, 0.000000000000000000 ) ) ;
#68 = AXIS2_PLACEMENT_3D ( 'NONE', #285, #9, #59 ) ;
#69 = LENGTH_MEASURE_WITH_UNIT ( LENGTH_MEASURE( 0.02539999999999999897 ), #228 );
#70 = CARTESIAN_POINT ( 'NONE',  ( 0.000000000000000000, 0.000000000000000000, -0.3749999999999999445 ) ) ;
#71 = PRODUCT ( '81374', '81374', '', ( #259 ) ) ;
#72 = ADVANCED_FACE ( 'NONE', ( #205 ), #23, .F. ) ;
#73 = DIRECTION ( 'NONE',  ( 0.000000000000000000, 0.000000000000000000, -1.000000000000000000 ) ) ;
#74 = CARTESIAN_POINT ( 'NONE',  ( 0.000000000000000000, 2.750000000000000000, 0.000000000000000000 ) ) ;
#75 = UNCERTAINTY_MEASURE_WITH_UNIT (LENGTH_MEASURE( 1.000000000000000082E-05 ), #45, 'distance_accuracy_value', 'NONE');
#76 = DIRECTION ( 'NONE',  ( -0.000000000000000000, -1.000000000000000000, -0.000000000000000000 ) ) ;
#77 = MECHANICAL_DESIGN_GEOMETRIC_PRESENTATION_REPRESENTATION (  '', ( #39 ), #233 ) ;
#78 = VERTEX_POINT ( 'NONE', #199 ) ;
#79 = DIMENSIONAL_EXPONENTS ( 1.000000000000000000, 0.000000000000000000, 0.000000000000000000, 0.000000000000000000, 0.000000000000000000, 0.000000000000000000, 0.000000000000000000 ) ;
#80 = ORIENTED_EDGE ( 'NONE', *, *, #196, .T. ) ;
#81 = PRESENTATION_STYLE_ASSIGNMENT (( #101 ) ) ;
#82 = PRESENTATION_STYLE_ASSIGNMENT (( #287 ) ) ;
#83 = EDGE_LOOP ( 'NONE', ( #127, #247 ) ) ;
#84 = DIRECTION ( 'NONE',  ( -0.000000000000000000, -1.000000000000000000, -0.000000000000000000 ) ) ;
#85 = DIRECTION ( 'NONE',  ( -1.000000000000000000, 0.000000000000000000, 0.000000000000000000 ) ) ;
#86 = CARTESIAN_POINT ( 'NONE',  ( -3.061616997868383141E-16, 5.000000000000000000, 0.000000000000000000 ) ) ;
#87 =( NAMED_UNIT ( * ) SI_UNIT ( $, .STERADIAN. ) SOLID_ANGLE_UNIT ( ) );
#88 = FILL_AREA_STYLE_COLOUR ( '', #192 ) ;
#89 = CARTESIAN_POINT ( 'NONE',  ( 0.000000000000000000, 0.000000000000000000, 0.000000000000000000 ) ) ;
#90 = DIRECTION ( 'NONE',  ( -1.000000000000000000, 0.000000000000000000, 0.000000000000000000 ) ) ;
#91 = AXIS2_PLACEMENT_3D ( 'NONE', #301, #274, #90 ) ;
#92 = LINE ( 'NONE', #70, #152 ) ;
#93 =( NAMED_UNIT ( * ) PLANE_ANGLE_UNIT ( ) SI_UNIT ( $, .RADIAN. ) );
#94 =( LENGTH_UNIT ( ) NAMED_UNIT ( * ) SI_UNIT ( $, .METRE. ) );
#95 = STYLED_ITEM ( 'NONE', ( #36 ), #281 ) ;
#96 =( NAMED_UNIT ( * ) PLANE_ANGLE_UNIT ( ) SI_UNIT ( $, .RADIAN. ) );
#97 = UNCERTAINTY_MEASURE_WITH_UNIT (LENGTH_MEASURE( 1.000000000000000082E-05 ), #35, 'distance_accuracy_value', 'NONE');
#98 = PRESENTATION_LAYER_ASSIGNMENT (  '', '', ( #140 ) ) ;
#99 = SURFACE_STYLE_FILL_AREA ( #122 ) ;
#100 = ORIENTED_EDGE ( 'NONE', *, *, #262, .T. ) ;
#101 = SURFACE_STYLE_USAGE ( .BOTH. , #268 ) ;
#102 = CIRCLE ( 'NONE', #18, 0.3750000000000000555 ) ;
#103 = VERTEX_POINT ( 'NONE', #279 ) ;
#104 =( CONVERSION_BASED_UNIT ( 'INCH', #151 ) LENGTH_UNIT ( ) NAMED_UNIT ( #79 ) );
#105 = DIRECTION ( 'NONE',  ( -1.000000000000000000, 0.000000000000000000, 0.000000000000000000 ) ) ;
#106 = FACE_OUTER_BOUND ( 'NONE', #145, .T. ) ;
#107 = COLOUR_RGB ( '',0.7921568627450980005, 0.8196078431372548767, 0.9333333333333333481 ) ;
#108 = MECHANICAL_DESIGN_GEOMETRIC_PRESENTATION_REPRESENTATION (  '', ( #140 ), #117 ) ;
#109 = CARTESIAN_POINT ( 'NONE',  ( 0.000000000000000000, 2.750000000000000000, 0.000000000000000000 ) ) ;
#110 = LENGTH_MEASURE_WITH_UNIT ( LENGTH_MEASURE( 0.02539999999999999897 ), #112 );
#111 = DIRECTION ( 'NONE',  ( 0.000000000000000000, 0.000000000000000000, -1.000000000000000000 ) ) ;
#112 =( LENGTH_UNIT ( ) NAMED_UNIT ( * ) SI_UNIT ( $, .METRE. ) );
#113 = CARTESIAN_POINT ( 'NONE',  ( -0.3750000000000004996, 5.000000000000000000, 0.000000000000000000 ) ) ;
#114 = CIRCLE ( 'NONE', #91, 0.3750000000000002220 ) ;
#115 = DIRECTION ( 'NONE',  ( 0.000000000000000000, 0.000000000000000000, -1.000000000000000000 ) ) ;
#116 = CIRCLE ( 'NONE', #158, 0.3749999999999999445 ) ;
#117 =( GEOMETRIC_REPRESENTATION_CONTEXT ( 3 ) GLOBAL_UNCERTAINTY_ASSIGNED_CONTEXT ( ( #303 ) ) GLOBAL_UNIT_ASSIGNED_CONTEXT ( ( #162, #232, #309 ) ) REPRESENTATION_CONTEXT ( 'NONE', 'WORKASPACE' ) );
#118 =( CONVERSION_BASED_UNIT ( 'INCH', #30 ) LENGTH_UNIT ( ) NAMED_UNIT ( #7 ) );
#119 = ORIENTED_EDGE ( 'NONE', *, *, #4, .T. ) ;
#120 = EDGE_CURVE ( 'NONE', #37, #215, #306, .T. ) ;
#121 = VECTOR ( 'NONE', #53, 39.37007874015748143 ) ;
#122 = FILL_AREA_STYLE ('',( #6 ) ) ;
#123 = SURFACE_SIDE_STYLE ('',( #32 ) ) ;
#124 = CARTESIAN_POINT ( 'NONE',  ( 6.065921084684207584E-32, 2.750000000000000000, 0.000000000000000000 ) ) ;
#125 = PRODUCT_RELATED_PRODUCT_CATEGORY ( 'part', '', ( #71 ) ) ;
#126 =( GEOMETRIC_REPRESENTATION_CONTEXT ( 3 ) GLOBAL_UNCERTAINTY_ASSIGNED_CONTEXT ( ( #97 ) ) GLOBAL_UNIT_ASSIGNED_CONTEXT ( ( #35, #96, #169 ) ) REPRESENTATION_CONTEXT ( 'NONE', 'WORKASPACE' ) );
#127 = ORIENTED_EDGE ( 'NONE', *, *, #275, .T. ) ;
#128 = AXIS2_PLACEMENT_3D ( 'NONE', #164, #256, #189 ) ;
#129 = MANIFOLD_SOLID_BREP ( 'Revolve - Cutting Edge', #2 ) ;
#130 = DIRECTION ( 'NONE',  ( -0.000000000000000000, -1.000000000000000000, -0.000000000000000000 ) ) ;
#131 = SURFACE_STYLE_USAGE ( .BOTH. , #180 ) ;
#132 =( LENGTH_UNIT ( ) NAMED_UNIT ( * ) SI_UNIT ( $, .METRE. ) );
#133 = FILL_AREA_STYLE_COLOUR ( '', #308 ) ;
#134 = EDGE_CURVE ( 'NONE', #215, #54, #114, .T. ) ;
#135 = FILL_AREA_STYLE ('',( #88 ) ) ;
#136 = PRESENTATION_LAYER_ASSIGNMENT (  '', '', ( #39 ) ) ;
#137 = SURFACE_STYLE_USAGE ( .BOTH. , #277 ) ;
#138 = PRODUCT_DEFINITION ( 'UNKNOWN', '', #198, #193 ) ;
#139 = SHAPE_DEFINITION_REPRESENTATION ( #144, #226 ) ;
#140 = STYLED_ITEM ( 'NONE', ( #250 ), #150 ) ;
#141 = DIRECTION ( 'NONE',  ( -1.360718665719281396E-16, 1.000000000000000000, -0.000000000000000000 ) ) ;
#142 = STYLED_ITEM ( 'NONE', ( #81 ), #234 ) ;
#143 = CARTESIAN_POINT ( 'NONE',  ( 0.000000000000000000, 0.000000000000000000, -0.3750000000000000555 ) ) ;
#144 = PRODUCT_DEFINITION_SHAPE ( 'NONE', 'NONE',  #138 ) ;
#145 = EDGE_LOOP ( 'NONE', ( #177, #119, #245, #62 ) ) ;
#146 = AXIS2_PLACEMENT_3D ( 'NONE', #283, #190, #115 ) ;
#147 = ORIENTED_EDGE ( 'NONE', *, *, #284, .F. ) ;
#148 = EDGE_LOOP ( 'NONE', ( #60, #57 ) ) ;
#149 = FILL_AREA_STYLE ('',( #265 ) ) ;
#150 = ADVANCED_FACE ( 'NONE', ( #298 ), #273, .T. ) ;
#151 = LENGTH_MEASURE_WITH_UNIT ( LENGTH_MEASURE( 0.02539999999999999897 ), #222 );
#152 = VECTOR ( 'NONE', #76, 39.37007874015748143 ) ;
#153 = DIRECTION ( 'NONE',  ( -1.360718665719281396E-16, 1.000000000000000000, -0.000000000000000000 ) ) ;
#154 = SURFACE_STYLE_FILL_AREA ( #63 ) ;
#155 = SURFACE_STYLE_USAGE ( .BOTH. , #66 ) ;
#156 = DIRECTION ( 'NONE',  ( -1.360718665719281396E-16, 1.000000000000000000, 0.000000000000000000 ) ) ;
#157 = SURFACE_SIDE_STYLE ('',( #224 ) ) ;
#158 = AXIS2_PLACEMENT_3D ( 'NONE', #124, #217, #85 ) ;
#159 = SURFACE_STYLE_FILL_AREA ( #49 ) ;
#160 = CIRCLE ( 'NONE', #248, 0.3749999999999999445 ) ;
#161 = AXIS2_PLACEMENT_3D ( 'NONE', #260, #141, #282 ) ;
#162 =( CONVERSION_BASED_UNIT ( 'INCH', #69 ) LENGTH_UNIT ( ) NAMED_UNIT ( #286 ) );
#163 = ADVANCED_FACE ( 'NONE', ( #257 ), #209, .T. ) ;
#164 = CARTESIAN_POINT ( 'NONE',  ( 0.000000000000000000, 0.000000000000000000, 0.000000000000000000 ) ) ;
#165 = AXIS2_PLACEMENT_3D ( 'NONE', #86, #153, #64 ) ;
#166 =( CONVERSION_BASED_UNIT ( 'INCH', #1 ) LENGTH_UNIT ( ) NAMED_UNIT ( #172 ) );
#167 = APPLICATION_PROTOCOL_DEFINITION ( 'draft international standard', 'automotive_design', 1998, #14 ) ;
#168 = LINE ( 'NONE', #261, #121 ) ;
#169 =( NAMED_UNIT ( * ) SI_UNIT ( $, .STERADIAN. ) SOLID_ANGLE_UNIT ( ) );
#170 = EDGE_LOOP ( 'NONE', ( #147, #212, #34, #288 ) ) ;
#171 = EDGE_CURVE ( 'NONE', #78, #56, #210, .T. ) ;
#172 = DIMENSIONAL_EXPONENTS ( 1.000000000000000000, 0.000000000000000000, 0.000000000000000000, 0.000000000000000000, 0.000000000000000000, 0.000000000000000000, 0.000000000000000000 ) ;
#173 = PRESENTATION_LAYER_ASSIGNMENT (  '', '', ( #299 ) ) ;
#174 =( GEOMETRIC_REPRESENTATION_CONTEXT ( 3 ) GLOBAL_UNCERTAINTY_ASSIGNED_CONTEXT ( ( #17 ) ) GLOBAL_UNIT_ASSIGNED_CONTEXT ( ( #104, #300, #27 ) ) REPRESENTATION_CONTEXT ( 'NONE', 'WORKASPACE' ) );
#175 = FACE_OUTER_BOUND ( 'NONE', #148, .T. ) ;
#176 =( GEOMETRIC_REPRESENTATION_CONTEXT ( 3 ) GLOBAL_UNCERTAINTY_ASSIGNED_CONTEXT ( ( #58 ) ) GLOBAL_UNIT_ASSIGNED_CONTEXT ( ( #166, #93, #48 ) ) REPRESENTATION_CONTEXT ( 'NONE', 'WORKASPACE' ) );
#177 = ORIENTED_EDGE ( 'NONE', *, *, #196, .F. ) ;
#178 = VERTEX_POINT ( 'NONE', #239 ) ;
#179 = CYLINDRICAL_SURFACE ( 'NONE', #207, 0.3749999999999999445 ) ;
#180 = SURFACE_SIDE_STYLE ('',( #159 ) ) ;
#181 = CARTESIAN_POINT ( 'NONE',  ( 3.471666163569115137E-33, 2.750000000000000000, 0.000000000000000000 ) ) ;
#182 = DIRECTION ( 'NONE',  ( -1.360718665719281396E-16, 1.000000000000000000, -0.000000000000000000 ) ) ;
#183 = CARTESIAN_POINT ( 'NONE',  ( 0.000000000000000000, 0.000000000000000000, 0.000000000000000000 ) ) ;
#184 = DIRECTION ( 'NONE',  ( -1.000000000000000000, -1.360718665719281396E-16, 0.000000000000000000 ) ) ;
#185 = DIRECTION ( 'NONE',  ( 0.000000000000000000, 0.000000000000000000, -1.000000000000000000 ) ) ;
#186 = EDGE_CURVE ( 'NONE', #56, #195, #92, .T. ) ;
#187 = CARTESIAN_POINT ( 'NONE',  ( 0.3749999999999999445, 5.000000000000000000, 4.592425496802576684E-17 ) ) ;
#188 = MECHANICAL_DESIGN_GEOMETRIC_PRESENTATION_REPRESENTATION (  '', ( #95 ), #51 ) ;
#189 = DIRECTION ( 'NONE',  ( 0.000000000000000000, 0.000000000000000000, -1.000000000000000000 ) ) ;
#190 = DIRECTION ( 'NONE',  ( -0.000000000000000000, -1.000000000000000000, -0.000000000000000000 ) ) ;
#191 = CARTESIAN_POINT ( 'NONE',  ( 0.000000000000000000, 0.000000000000000000, 0.000000000000000000 ) ) ;
#192 = COLOUR_RGB ( '',1.000000000000000000, 0.000000000000000000, 0.000000000000000000 ) ;
#193 = PRODUCT_DEFINITION_CONTEXT ( 'detailed design', #21, 'design' ) ;
#194 = LENGTH_MEASURE_WITH_UNIT ( LENGTH_MEASURE( 0.02539999999999999897 ), #61 );
#195 = VERTEX_POINT ( 'NONE', #143 ) ;
#196 = EDGE_CURVE ( 'NONE', #178, #54, #168, .T. ) ;
#197 =( LENGTH_UNIT ( ) NAMED_UNIT ( * ) SI_UNIT ( $, .METRE. ) );
#198 = PRODUCT_DEFINITION_FORMATION_WITH_SPECIFIED_SOURCE ( 'ANY', '', #71, .NOT_KNOWN. ) ;
#199 = CARTESIAN_POINT ( 'NONE',  ( 4.592425496802573602E-17, 2.750000000000000000, 0.3749999999999999445 ) ) ;
#200 = CYLINDRICAL_SURFACE ( 'NONE', #165, 0.3750000000000001110 ) ;
#201 = STYLED_ITEM ( 'NONE', ( #246 ), #302 ) ;
#202 = FILL_AREA_STYLE_COLOUR ( '', #107 ) ;
#203 = SURFACE_STYLE_FILL_AREA ( #135 ) ;
#204 = LINE ( 'NONE', #271, #3 ) ;
#205 = FACE_OUTER_BOUND ( 'NONE', #269, .T. ) ;
#206 = AXIS2_PLACEMENT_3D ( 'NONE', #296, #24, #105 ) ;
#207 = AXIS2_PLACEMENT_3D ( 'NONE', #89, #84, #185 ) ;
#208 = DIRECTION ( 'NONE',  ( 0.000000000000000000, -1.000000000000000000, -0.000000000000000000 ) ) ;
#209 = CYLINDRICAL_SURFACE ( 'NONE', #161, 0.3750000000000001110 ) ;
#210 = CIRCLE ( 'NONE', #243, 0.3749999999999999445 ) ;
#211 = UNCERTAINTY_MEASURE_WITH_UNIT (LENGTH_MEASURE( 1.000000000000000082E-05 ), #118, 'distance_accuracy_value', 'NONE');
#212 = ORIENTED_EDGE ( 'NONE', *, *, #171, .T. ) ;
#213 = CLOSED_SHELL ( 'NONE', ( #163, #253, #31, #72 ) ) ;
#214 = AXIS2_PLACEMENT_3D ( 'NONE', #255, #26, #50 ) ;
#215 = VERTEX_POINT ( 'NONE', #113 ) ;
#216 =( NAMED_UNIT ( * ) SI_UNIT ( $, .STERADIAN. ) SOLID_ANGLE_UNIT ( ) );
#217 = DIRECTION ( 'NONE',  ( -1.360718665719281396E-16, 1.000000000000000000, -0.000000000000000000 ) ) ;
#218 = ADVANCED_FACE ( 'NONE', ( #290 ), #8, .T. ) ;
#219 =( NAMED_UNIT ( * ) PLANE_ANGLE_UNIT ( ) SI_UNIT ( $, .RADIAN. ) );
#220 = ORIENTED_EDGE ( 'NONE', *, *, #284, .T. ) ;
#221 = CIRCLE ( 'NONE', #128, 0.3750000000000000555 ) ;
#222 =( LENGTH_UNIT ( ) NAMED_UNIT ( * ) SI_UNIT ( $, .METRE. ) );
#223 = ORIENTED_EDGE ( 'NONE', *, *, #134, .F. ) ;
#224 = SURFACE_STYLE_FILL_AREA ( #19 ) ;
#225 =( NAMED_UNIT ( * ) SI_UNIT ( $, .STERADIAN. ) SOLID_ANGLE_UNIT ( ) );
#226 = ADVANCED_BREP_SHAPE_REPRESENTATION ( '81374', ( #129, #234, #214 ), #176 ) ;
#227 = SURFACE_STYLE_USAGE ( .BOTH. , #157 ) ;
#228 =( LENGTH_UNIT ( ) NAMED_UNIT ( * ) SI_UNIT ( $, .METRE. ) );
#229 = CARTESIAN_POINT ( 'NONE',  ( 6.065921084684207584E-32, 2.750000000000000000, 0.000000000000000000 ) ) ;
#230 = AXIS2_PLACEMENT_3D ( 'NONE', #181, #156, #184 ) ;
#231 = CARTESIAN_POINT ( 'NONE',  ( 0.3749999999999999445, 5.000000000000000000, 0.000000000000000000 ) ) ;
#232 =( NAMED_UNIT ( * ) PLANE_ANGLE_UNIT ( ) SI_UNIT ( $, .RADIAN. ) );
#233 =( GEOMETRIC_REPRESENTATION_CONTEXT ( 3 ) GLOBAL_UNCERTAINTY_ASSIGNED_CONTEXT ( ( #211 ) ) GLOBAL_UNIT_ASSIGNED_CONTEXT ( ( #118, #219, #216 ) ) REPRESENTATION_CONTEXT ( 'NONE', 'WORKASPACE' ) );
#234 = MANIFOLD_SOLID_BREP ( 'Revolve - Tool Body (Straight Shanked)', #213 ) ;
#235 = DIRECTION ( 'NONE',  ( -0.000000000000000000, -1.000000000000000000, -0.000000000000000000 ) ) ;
#236 = MECHANICAL_DESIGN_GEOMETRIC_PRESENTATION_REPRESENTATION (  '', ( #299 ), #46 ) ;
#237 = COLOUR_RGB ( '',1.000000000000000000, 0.000000000000000000, 0.000000000000000000 ) ;
#238 = UNCERTAINTY_MEASURE_WITH_UNIT (LENGTH_MEASURE( 1.000000000000000082E-05 ), #304, 'distance_accuracy_value', 'NONE');
#239 = CARTESIAN_POINT ( 'NONE',  ( 0.3749999999999999445, 2.750000000000000000, 4.592425496802576684E-17 ) ) ;
#240 = ORIENTED_EDGE ( 'NONE', *, *, #289, .T. ) ;
#241 = ORIENTED_EDGE ( 'NONE', *, *, #52, .T. ) ;
#242 = DIMENSIONAL_EXPONENTS ( 1.000000000000000000, 0.000000000000000000, 0.000000000000000000, 0.000000000000000000, 0.000000000000000000, 0.000000000000000000, 0.000000000000000000 ) ;
#243 = AXIS2_PLACEMENT_3D ( 'NONE', #74, #235, #5 ) ;
#244 = EDGE_LOOP ( 'NONE', ( #100, #220, #11, #264 ) ) ;
#245 = ORIENTED_EDGE ( 'NONE', *, *, #120, .T. ) ;
#246 = PRESENTATION_STYLE_ASSIGNMENT (( #227 ) ) ;
#247 = ORIENTED_EDGE ( 'NONE', *, *, #307, .T. ) ;
#248 = AXIS2_PLACEMENT_3D ( 'NONE', #229, #44, #252 ) ;
#249 = PLANE ( 'NONE',  #230 ) ;
#250 = PRESENTATION_STYLE_ASSIGNMENT (( #155 ) ) ;
#251 = PLANE ( 'NONE',  #278 ) ;
#252 = DIRECTION ( 'NONE',  ( -1.000000000000000000, 0.000000000000000000, 0.000000000000000000 ) ) ;
#253 = ADVANCED_FACE ( 'NONE', ( #175 ), #249, .F. ) ;
#254 = CIRCLE ( 'NONE', #267, 0.3749999999999999445 ) ;
#255 = CARTESIAN_POINT ( 'NONE',  ( 0.000000000000000000, 0.000000000000000000, 0.000000000000000000 ) ) ;
#256 = DIRECTION ( 'NONE',  ( -0.000000000000000000, -1.000000000000000000, -0.000000000000000000 ) ) ;
#257 = FACE_OUTER_BOUND ( 'NONE', #270, .T. ) ;
#258 = PRESENTATION_LAYER_ASSIGNMENT (  '', '', ( #142 ) ) ;
#259 = PRODUCT_CONTEXT ( 'NONE', #14, 'mechanical' ) ;
#260 = CARTESIAN_POINT ( 'NONE',  ( -3.061616997868383141E-16, 5.000000000000000000, 0.000000000000000000 ) ) ;
#261 = CARTESIAN_POINT ( 'NONE',  ( 0.3749999999999998335, 5.000000000000000000, 4.592425496802576068E-17 ) ) ;
#262 = EDGE_CURVE ( 'NONE', #56, #78, #254, .T. ) ;
#263 = COLOUR_RGB ( '',0.7921568627450980005, 0.8196078431372548767, 0.9333333333333333481 ) ;
#264 = ORIENTED_EDGE ( 'NONE', *, *, #186, .F. ) ;
#265 = FILL_AREA_STYLE_COLOUR ( '', #293 ) ;
#266 = AXIS2_PLACEMENT_3D ( 'NONE', #231, #305, #276 ) ;
#267 = AXIS2_PLACEMENT_3D ( 'NONE', #109, #297, #111 ) ;
#268 = SURFACE_SIDE_STYLE ('',( #99 ) ) ;
#269 = EDGE_LOOP ( 'NONE', ( #33, #241 ) ) ;
#270 = EDGE_LOOP ( 'NONE', ( #240, #80, #223, #291 ) ) ;
#271 = CARTESIAN_POINT ( 'NONE',  ( 4.592425496802573602E-17, 0.000000000000000000, 0.3749999999999999445 ) ) ;
#272 = MECHANICAL_DESIGN_GEOMETRIC_PRESENTATION_REPRESENTATION (  '', ( #201 ), #174 ) ;
#273 = CYLINDRICAL_SURFACE ( 'NONE', #146, 0.3749999999999999445 ) ;
#274 = DIRECTION ( 'NONE',  ( -1.360718665719281396E-16, 1.000000000000000000, -0.000000000000000000 ) ) ;
#275 = EDGE_CURVE ( 'NONE', #195, #103, #102, .T. ) ;
#276 = DIRECTION ( 'NONE',  ( 1.000000000000000000, 1.360718665719281396E-16, 0.000000000000000000 ) ) ;
#277 = SURFACE_SIDE_STYLE ('',( #154 ) ) ;
#278 = AXIS2_PLACEMENT_3D ( 'NONE', #191, #208, #73 ) ;
#279 = CARTESIAN_POINT ( 'NONE',  ( 4.592425496802574219E-17, 0.000000000000000000, 0.3750000000000000555 ) ) ;
#280 = APPLICATION_PROTOCOL_DEFINITION ( 'draft international standard', 'automotive_design', 1998, #21 ) ;
#281 = ADVANCED_FACE ( 'NONE', ( #13 ), #179, .T. ) ;
#282 = DIRECTION ( 'NONE',  ( -1.000000000000000000, 0.000000000000000000, 0.000000000000000000 ) ) ;
#283 = CARTESIAN_POINT ( 'NONE',  ( 0.000000000000000000, 0.000000000000000000, 0.000000000000000000 ) ) ;
#284 = EDGE_CURVE ( 'NONE', #78, #103, #204, .T. ) ;
#285 = CARTESIAN_POINT ( 'NONE',  ( 0.000000000000000000, 2.750000000000000000, 0.000000000000000000 ) ) ;
#286 = DIMENSIONAL_EXPONENTS ( 1.000000000000000000, 0.000000000000000000, 0.000000000000000000, 0.000000000000000000, 0.000000000000000000, 0.000000000000000000, 0.000000000000000000 ) ;
#287 = SURFACE_STYLE_USAGE ( .BOTH. , #123 ) ;
#288 = ORIENTED_EDGE ( 'NONE', *, *, #307, .F. ) ;
#289 = EDGE_CURVE ( 'NONE', #37, #178, #160, .T. ) ;
#290 = FACE_OUTER_BOUND ( 'NONE', #15, .T. ) ;
#291 = ORIENTED_EDGE ( 'NONE', *, *, #120, .F. ) ;
#292 = ORIENTED_EDGE ( 'NONE', *, *, #262, .F. ) ;
#293 = COLOUR_RGB ( '',1.000000000000000000, 0.000000000000000000, 0.000000000000000000 ) ;
#294 = ORIENTED_EDGE ( 'NONE', *, *, #171, .F. ) ;
#295 = FACE_OUTER_BOUND ( 'NONE', #83, .T. ) ;
#296 = CARTESIAN_POINT ( 'NONE',  ( -3.061616997868383141E-16, 5.000000000000000000, 0.000000000000000000 ) ) ;
#297 = DIRECTION ( 'NONE',  ( -0.000000000000000000, -1.000000000000000000, -0.000000000000000000 ) ) ;
#298 = FACE_OUTER_BOUND ( 'NONE', #170, .T. ) ;
#299 = STYLED_ITEM ( 'NONE', ( #43 ), #129 ) ;
#300 =( NAMED_UNIT ( * ) PLANE_ANGLE_UNIT ( ) SI_UNIT ( $, .RADIAN. ) );
#301 = CARTESIAN_POINT ( 'NONE',  ( -3.061616997868383141E-16, 5.000000000000000000, 0.000000000000000000 ) ) ;
#302 = ADVANCED_FACE ( 'NONE', ( #295 ), #251, .T. ) ;
#303 = UNCERTAINTY_MEASURE_WITH_UNIT (LENGTH_MEASURE( 1.000000000000000082E-05 ), #162, 'distance_accuracy_value', 'NONE');
#304 =( CONVERSION_BASED_UNIT ( 'INCH', #47 ) LENGTH_UNIT ( ) NAMED_UNIT ( #55 ) );
#305 = DIRECTION ( 'NONE',  ( 1.360718665719281396E-16, -1.000000000000000000, 0.000000000000000000 ) ) ;
#306 = LINE ( 'NONE', #67, #25 ) ;
#307 = EDGE_CURVE ( 'NONE', #103, #195, #221, .T. ) ;
#308 = COLOUR_RGB ( '',1.000000000000000000, 0.000000000000000000, 0.000000000000000000 ) ;
#309 =( NAMED_UNIT ( * ) SI_UNIT ( $, .STERADIAN. ) SOLID_ANGLE_UNIT ( ) );
ENDSEC;
END-ISO-10303-21;
