ISO-10303-21;
HEADER;
FILE_DESCRIPTION (( 'STEP AP214' ),
    '1' );
FILE_NAME ('Micro_BMS-031-2.STEP',
    '2021-09-03T15:08:39',
    ( '' ),
    ( '' ),
    'SwSTEP 2.0',
    'SolidWorks 2020',
    '' );
FILE_SCHEMA (( 'AUTOMOTIVE_DESIGN' ));
ENDSEC;

DATA;
#1 = ORIENTED_EDGE ( 'NONE', *, *, #104, .T. ) ;
#2 = VECTOR ( 'NONE', #76, 39.37007874015747433 ) ;
#3 = CARTESIAN_POINT ( 'NONE',  ( 1.896304336139719623E-18, 0.0000000000000000000, 0.01548450000000000000 ) ) ;
#4 = EDGE_CURVE ( 'NONE', #228, #72, #108, .T. ) ;
#5 = ADVANCED_FACE ( 'NONE', ( #279 ), #259, .T. ) ;
#6 = ORIENTED_EDGE ( 'NONE', *, *, #58, .F. ) ;
#7 = DIRECTION ( 'NONE',  ( -1.000000000000000000, 0.0000000000000000000, 0.0000000000000000000 ) ) ;
#8 = COLOUR_RGB ( '',0.7921568627450980005, 0.8196078431372548767, 0.9333333333333333481 ) ;
#9 = DIRECTION ( 'NONE',  ( 0.0000000000000000000, -1.000000000000000000, 0.0000000000000000000 ) ) ;
#10 = DIRECTION ( 'NONE',  ( 0.7071067811865456854, 8.659560562354911904E-17, -0.7071067811865493491 ) ) ;
#11 = CARTESIAN_POINT ( 'NONE',  ( 0.0000000000000000000, 0.0000000000000000000, 1.485000000000000764 ) ) ;
#12 = CIRCLE ( 'NONE', #301, 0.04750000000000064587 ) ;
#13 = DIRECTION ( 'NONE',  ( -1.000000000000000000, 0.0000000000000000000, 1.224646799147353454E-16 ) ) ;
#14 = FACE_OUTER_BOUND ( 'NONE', #198, .T. ) ;
#15 = LINE ( 'NONE', #189, #23 ) ;
#16 = LENGTH_MEASURE_WITH_UNIT ( LENGTH_MEASURE( 0.02539999999999999897 ), #92 );
#17 = AXIS2_PLACEMENT_3D ( 'NONE', #207, #103, #310 ) ;
#18 = STYLED_ITEM ( 'NONE', ( #54 ), #209 ) ;
#19 = EDGE_LOOP ( 'NONE', ( #149, #119 ) ) ;
#20 = ORIENTED_EDGE ( 'NONE', *, *, #255, .T. ) ;
#21 =( CONVERSION_BASED_UNIT ( 'INCH', #271 ) LENGTH_UNIT ( ) NAMED_UNIT ( #175 ) );
#22 = ORIENTED_EDGE ( 'NONE', *, *, #306, .F. ) ;
#23 = VECTOR ( 'NONE', #160, 39.37007874015748143 ) ;
#24 = ORIENTED_EDGE ( 'NONE', *, *, #46, .T. ) ;
#25 = EDGE_LOOP ( 'NONE', ( #179, #150, #183, #176 ) ) ;
#26 = CARTESIAN_POINT ( 'NONE',  ( 0.0000000000000000000, 0.0000000000000000000, 1.500000000000000222 ) ) ;
#27 = CIRCLE ( 'NONE', #281, 0.06250000000000000000 ) ;
#28 = DIRECTION ( 'NONE',  ( -0.0000000000000000000, -0.0000000000000000000, -1.000000000000000000 ) ) ;
#29 = DIRECTION ( 'NONE',  ( 0.0000000000000000000, 0.0000000000000000000, 1.000000000000000000 ) ) ;
#30 = DIRECTION ( 'NONE',  ( 1.000000000000000000, 0.0000000000000000000, 0.0000000000000000000 ) ) ;
#31 = EDGE_LOOP ( 'NONE', ( #224, #325, #173, #197 ) ) ;
#32 = ORIENTED_EDGE ( 'NONE', *, *, #120, .T. ) ;
#33 = CYLINDRICAL_SURFACE ( 'NONE', #69, 0.01548450000000000173 ) ;
#34 = CYLINDRICAL_SURFACE ( 'NONE', #291, 0.01548450000000000173 ) ;
#35 = ADVANCED_FACE ( 'NONE', ( #234 ), #51, .T. ) ;
#36 = AXIS2_PLACEMENT_3D ( 'NONE', #79, #55, #153 ) ;
#37 = PRODUCT ( 'Micro_BMS-031-2', 'Micro_BMS-031-2', '', ( #133 ) ) ;
#38 = CARTESIAN_POINT ( 'NONE',  ( -0.01548449999999999480, 4.775173415405338006E-18, 0.04700000000000000705 ) ) ;
#39 = LINE ( 'NONE', #144, #52 ) ;
#40 = CARTESIAN_POINT ( 'NONE',  ( 0.0000000000000000000, 0.0000000000000000000, 1.500000000000000222 ) ) ;
#41 = CONICAL_SURFACE ( 'NONE', #205, 0.01548450000000000000, 0.1745329251994338637 ) ;
#42 = ORIENTED_EDGE ( 'NONE', *, *, #161, .F. ) ;
#43 = SURFACE_STYLE_FILL_AREA ( #319 ) ;
#44 = EDGE_LOOP ( 'NONE', ( #66, #75, #275, #323 ) ) ;
#45 = PRESENTATION_LAYER_ASSIGNMENT (  '', '', ( #95 ) ) ;
#46 = EDGE_CURVE ( 'NONE', #274, #178, #206, .T. ) ;
#47 = ORIENTED_EDGE ( 'NONE', *, *, #130, .T. ) ;
#48 = CARTESIAN_POINT ( 'NONE',  ( 0.01548450000000000173, 1.896304336139719238E-18, -1.896304336139719623E-18 ) ) ;
#49 = DIRECTION ( 'NONE',  ( 0.1736481776669313581, 0.0000000000000000000, 0.9848077530122077983 ) ) ;
#50 = CARTESIAN_POINT ( 'NONE',  ( 0.0000000000000000000, 0.0000000000000000000, 0.0000000000000000000 ) ) ;
#51 = SPHERICAL_SURFACE ( 'NONE', #36, 0.01548450000000000000 ) ;
#52 = VECTOR ( 'NONE', #68, 39.37007874015748143 ) ;
#53 =( GEOMETRIC_REPRESENTATION_CONTEXT ( 3 ) GLOBAL_UNCERTAINTY_ASSIGNED_CONTEXT ( ( #121 ) ) GLOBAL_UNIT_ASSIGNED_CONTEXT ( ( #98, #94, #303 ) ) REPRESENTATION_CONTEXT ( 'NONE', 'WORKASPACE' ) );
#54 = PRESENTATION_STYLE_ASSIGNMENT (( #266 ) ) ;
#55 = DIRECTION ( 'NONE',  ( 0.0000000000000000000, 1.000000000000000000, 0.0000000000000000000 ) ) ;
#56 = DIRECTION ( 'NONE',  ( -1.000000000000000000, 0.0000000000000000000, 0.0000000000000000000 ) ) ;
#57 = LINE ( 'NONE', #158, #2 ) ;
#58 = EDGE_CURVE ( 'NONE', #245, #274, #12, .T. ) ;
#59 = CARTESIAN_POINT ( 'NONE',  ( 1.896304336139719623E-18, 0.0000000000000000000, 0.01548450000000000000 ) ) ;
#60 = PRODUCT_RELATED_PRODUCT_CATEGORY ( 'part', '', ( #37 ) ) ;
#61 = EDGE_CURVE ( 'NONE', #178, #93, #256, .T. ) ;
#62 = CARTESIAN_POINT ( 'NONE',  ( 1.896304336139719623E-18, 0.0000000000000000000, 0.01548450000000000000 ) ) ;
#63 = CARTESIAN_POINT ( 'NONE',  ( 0.0000000000000000000, 0.0000000000000000000, 1.500000000000000222 ) ) ;
#64 = DIRECTION ( 'NONE',  ( 1.224646799147353454E-16, 0.0000000000000000000, 1.000000000000000000 ) ) ;
#65 = DIRECTION ( 'NONE',  ( 1.224646799147353454E-16, 0.0000000000000000000, 1.000000000000000000 ) ) ;
#66 = ORIENTED_EDGE ( 'NONE', *, *, #61, .F. ) ;
#67 = ADVANCED_FACE ( 'NONE', ( #137 ), #204, .T. ) ;
#68 = DIRECTION ( 'NONE',  ( -0.7071067811865456854, 0.0000000000000000000, -0.7071067811865493491 ) ) ;
#69 = AXIS2_PLACEMENT_3D ( 'NONE', #261, #265, #13 ) ;
#70 = EDGE_LOOP ( 'NONE', ( #225, #6, #222, #42 ) ) ;
#71 = SURFACE_STYLE_FILL_AREA ( #298 ) ;
#72 = VERTEX_POINT ( 'NONE', #131 ) ;
#73 = EDGE_LOOP ( 'NONE', ( #127, #32, #147, #47 ) ) ;
#74 = DIRECTION ( 'NONE',  ( 1.000000000000000000, 0.0000000000000000000, 0.0000000000000000000 ) ) ;
#75 = ORIENTED_EDGE ( 'NONE', *, *, #161, .T. ) ;
#76 = DIRECTION ( 'NONE',  ( -0.1736481776669311639, 2.126576849575783008E-17, 0.9848077530122080203 ) ) ;
#77 = DIRECTION ( 'NONE',  ( 1.000000000000000000, 0.0000000000000000000, 0.0000000000000000000 ) ) ;
#78 = ORIENTED_EDGE ( 'NONE', *, *, #324, .T. ) ;
#79 = CARTESIAN_POINT ( 'NONE',  ( 1.896304336139719623E-18, 0.0000000000000000000, 0.01548450000000000000 ) ) ;
#80 = AXIS2_PLACEMENT_3D ( 'NONE', #26, #28, #56 ) ;
#81 = DIMENSIONAL_EXPONENTS ( 1.000000000000000000, 0.0000000000000000000, 0.0000000000000000000, 0.0000000000000000000, 0.0000000000000000000, 0.0000000000000000000, 0.0000000000000000000 ) ;
#82 = DIRECTION ( 'NONE',  ( 1.000000000000000000, 0.0000000000000000000, 0.0000000000000000000 ) ) ;
#83 = CARTESIAN_POINT ( 'NONE',  ( 5.755839955992561966E-18, 0.0000000000000000000, 0.04700000000000000705 ) ) ;
#84 = DIRECTION ( 'NONE',  ( 1.000000000000000000, 0.0000000000000000000, 0.0000000000000000000 ) ) ;
#85 = AXIS2_PLACEMENT_3D ( 'NONE', #83, #202, #156 ) ;
#86 = CONICAL_SURFACE ( 'NONE', #107, 0.01548450000000000000, 0.1745329251994338637 ) ;
#87 = CARTESIAN_POINT ( 'NONE',  ( -0.04750000000000064587, 0.0000000000000000000, 1.500000000000000222 ) ) ;
#88 = DIRECTION ( 'NONE',  ( -1.000000000000000000, 0.0000000000000000000, 0.0000000000000000000 ) ) ;
#89 = CARTESIAN_POINT ( 'NONE',  ( -0.01548450000000000000, 0.0000000000000000000, 0.01548450000000000173 ) ) ;
#90 = CIRCLE ( 'NONE', #196, 0.06250000000000000000 ) ;
#91 = CARTESIAN_POINT ( 'NONE',  ( 3.840959569658975901E-17, 0.0000000000000000000, 0.3136381503902350154 ) ) ;
#92 =( LENGTH_UNIT ( ) NAMED_UNIT ( * ) SI_UNIT ( $, .METRE. ) );
#93 = VERTEX_POINT ( 'NONE', #232 ) ;
#94 =( NAMED_UNIT ( * ) PLANE_ANGLE_UNIT ( ) SI_UNIT ( $, .RADIAN. ) );
#95 = STYLED_ITEM ( 'NONE', ( #249 ), #315 ) ;
#96 = PRODUCT_DEFINITION_FORMATION_WITH_SPECIFIED_SOURCE ( 'ANY', '', #37, .NOT_KNOWN. ) ;
#97 = EDGE_LOOP ( 'NONE', ( #101, #267, #78, #20 ) ) ;
#98 =( CONVERSION_BASED_UNIT ( 'INCH', #16 ) LENGTH_UNIT ( ) NAMED_UNIT ( #247 ) );
#99 = ORIENTED_EDGE ( 'NONE', *, *, #246, .F. ) ;
#100 = ORIENTED_EDGE ( 'NONE', *, *, #4, .T. ) ;
#101 = ORIENTED_EDGE ( 'NONE', *, *, #152, .F. ) ;
#102 = VECTOR ( 'NONE', #10, 39.37007874015748143 ) ;
#103 = DIRECTION ( 'NONE',  ( -1.224646799147353454E-16, -0.0000000000000000000, -1.000000000000000000 ) ) ;
#104 = EDGE_CURVE ( 'NONE', #273, #72, #177, .T. ) ;
#105 = CARTESIAN_POINT ( 'NONE',  ( 3.840959569658975901E-17, 0.0000000000000000000, 0.3136381503902350154 ) ) ;
#106 = AXIS2_PLACEMENT_3D ( 'NONE', #105, #184, #30 ) ;
#107 = AXIS2_PLACEMENT_3D ( 'NONE', #293, #203, #77 ) ;
#108 = LINE ( 'NONE', #48, #241 ) ;
#109 = DIRECTION ( 'NONE',  ( 1.000000000000000000, 0.0000000000000000000, 0.0000000000000000000 ) ) ;
#110 = FACE_OUTER_BOUND ( 'NONE', #70, .T. ) ;
#111 = EDGE_CURVE ( 'NONE', #180, #139, #276, .T. ) ;
#112 = AXIS2_PLACEMENT_3D ( 'NONE', #59, #113, #114 ) ;
#113 = DIRECTION ( 'NONE',  ( 0.0000000000000000000, 1.000000000000000000, 0.0000000000000000000 ) ) ;
#114 = DIRECTION ( 'NONE',  ( 1.000000000000000000, 0.0000000000000000000, 0.0000000000000000000 ) ) ;
#115 = CARTESIAN_POINT ( 'NONE',  ( 2.844456504209578857E-18, 0.0000000000000000000, 0.0000000000000000000 ) ) ;
#116 = AXIS2_PLACEMENT_3D ( 'NONE', #258, #230, #7 ) ;
#117 = SURFACE_SIDE_STYLE ('',( #71 ) ) ;
#118 = LENGTH_MEASURE_WITH_UNIT ( LENGTH_MEASURE( 0.02539999999999999897 ), #242 );
#119 = ORIENTED_EDGE ( 'NONE', *, *, #295, .T. ) ;
#120 = EDGE_CURVE ( 'NONE', #228, #300, #190, .T. ) ;
#121 = UNCERTAINTY_MEASURE_WITH_UNIT (LENGTH_MEASURE( 1.000000000000000082E-05 ), #98, 'distance_accuracy_value', 'NONE');
#122 = LINE ( 'NONE', #192, #215 ) ;
#123 = EDGE_CURVE ( 'NONE', #300, #228, #146, .T. ) ;
#124 = AXIS2_PLACEMENT_3D ( 'NONE', #214, #143, #88 ) ;
#125 = FACE_OUTER_BOUND ( 'NONE', #97, .T. ) ;
#126 = COLOUR_RGB ( '',0.7921568627450980005, 0.8196078431372548767, 0.9333333333333333481 ) ;
#127 = ORIENTED_EDGE ( 'NONE', *, *, #4, .F. ) ;
#128 = UNCERTAINTY_MEASURE_WITH_UNIT (LENGTH_MEASURE( 1.000000000000000082E-05 ), #272, 'distance_accuracy_value', 'NONE');
#129 = ORIENTED_EDGE ( 'NONE', *, *, #130, .F. ) ;
#130 = EDGE_CURVE ( 'NONE', #219, #72, #132, .T. ) ;
#131 = CARTESIAN_POINT ( 'NONE',  ( 0.01548450000000000520, 1.896304336139719238E-18, 0.01548449999999999827 ) ) ;
#132 = CIRCLE ( 'NONE', #154, 0.01548450000000000173 ) ;
#133 = PRODUCT_CONTEXT ( 'NONE', #244, 'mechanical' ) ;
#134 = CARTESIAN_POINT ( 'NONE',  ( -0.06250000000000000000, 0.0000000000000000000, 1.500000000000000222 ) ) ;
#135 = DIRECTION ( 'NONE',  ( -1.224646799147353454E-16, -0.0000000000000000000, -1.000000000000000000 ) ) ;
#136 = EDGE_CURVE ( 'NONE', #139, #93, #268, .T. ) ;
#137 = FACE_OUTER_BOUND ( 'NONE', #44, .T. ) ;
#138 = AXIS2_PLACEMENT_3D ( 'NONE', #40, #210, #164 ) ;
#139 = VERTEX_POINT ( 'NONE', #285 ) ;
#140 = CARTESIAN_POINT ( 'NONE',  ( 0.0000000000000000000, 0.0000000000000000000, 1.500000000000000222 ) ) ;
#141 = CARTESIAN_POINT ( 'NONE',  ( 0.0000000000000000000, 0.0000000000000000000, 0.0000000000000000000 ) ) ;
#142 = VECTOR ( 'NONE', #182, 39.37007874015748143 ) ;
#143 = DIRECTION ( 'NONE',  ( 0.0000000000000000000, 0.0000000000000000000, -1.000000000000000000 ) ) ;
#144 = CARTESIAN_POINT ( 'NONE',  ( -0.04750000000000064587, 0.0000000000000000000, 1.500000000000000222 ) ) ;
#145 = CARTESIAN_POINT ( 'NONE',  ( 0.04750000000000064587, 6.735557395310482421E-18, 1.500000000000000222 ) ) ;
#146 = CIRCLE ( 'NONE', #85, 0.01548450000000000000 ) ;
#147 = ORIENTED_EDGE ( 'NONE', *, *, #233, .T. ) ;
#148 = CIRCLE ( 'NONE', #138, 0.04750000000000064587 ) ;
#149 = ORIENTED_EDGE ( 'NONE', *, *, #58, .T. ) ;
#150 = ORIENTED_EDGE ( 'NONE', *, *, #61, .T. ) ;
#151 = APPLICATION_PROTOCOL_DEFINITION ( 'draft international standard', 'automotive_design', 1998, #195 ) ;
#152 = EDGE_CURVE ( 'NONE', #300, #139, #57, .T. ) ;
#153 = DIRECTION ( 'NONE',  ( 1.000000000000000000, 0.0000000000000000000, 0.0000000000000000000 ) ) ;
#154 = AXIS2_PLACEMENT_3D ( 'NONE', #3, #305, #257 ) ;
#155 =( NAMED_UNIT ( * ) PLANE_ANGLE_UNIT ( ) SI_UNIT ( $, .RADIAN. ) );
#156 = DIRECTION ( 'NONE',  ( -1.000000000000000000, 0.0000000000000000000, 0.0000000000000000000 ) ) ;
#157 = ORIENTED_EDGE ( 'NONE', *, *, #295, .F. ) ;
#158 = CARTESIAN_POINT ( 'NONE',  ( -0.01548449999999999480, 1.896304336139719238E-18, 0.04700000000000000705 ) ) ;
#159 = VECTOR ( 'NONE', #229, 39.37007874015748143 ) ;
#160 = DIRECTION ( 'NONE',  ( -1.224646799147353454E-16, -0.0000000000000000000, -1.000000000000000000 ) ) ;
#161 = EDGE_CURVE ( 'NONE', #178, #180, #237, .T. ) ;
#162 = PRODUCT_DEFINITION_SHAPE ( 'NONE', 'NONE',  #316 ) ;
#163 = DIRECTION ( 'NONE',  ( 1.224646799147353207E-16, 1.000000000000000000, -0.0000000000000000000 ) ) ;
#164 = DIRECTION ( 'NONE',  ( 1.000000000000000000, 0.0000000000000000000, 0.0000000000000000000 ) ) ;
#165 = AXIS2_PLACEMENT_3D ( 'NONE', #11, #317, #84 ) ;
#166 = DIRECTION ( 'NONE',  ( -1.224646799147353454E-16, -0.0000000000000000000, -1.000000000000000000 ) ) ;
#167 = CARTESIAN_POINT ( 'NONE',  ( 5.755839955992561966E-18, 0.0000000000000000000, 0.04700000000000000705 ) ) ;
#168 = ADVANCED_FACE ( 'NONE', ( #187 ), #263, .T. ) ;
#169 = EDGE_LOOP ( 'NONE', ( #307, #1, #129 ) ) ;
#170 = AXIS2_PLACEMENT_3D ( 'NONE', #290, #65, #236 ) ;
#171 = PRESENTATION_LAYER_ASSIGNMENT (  '', '', ( #18 ) ) ;
#172 = FILL_AREA_STYLE_COLOUR ( '', #8 ) ;
#173 = ORIENTED_EDGE ( 'NONE', *, *, #136, .T. ) ;
#174 = ORIENTED_EDGE ( 'NONE', *, *, #104, .F. ) ;
#175 = DIMENSIONAL_EXPONENTS ( 1.000000000000000000, 0.0000000000000000000, 0.0000000000000000000, 0.0000000000000000000, 0.0000000000000000000, 0.0000000000000000000, 0.0000000000000000000 ) ;
#176 = ORIENTED_EDGE ( 'NONE', *, *, #111, .F. ) ;
#177 = CIRCLE ( 'NONE', #220, 0.01548450000000000000 ) ;
#178 = VERTEX_POINT ( 'NONE', #240 ) ;
#179 = ORIENTED_EDGE ( 'NONE', *, *, #270, .T. ) ;
#180 = VERTEX_POINT ( 'NONE', #185 ) ;
#181 = CLOSED_SHELL ( 'NONE', ( #188, #211, #200, #168, #5, #67, #289, #287, #320, #282, #35 ) ) ;
#182 = DIRECTION ( 'NONE',  ( -0.0000000000000000000, -0.0000000000000000000, -1.000000000000000000 ) ) ;
#183 = ORIENTED_EDGE ( 'NONE', *, *, #136, .F. ) ;
#184 = DIRECTION ( 'NONE',  ( -1.224646799147353454E-16, -0.0000000000000000000, -1.000000000000000000 ) ) ;
#185 = CARTESIAN_POINT ( 'NONE',  ( -0.06250000000000000000, 0.0000000000000000000, 1.485000000000000764 ) ) ;
#186 = SPHERICAL_SURFACE ( 'NONE', #112, 0.01548450000000000000 ) ;
#187 = FACE_OUTER_BOUND ( 'NONE', #194, .T. ) ;
#188 = ADVANCED_FACE ( 'NONE', ( #14 ), #186, .T. ) ;
#189 = CARTESIAN_POINT ( 'NONE',  ( -0.01548450000000000173, 0.0000000000000000000, 1.896304336139719623E-18 ) ) ;
#190 = CIRCLE ( 'NONE', #17, 0.01548450000000000000 ) ;
#191 = DIRECTION ( 'NONE',  ( -1.000000000000000000, 0.0000000000000000000, 0.0000000000000000000 ) ) ;
#192 = CARTESIAN_POINT ( 'NONE',  ( 0.01548450000000000694, 0.0000000000000000000, 0.04700000000000000705 ) ) ;
#193 =( LENGTH_UNIT ( ) NAMED_UNIT ( * ) SI_UNIT ( $, .METRE. ) );
#194 = EDGE_LOOP ( 'NONE', ( #157, #24, #217, #22 ) ) ;
#195 = APPLICATION_CONTEXT ( 'automotive_design' ) ;
#196 = AXIS2_PLACEMENT_3D ( 'NONE', #91, #166, #109 ) ;
#197 = ORIENTED_EDGE ( 'NONE', *, *, #324, .F. ) ;
#198 = EDGE_LOOP ( 'NONE', ( #174, #294, #99 ) ) ;
#199 = PRODUCT_DEFINITION_CONTEXT ( 'detailed design', #195, 'design' ) ;
#200 = ADVANCED_FACE ( 'NONE', ( #292 ), #41, .T. ) ;
#201 = DIRECTION ( 'NONE',  ( 0.0000000000000000000, 0.0000000000000000000, 1.000000000000000000 ) ) ;
#202 = DIRECTION ( 'NONE',  ( -1.224646799147353454E-16, -0.0000000000000000000, -1.000000000000000000 ) ) ;
#203 = DIRECTION ( 'NONE',  ( 1.224646799147353454E-16, 0.0000000000000000000, 1.000000000000000000 ) ) ;
#204 = CYLINDRICAL_SURFACE ( 'NONE', #80, 0.06250000000000000000 ) ;
#205 = AXIS2_PLACEMENT_3D ( 'NONE', #167, #64, #238 ) ;
#206 = LINE ( 'NONE', #253, #102 ) ;
#207 = CARTESIAN_POINT ( 'NONE',  ( 5.755839955992561966E-18, 0.0000000000000000000, 0.04700000000000000705 ) ) ;
#208 = CARTESIAN_POINT ( 'NONE',  ( 0.0000000000000000000, 0.0000000000000000000, 1.485000000000000764 ) ) ;
#209 = ADVANCED_BREP_SHAPE_REPRESENTATION ( 'Micro_BMS-031-2', ( #315, #269 ), #53 ) ;
#210 = DIRECTION ( 'NONE',  ( 0.0000000000000000000, 0.0000000000000000000, 1.000000000000000000 ) ) ;
#211 = ADVANCED_FACE ( 'NONE', ( #212 ), #34, .T. ) ;
#212 = FACE_OUTER_BOUND ( 'NONE', #252, .T. ) ;
#213 = DIRECTION ( 'NONE',  ( -1.000000000000000000, 0.0000000000000000000, 1.224646799147353454E-16 ) ) ;
#214 = CARTESIAN_POINT ( 'NONE',  ( 0.0000000000000000000, 0.0000000000000000000, 1.500000000000000222 ) ) ;
#215 = VECTOR ( 'NONE', #49, 39.37007874015748143 ) ;
#216 = SURFACE_SIDE_STYLE ('',( #43 ) ) ;
#217 = ORIENTED_EDGE ( 'NONE', *, *, #270, .F. ) ;
#218 =( NAMED_UNIT ( * ) SI_UNIT ( $, .STERADIAN. ) SOLID_ANGLE_UNIT ( ) );
#219 = VERTEX_POINT ( 'NONE', #89 ) ;
#220 = AXIS2_PLACEMENT_3D ( 'NONE', #302, #9, #283 ) ;
#221 = MECHANICAL_DESIGN_GEOMETRIC_PRESENTATION_REPRESENTATION (  '', ( #18 ), #227 ) ;
#222 = ORIENTED_EDGE ( 'NONE', *, *, #306, .T. ) ;
#223 = EDGE_CURVE ( 'NONE', #273, #219, #226, .T. ) ;
#224 = ORIENTED_EDGE ( 'NONE', *, *, #123, .F. ) ;
#225 = ORIENTED_EDGE ( 'NONE', *, *, #46, .F. ) ;
#226 = CIRCLE ( 'NONE', #308, 0.01548450000000000000 ) ;
#227 =( GEOMETRIC_REPRESENTATION_CONTEXT ( 3 ) GLOBAL_UNCERTAINTY_ASSIGNED_CONTEXT ( ( #128 ) ) GLOBAL_UNIT_ASSIGNED_CONTEXT ( ( #272, #248, #304 ) ) REPRESENTATION_CONTEXT ( 'NONE', 'WORKASPACE' ) );
#228 = VERTEX_POINT ( 'NONE', #239 ) ;
#229 = DIRECTION ( 'NONE',  ( -0.0000000000000000000, -0.0000000000000000000, -1.000000000000000000 ) ) ;
#230 = DIRECTION ( 'NONE',  ( -0.0000000000000000000, -0.0000000000000000000, -1.000000000000000000 ) ) ;
#231 = MECHANICAL_DESIGN_GEOMETRIC_PRESENTATION_REPRESENTATION (  '', ( #95 ), #322 ) ;
#232 = CARTESIAN_POINT ( 'NONE',  ( 0.06250000000000002776, 7.654042494670959086E-18, 0.3136381503902350154 ) ) ;
#233 = EDGE_CURVE ( 'NONE', #300, #219, #15, .T. ) ;
#234 = FACE_OUTER_BOUND ( 'NONE', #169, .T. ) ;
#235 = DIRECTION ( 'NONE',  ( 0.0000000000000000000, 0.0000000000000000000, 1.000000000000000000 ) ) ;
#236 = DIRECTION ( 'NONE',  ( -1.000000000000000000, 0.0000000000000000000, 1.378317830766382784E-16 ) ) ;
#237 = CIRCLE ( 'NONE', #165, 0.06250000000000000000 ) ;
#238 = DIRECTION ( 'NONE',  ( 1.000000000000000000, 0.0000000000000000000, 0.0000000000000000000 ) ) ;
#239 = CARTESIAN_POINT ( 'NONE',  ( 0.01548450000000000694, 0.0000000000000000000, 0.04700000000000000705 ) ) ;
#240 = CARTESIAN_POINT ( 'NONE',  ( 0.06250000000000000000, 7.654042494670956004E-18, 1.485000000000000764 ) ) ;
#241 = VECTOR ( 'NONE', #135, 39.37007874015748143 ) ;
#242 =( LENGTH_UNIT ( ) NAMED_UNIT ( * ) SI_UNIT ( $, .METRE. ) );
#243 = UNCERTAINTY_MEASURE_WITH_UNIT (LENGTH_MEASURE( 1.000000000000000082E-05 ), #21, 'distance_accuracy_value', 'NONE');
#244 = APPLICATION_CONTEXT ( 'automotive_design' ) ;
#245 = VERTEX_POINT ( 'NONE', #87 ) ;
#246 = EDGE_CURVE ( 'NONE', #72, #219, #312, .T. ) ;
#247 = DIMENSIONAL_EXPONENTS ( 1.000000000000000000, 0.0000000000000000000, 0.0000000000000000000, 0.0000000000000000000, 0.0000000000000000000, 0.0000000000000000000, 0.0000000000000000000 ) ;
#248 =( NAMED_UNIT ( * ) PLANE_ANGLE_UNIT ( ) SI_UNIT ( $, .RADIAN. ) );
#249 = PRESENTATION_STYLE_ASSIGNMENT (( #280 ) ) ;
#250 = CONICAL_SURFACE ( 'NONE', #297, 0.04750000000000064587, 0.7853981633974457255 ) ;
#251 = SHAPE_DEFINITION_REPRESENTATION ( #162, #209 ) ;
#252 = EDGE_LOOP ( 'NONE', ( #321, #100, #299, #296 ) ) ;
#253 = CARTESIAN_POINT ( 'NONE',  ( 0.04750000000000064587, 5.817072295950006528E-18, 1.500000000000000222 ) ) ;
#254 = AXIS2_PLACEMENT_3D ( 'NONE', #63, #235, #264 ) ;
#255 = EDGE_CURVE ( 'NONE', #93, #139, #90, .T. ) ;
#256 = LINE ( 'NONE', #284, #142 ) ;
#257 = DIRECTION ( 'NONE',  ( -1.000000000000000000, 0.0000000000000000000, 1.378317830766382784E-16 ) ) ;
#258 = CARTESIAN_POINT ( 'NONE',  ( 0.0000000000000000000, 0.0000000000000000000, 1.500000000000000222 ) ) ;
#259 = CYLINDRICAL_SURFACE ( 'NONE', #116, 0.06250000000000000000 ) ;
#260 = DIRECTION ( 'NONE',  ( 1.000000000000000000, 0.0000000000000000000, 0.0000000000000000000 ) ) ;
#261 = CARTESIAN_POINT ( 'NONE',  ( 0.0000000000000000000, 0.0000000000000000000, 0.0000000000000000000 ) ) ;
#262 = DIRECTION ( 'NONE',  ( -1.000000000000000000, 1.224646799147353207E-16, 0.0000000000000000000 ) ) ;
#263 = CONICAL_SURFACE ( 'NONE', #124, 0.04750000000000064587, 0.7853981633974457255 ) ;
#264 = DIRECTION ( 'NONE',  ( 1.000000000000000000, 0.0000000000000000000, -0.0000000000000000000 ) ) ;
#265 = DIRECTION ( 'NONE',  ( -1.224646799147353454E-16, -0.0000000000000000000, -1.000000000000000000 ) ) ;
#266 = SURFACE_STYLE_USAGE ( .BOTH. , #117 ) ;
#267 = ORIENTED_EDGE ( 'NONE', *, *, #120, .F. ) ;
#268 = CIRCLE ( 'NONE', #106, 0.06250000000000000000 ) ;
#269 = AXIS2_PLACEMENT_3D ( 'NONE', #50, #29, #74 ) ;
#270 = EDGE_CURVE ( 'NONE', #180, #178, #27, .T. ) ;
#271 = LENGTH_MEASURE_WITH_UNIT ( LENGTH_MEASURE( 0.02539999999999999897 ), #193 );
#272 =( CONVERSION_BASED_UNIT ( 'INCH', #118 ) LENGTH_UNIT ( ) NAMED_UNIT ( #81 ) );
#273 = VERTEX_POINT ( 'NONE', #115 ) ;
#274 = VERTEX_POINT ( 'NONE', #145 ) ;
#275 = ORIENTED_EDGE ( 'NONE', *, *, #111, .T. ) ;
#276 = LINE ( 'NONE', #134, #159 ) ;
#277 = FILL_AREA_STYLE_COLOUR ( '', #126 ) ;
#278 = APPLICATION_PROTOCOL_DEFINITION ( 'draft international standard', 'automotive_design', 1998, #244 ) ;
#279 = FACE_OUTER_BOUND ( 'NONE', #25, .T. ) ;
#280 = SURFACE_STYLE_USAGE ( .BOTH. , #216 ) ;
#281 = AXIS2_PLACEMENT_3D ( 'NONE', #208, #311, #260 ) ;
#282 = ADVANCED_FACE ( 'NONE', ( #313 ), #33, .T. ) ;
#283 = DIRECTION ( 'NONE',  ( 0.0000000000000000000, 0.0000000000000000000, -1.000000000000000000 ) ) ;
#284 = CARTESIAN_POINT ( 'NONE',  ( 0.06250000000000000000, 7.654042494670956004E-18, 1.500000000000000222 ) ) ;
#285 = CARTESIAN_POINT ( 'NONE',  ( -0.06249999999999996531, 0.0000000000000000000, 0.3136381503902350154 ) ) ;
#286 = FACE_OUTER_BOUND ( 'NONE', #19, .T. ) ;
#287 = ADVANCED_FACE ( 'NONE', ( #110 ), #250, .T. ) ;
#288 = PLANE ( 'NONE',  #254 ) ;
#289 = ADVANCED_FACE ( 'NONE', ( #286 ), #288, .T. ) ;
#290 = CARTESIAN_POINT ( 'NONE',  ( 1.896304336139719623E-18, 0.0000000000000000000, 0.01548450000000000000 ) ) ;
#291 = AXIS2_PLACEMENT_3D ( 'NONE', #141, #318, #213 ) ;
#292 = FACE_OUTER_BOUND ( 'NONE', #31, .T. ) ;
#293 = CARTESIAN_POINT ( 'NONE',  ( 5.755839955992561966E-18, 0.0000000000000000000, 0.04700000000000000705 ) ) ;
#294 = ORIENTED_EDGE ( 'NONE', *, *, #223, .T. ) ;
#295 = EDGE_CURVE ( 'NONE', #274, #245, #148, .T. ) ;
#296 = ORIENTED_EDGE ( 'NONE', *, *, #233, .F. ) ;
#297 = AXIS2_PLACEMENT_3D ( 'NONE', #140, #314, #191 ) ;
#298 = FILL_AREA_STYLE ('',( #277 ) ) ;
#299 = ORIENTED_EDGE ( 'NONE', *, *, #246, .T. ) ;
#300 = VERTEX_POINT ( 'NONE', #38 ) ;
#301 = AXIS2_PLACEMENT_3D ( 'NONE', #309, #201, #82 ) ;
#302 = CARTESIAN_POINT ( 'NONE',  ( 1.896304336139719623E-18, 0.0000000000000000000, 0.01548450000000000000 ) ) ;
#303 =( NAMED_UNIT ( * ) SI_UNIT ( $, .STERADIAN. ) SOLID_ANGLE_UNIT ( ) );
#304 =( NAMED_UNIT ( * ) SI_UNIT ( $, .STERADIAN. ) SOLID_ANGLE_UNIT ( ) );
#305 = DIRECTION ( 'NONE',  ( 1.224646799147353454E-16, 0.0000000000000000000, 1.000000000000000000 ) ) ;
#306 = EDGE_CURVE ( 'NONE', #245, #180, #39, .T. ) ;
#307 = ORIENTED_EDGE ( 'NONE', *, *, #223, .F. ) ;
#308 = AXIS2_PLACEMENT_3D ( 'NONE', #62, #163, #262 ) ;
#309 = CARTESIAN_POINT ( 'NONE',  ( 0.0000000000000000000, 0.0000000000000000000, 1.500000000000000222 ) ) ;
#310 = DIRECTION ( 'NONE',  ( -1.000000000000000000, 0.0000000000000000000, 0.0000000000000000000 ) ) ;
#311 = DIRECTION ( 'NONE',  ( 0.0000000000000000000, 0.0000000000000000000, -1.000000000000000000 ) ) ;
#312 = CIRCLE ( 'NONE', #170, 0.01548450000000000173 ) ;
#313 = FACE_OUTER_BOUND ( 'NONE', #73, .T. ) ;
#314 = DIRECTION ( 'NONE',  ( 0.0000000000000000000, 0.0000000000000000000, -1.000000000000000000 ) ) ;
#315 = MANIFOLD_SOLID_BREP ( 'Fillet1', #181 ) ;
#316 = PRODUCT_DEFINITION ( 'UNKNOWN', '', #96, #199 ) ;
#317 = DIRECTION ( 'NONE',  ( 0.0000000000000000000, 0.0000000000000000000, -1.000000000000000000 ) ) ;
#318 = DIRECTION ( 'NONE',  ( -1.224646799147353454E-16, -0.0000000000000000000, -1.000000000000000000 ) ) ;
#319 = FILL_AREA_STYLE ('',( #172 ) ) ;
#320 = ADVANCED_FACE ( 'NONE', ( #125 ), #86, .T. ) ;
#321 = ORIENTED_EDGE ( 'NONE', *, *, #123, .T. ) ;
#322 =( GEOMETRIC_REPRESENTATION_CONTEXT ( 3 ) GLOBAL_UNCERTAINTY_ASSIGNED_CONTEXT ( ( #243 ) ) GLOBAL_UNIT_ASSIGNED_CONTEXT ( ( #21, #155, #218 ) ) REPRESENTATION_CONTEXT ( 'NONE', 'WORKASPACE' ) );
#323 = ORIENTED_EDGE ( 'NONE', *, *, #255, .F. ) ;
#324 = EDGE_CURVE ( 'NONE', #228, #93, #122, .T. ) ;
#325 = ORIENTED_EDGE ( 'NONE', *, *, #152, .T. ) ;
ENDSEC;
END-ISO-10303-21;
