ISO-10303-21;
HEADER;
FILE_DESCRIPTION (( 'STEP AP214' ),
    '1' );
FILE_NAME ('Micro_RNCM-040-1.STEP',
    '2021-09-03T17:40:05',
    ( '' ),
    ( '' ),
    'SwSTEP 2.0',
    'SolidWorks 2020',
    '' );
FILE_SCHEMA (( 'AUTOMOTIVE_DESIGN' ));
ENDSEC;

DATA;
#1 = MANIFOLD_SOLID_BREP ( 'Cut-Revolve1', #62 ) ;
#2 = FACE_OUTER_BOUND ( 'NONE', #30, .T. ) ;
#3 = LINE ( 'NONE', #42, #74 ) ;
#4 = VECTOR ( 'NONE', #43, 39.37007874015748143 ) ;
#5 = DIRECTION ( 'NONE',  ( -0.0000000000000000000, -0.0000000000000000000, -1.000000000000000000 ) ) ;
#6 = DIRECTION ( 'NONE',  ( -1.000000000000000000, 0.0000000000000000000, 0.0000000000000000000 ) ) ;
#7 = PRODUCT_DEFINITION_FORMATION_WITH_SPECIFIED_SOURCE ( 'ANY', '', #142, .NOT_KNOWN. ) ;
#8 = ADVANCED_FACE ( 'NONE', ( #228 ), #216, .T. ) ;
#9 = ORIENTED_EDGE ( 'NONE', *, *, #90, .F. ) ;
#10 = AXIS2_PLACEMENT_3D ( 'NONE', #12, #158, #209 ) ;
#11 =( CONVERSION_BASED_UNIT ( 'INCH', #48 ) LENGTH_UNIT ( ) NAMED_UNIT ( #26 ) );
#12 = CARTESIAN_POINT ( 'NONE',  ( 0.0000000000000000000, 0.0000000000000000000, 0.0000000000000000000 ) ) ;
#13 = VERTEX_POINT ( 'NONE', #226 ) ;
#14 =( NAMED_UNIT ( * ) PLANE_ANGLE_UNIT ( ) SI_UNIT ( $, .RADIAN. ) );
#15 = CARTESIAN_POINT ( 'NONE',  ( 0.0000000000000000000, 0.0000000000000000000, 1.953504000000000129 ) ) ;
#16 = PRESENTATION_STYLE_ASSIGNMENT (( #36 ) ) ;
#17 = DIRECTION ( 'NONE',  ( 1.000000000000000000, 0.0000000000000000000, -0.0000000000000000000 ) ) ;
#18 = AXIS2_PLACEMENT_3D ( 'NONE', #118, #52, #57 ) ;
#19 = DIRECTION ( 'NONE',  ( -0.7071067811865487940, 8.659560562354948882E-17, 0.7071067811865462405 ) ) ;
#20 = CARTESIAN_POINT ( 'NONE',  ( 0.0000000000000000000, 0.0000000000000000000, 1.968503999999999809 ) ) ;
#21 = EDGE_CURVE ( 'NONE', #13, #120, #182, .T. ) ;
#22 = CARTESIAN_POINT ( 'NONE',  ( 0.0000000000000000000, 0.0000000000000000000, 0.0000000000000000000 ) ) ;
#23 =( GEOMETRIC_REPRESENTATION_CONTEXT ( 3 ) GLOBAL_UNCERTAINTY_ASSIGNED_CONTEXT ( ( #230 ) ) GLOBAL_UNIT_ASSIGNED_CONTEXT ( ( #141, #14, #33 ) ) REPRESENTATION_CONTEXT ( 'NONE', 'WORKASPACE' ) );
#24 = DIRECTION ( 'NONE',  ( 1.000000000000000000, 0.0000000000000000000, 0.0000000000000000000 ) ) ;
#25 = DIRECTION ( 'NONE',  ( -1.000000000000000000, 0.0000000000000000000, 0.0000000000000000000 ) ) ;
#26 = DIMENSIONAL_EXPONENTS ( 1.000000000000000000, 0.0000000000000000000, 0.0000000000000000000, 0.0000000000000000000, 0.0000000000000000000, 0.0000000000000000000, 0.0000000000000000000 ) ;
#27 = ORIENTED_EDGE ( 'NONE', *, *, #135, .F. ) ;
#28 = COLOUR_RGB ( '',0.7921568627450980005, 0.8196078431372548767, 0.9333333333333333481 ) ;
#29 = AXIS2_PLACEMENT_3D ( 'NONE', #196, #80, #25 ) ;
#30 = EDGE_LOOP ( 'NONE', ( #139, #67, #164, #225 ) ) ;
#31 = APPLICATION_CONTEXT ( 'automotive_design' ) ;
#32 = ORIENTED_EDGE ( 'NONE', *, *, #217, .T. ) ;
#33 =( NAMED_UNIT ( * ) SI_UNIT ( $, .STERADIAN. ) SOLID_ANGLE_UNIT ( ) );
#34 = CIRCLE ( 'NONE', #47, 0.06374000000000018540 ) ;
#35 = DIRECTION ( 'NONE',  ( 0.0000000000000000000, 0.0000000000000000000, -1.000000000000000000 ) ) ;
#36 = SURFACE_STYLE_USAGE ( .BOTH. , #137 ) ;
#37 = EDGE_LOOP ( 'NONE', ( #169, #171 ) ) ;
#38 = EDGE_CURVE ( 'NONE', #133, #239, #249, .T. ) ;
#39 = ORIENTED_EDGE ( 'NONE', *, *, #174, .T. ) ;
#40 = CARTESIAN_POINT ( 'NONE',  ( 0.06374000000000018540, 7.805898697765251255E-18, 1.968503999999999809 ) ) ;
#41 =( NAMED_UNIT ( * ) PLANE_ANGLE_UNIT ( ) SI_UNIT ( $, .RADIAN. ) );
#42 = CARTESIAN_POINT ( 'NONE',  ( 0.07874000000000000443, 9.642868896486258509E-18, 1.968503999999999809 ) ) ;
#43 = DIRECTION ( 'NONE',  ( 0.7071067811865487940, 0.0000000000000000000, 0.7071067811865462405 ) ) ;
#44 = DIRECTION ( 'NONE',  ( 0.0000000000000000000, 0.0000000000000000000, -1.000000000000000000 ) ) ;
#45 = ORIENTED_EDGE ( 'NONE', *, *, #99, .T. ) ;
#46 =( NAMED_UNIT ( * ) PLANE_ANGLE_UNIT ( ) SI_UNIT ( $, .RADIAN. ) );
#47 = AXIS2_PLACEMENT_3D ( 'NONE', #86, #161, #200 ) ;
#48 = LENGTH_MEASURE_WITH_UNIT ( LENGTH_MEASURE( 0.02539999999999999897 ), #186 );
#49 = VERTEX_POINT ( 'NONE', #155 ) ;
#50 = ADVANCED_FACE ( 'NONE', ( #153 ), #227, .T. ) ;
#51 = SURFACE_SIDE_STYLE ('',( #223 ) ) ;
#52 = DIRECTION ( 'NONE',  ( 0.0000000000000000000, 0.0000000000000000000, 1.000000000000000000 ) ) ;
#53 = CONICAL_SURFACE ( 'NONE', #191, 0.06374000000000018540, 0.7853981633974522758 ) ;
#54 = DIRECTION ( 'NONE',  ( -0.7071067811865502373, 0.0000000000000000000, -0.7071067811865446862 ) ) ;
#55 = ORIENTED_EDGE ( 'NONE', *, *, #64, .F. ) ;
#56 = PRODUCT_DEFINITION_SHAPE ( 'NONE', 'NONE',  #236 ) ;
#57 = DIRECTION ( 'NONE',  ( 1.000000000000000000, 0.0000000000000000000, 0.0000000000000000000 ) ) ;
#58 = CIRCLE ( 'NONE', #237, 0.003936999999999995191 ) ;
#59 = DIRECTION ( 'NONE',  ( 1.000000000000000000, 0.0000000000000000000, 0.0000000000000000000 ) ) ;
#60 = STYLED_ITEM ( 'NONE', ( #16 ), #1 ) ;
#61 = CARTESIAN_POINT ( 'NONE',  ( 0.0000000000000000000, 0.0000000000000000000, 1.953504000000000129 ) ) ;
#62 = CLOSED_SHELL ( 'NONE', ( #50, #168, #101, #197, #170, #76, #8, #81 ) ) ;
#63 = CARTESIAN_POINT ( 'NONE',  ( 0.0000000000000000000, 0.0000000000000000000, 1.968503999999999809 ) ) ;
#64 = EDGE_CURVE ( 'NONE', #13, #239, #248, .T. ) ;
#65 = CARTESIAN_POINT ( 'NONE',  ( -0.07874000000000000443, 0.0000000000000000000, 1.953504000000000129 ) ) ;
#66 = FACE_OUTER_BOUND ( 'NONE', #37, .T. ) ;
#67 = ORIENTED_EDGE ( 'NONE', *, *, #115, .T. ) ;
#68 = DIRECTION ( 'NONE',  ( -1.000000000000000000, 0.0000000000000000000, 0.0000000000000000000 ) ) ;
#69 = FILL_AREA_STYLE ('',( #203 ) ) ;
#70 = APPLICATION_CONTEXT ( 'automotive_design' ) ;
#71 = AXIS2_PLACEMENT_3D ( 'NONE', #179, #195, #145 ) ;
#72 = DIRECTION ( 'NONE',  ( 0.0000000000000000000, 0.0000000000000000000, -1.000000000000000000 ) ) ;
#73 =( LENGTH_UNIT ( ) NAMED_UNIT ( * ) SI_UNIT ( $, .METRE. ) );
#74 = VECTOR ( 'NONE', #5, 39.37007874015748143 ) ;
#75 = FILL_AREA_STYLE ('',( #173 ) ) ;
#76 = ADVANCED_FACE ( 'NONE', ( #95 ), #159, .T. ) ;
#77 = DIRECTION ( 'NONE',  ( -1.000000000000000000, 0.0000000000000000000, 0.0000000000000000000 ) ) ;
#78 = EDGE_CURVE ( 'NONE', #208, #218, #92, .T. ) ;
#79 = UNCERTAINTY_MEASURE_WITH_UNIT (LENGTH_MEASURE( 1.000000000000000082E-05 ), #11, 'distance_accuracy_value', 'NONE');
#80 = DIRECTION ( 'NONE',  ( -0.0000000000000000000, -0.0000000000000000000, -1.000000000000000000 ) ) ;
#81 = ADVANCED_FACE ( 'NONE', ( #157 ), #229, .F. ) ;
#82 = CARTESIAN_POINT ( 'NONE',  ( 0.07874000000000000443, 9.642868896486258509E-18, 1.953504000000000129 ) ) ;
#83 = CIRCLE ( 'NONE', #136, 0.07874000000000000443 ) ;
#84 = DIMENSIONAL_EXPONENTS ( 1.000000000000000000, 0.0000000000000000000, 0.0000000000000000000, 0.0000000000000000000, 0.0000000000000000000, 0.0000000000000000000, 0.0000000000000000000 ) ;
#85 = CARTESIAN_POINT ( 'NONE',  ( -0.003936999999999995191, 4.821434448243123477E-19, 0.0000000000000000000 ) ) ;
#86 = CARTESIAN_POINT ( 'NONE',  ( 0.0000000000000000000, 0.0000000000000000000, 1.968503999999999809 ) ) ;
#87 = PLANE ( 'NONE',  #140 ) ;
#88 =( GEOMETRIC_REPRESENTATION_CONTEXT ( 3 ) GLOBAL_UNCERTAINTY_ASSIGNED_CONTEXT ( ( #243 ) ) GLOBAL_UNIT_ASSIGNED_CONTEXT ( ( #238, #41, #152 ) ) REPRESENTATION_CONTEXT ( 'NONE', 'WORKASPACE' ) );
#89 = EDGE_LOOP ( 'NONE', ( #175, #147, #27, #55 ) ) ;
#90 = EDGE_CURVE ( 'NONE', #120, #133, #212, .T. ) ;
#91 = SHAPE_DEFINITION_REPRESENTATION ( #56, #112 ) ;
#92 = CIRCLE ( 'NONE', #165, 0.07874000000000000443 ) ;
#93 = ORIENTED_EDGE ( 'NONE', *, *, #125, .T. ) ;
#94 = DIRECTION ( 'NONE',  ( 1.000000000000000000, 0.0000000000000000000, 0.0000000000000000000 ) ) ;
#95 = FACE_OUTER_BOUND ( 'NONE', #123, .T. ) ;
#96 = PRODUCT_DEFINITION_CONTEXT ( 'detailed design', #31, 'design' ) ;
#97 = EDGE_LOOP ( 'NONE', ( #172, #204, #45, #202 ) ) ;
#98 = CARTESIAN_POINT ( 'NONE',  ( -0.06374000000000018540, 0.0000000000000000000, 1.968503999999999809 ) ) ;
#99 = EDGE_CURVE ( 'NONE', #239, #218, #205, .T. ) ;
#100 = CARTESIAN_POINT ( 'NONE',  ( 0.0000000000000000000, 0.0000000000000000000, 0.07480299999999973082 ) ) ;
#101 = ADVANCED_FACE ( 'NONE', ( #2 ), #181, .T. ) ;
#102 = DIRECTION ( 'NONE',  ( 0.0000000000000000000, 0.0000000000000000000, 1.000000000000000000 ) ) ;
#103 = AXIS2_PLACEMENT_3D ( 'NONE', #244, #150, #94 ) ;
#104 = CARTESIAN_POINT ( 'NONE',  ( 0.06374000000000018540, 8.724383797125754882E-18, 1.968503999999999809 ) ) ;
#105 = CARTESIAN_POINT ( 'NONE',  ( 0.07874000000000000443, 9.642868896486258509E-18, 0.07480299999999973082 ) ) ;
#106 = EDGE_CURVE ( 'NONE', #49, #218, #166, .T. ) ;
#107 = DIRECTION ( 'NONE',  ( -0.0000000000000000000, -0.0000000000000000000, -1.000000000000000000 ) ) ;
#108 = VECTOR ( 'NONE', #19, 39.37007874015748143 ) ;
#109 = LINE ( 'NONE', #215, #4 ) ;
#110 = ORIENTED_EDGE ( 'NONE', *, *, #106, .F. ) ;
#111 =( LENGTH_UNIT ( ) NAMED_UNIT ( * ) SI_UNIT ( $, .METRE. ) );
#112 = ADVANCED_BREP_SHAPE_REPRESENTATION ( 'Micro_RNCM-040-1', ( #1, #103 ), #88 ) ;
#113 = MECHANICAL_DESIGN_GEOMETRIC_PRESENTATION_REPRESENTATION (  '', ( #199 ), #124 ) ;
#114 = ORIENTED_EDGE ( 'NONE', *, *, #78, .T. ) ;
#115 = EDGE_CURVE ( 'NONE', #133, #208, #3, .T. ) ;
#116 = APPLICATION_PROTOCOL_DEFINITION ( 'draft international standard', 'automotive_design', 1998, #70 ) ;
#117 = ORIENTED_EDGE ( 'NONE', *, *, #241, .F. ) ;
#118 = CARTESIAN_POINT ( 'NONE',  ( 0.0000000000000000000, 0.0000000000000000000, 0.0000000000000000000 ) ) ;
#119 = PRODUCT_RELATED_PRODUCT_CATEGORY ( 'part', '', ( #142 ) ) ;
#120 = VERTEX_POINT ( 'NONE', #104 ) ;
#121 = DIRECTION ( 'NONE',  ( 1.000000000000000000, 0.0000000000000000000, 0.0000000000000000000 ) ) ;
#122 = CIRCLE ( 'NONE', #29, 0.003936999999999995191 ) ;
#123 = EDGE_LOOP ( 'NONE', ( #9, #221, #187, #220 ) ) ;
#124 =( GEOMETRIC_REPRESENTATION_CONTEXT ( 3 ) GLOBAL_UNCERTAINTY_ASSIGNED_CONTEXT ( ( #79 ) ) GLOBAL_UNIT_ASSIGNED_CONTEXT ( ( #11, #46, #184 ) ) REPRESENTATION_CONTEXT ( 'NONE', 'WORKASPACE' ) );
#125 = EDGE_CURVE ( 'NONE', #167, #49, #58, .T. ) ;
#126 = CARTESIAN_POINT ( 'NONE',  ( 0.0000000000000000000, 0.0000000000000000000, 0.07480299999999973082 ) ) ;
#127 = DIRECTION ( 'NONE',  ( 0.0000000000000000000, 0.0000000000000000000, 1.000000000000000000 ) ) ;
#128 = PRESENTATION_STYLE_ASSIGNMENT (( #240 ) ) ;
#129 = MECHANICAL_DESIGN_GEOMETRIC_PRESENTATION_REPRESENTATION (  '', ( #60 ), #23 ) ;
#130 = PRESENTATION_LAYER_ASSIGNMENT (  '', '', ( #199 ) ) ;
#131 = EDGE_CURVE ( 'NONE', #120, #13, #34, .T. ) ;
#132 = ORIENTED_EDGE ( 'NONE', *, *, #241, .T. ) ;
#133 = VERTEX_POINT ( 'NONE', #82 ) ;
#134 = ORIENTED_EDGE ( 'NONE', *, *, #125, .F. ) ;
#135 = EDGE_CURVE ( 'NONE', #239, #133, #231, .T. ) ;
#136 = AXIS2_PLACEMENT_3D ( 'NONE', #126, #163, #68 ) ;
#137 = SURFACE_SIDE_STYLE ('',( #156 ) ) ;
#138 = DIRECTION ( 'NONE',  ( -1.000000000000000000, 0.0000000000000000000, 0.0000000000000000000 ) ) ;
#139 = ORIENTED_EDGE ( 'NONE', *, *, #135, .T. ) ;
#140 = AXIS2_PLACEMENT_3D ( 'NONE', #20, #127, #177 ) ;
#141 =( CONVERSION_BASED_UNIT ( 'INCH', #211 ) LENGTH_UNIT ( ) NAMED_UNIT ( #194 ) );
#142 = PRODUCT ( 'Micro_RNCM-040-1', 'Micro_RNCM-040-1', '', ( #154 ) ) ;
#143 = VECTOR ( 'NONE', #198, 39.37007874015748143 ) ;
#144 = DIRECTION ( 'NONE',  ( -1.000000000000000000, 0.0000000000000000000, 0.0000000000000000000 ) ) ;
#145 = DIRECTION ( 'NONE',  ( -1.000000000000000000, 0.0000000000000000000, 0.0000000000000000000 ) ) ;
#146 = AXIS2_PLACEMENT_3D ( 'NONE', #207, #35, #138 ) ;
#147 = ORIENTED_EDGE ( 'NONE', *, *, #90, .T. ) ;
#148 = LENGTH_MEASURE_WITH_UNIT ( LENGTH_MEASURE( 0.02539999999999999897 ), #111 );
#149 = EDGE_LOOP ( 'NONE', ( #245, #224, #32, #117 ) ) ;
#150 = DIRECTION ( 'NONE',  ( 0.0000000000000000000, 0.0000000000000000000, 1.000000000000000000 ) ) ;
#151 = COLOUR_RGB ( '',0.7921568627450980005, 0.8196078431372548767, 0.9333333333333333481 ) ;
#152 =( NAMED_UNIT ( * ) SI_UNIT ( $, .STERADIAN. ) SOLID_ANGLE_UNIT ( ) );
#153 = FACE_OUTER_BOUND ( 'NONE', #149, .T. ) ;
#154 = PRODUCT_CONTEXT ( 'NONE', #70, 'mechanical' ) ;
#155 = CARTESIAN_POINT ( 'NONE',  ( -0.003936999999999995191, 5.062506170655285717E-18, 0.0000000000000000000 ) ) ;
#156 = SURFACE_STYLE_FILL_AREA ( #75 ) ;
#157 = FACE_OUTER_BOUND ( 'NONE', #185, .T. ) ;
#158 = DIRECTION ( 'NONE',  ( 0.0000000000000000000, 0.0000000000000000000, 1.000000000000000000 ) ) ;
#159 = CONICAL_SURFACE ( 'NONE', #146, 0.06374000000000018540, 0.7853981633974522758 ) ;
#160 = CARTESIAN_POINT ( 'NONE',  ( 0.0000000000000000000, 0.0000000000000000000, 1.968503999999999809 ) ) ;
#161 = DIRECTION ( 'NONE',  ( 0.0000000000000000000, 0.0000000000000000000, 1.000000000000000000 ) ) ;
#162 = FACE_OUTER_BOUND ( 'NONE', #97, .T. ) ;
#163 = DIRECTION ( 'NONE',  ( -0.0000000000000000000, -0.0000000000000000000, -1.000000000000000000 ) ) ;
#164 = ORIENTED_EDGE ( 'NONE', *, *, #217, .F. ) ;
#165 = AXIS2_PLACEMENT_3D ( 'NONE', #100, #247, #77 ) ;
#166 = LINE ( 'NONE', #85, #108 ) ;
#167 = VERTEX_POINT ( 'NONE', #214 ) ;
#168 = ADVANCED_FACE ( 'NONE', ( #180 ), #53, .T. ) ;
#169 = ORIENTED_EDGE ( 'NONE', *, *, #21, .T. ) ;
#170 = ADVANCED_FACE ( 'NONE', ( #66 ), #87, .T. ) ;
#171 = ORIENTED_EDGE ( 'NONE', *, *, #131, .T. ) ;
#172 = ORIENTED_EDGE ( 'NONE', *, *, #115, .F. ) ;
#173 = FILL_AREA_STYLE_COLOUR ( '', #28 ) ;
#174 = EDGE_CURVE ( 'NONE', #49, #167, #122, .T. ) ;
#175 = ORIENTED_EDGE ( 'NONE', *, *, #131, .F. ) ;
#176 = AXIS2_PLACEMENT_3D ( 'NONE', #160, #219, #232 ) ;
#177 = DIRECTION ( 'NONE',  ( 1.000000000000000000, 0.0000000000000000000, -0.0000000000000000000 ) ) ;
#178 = AXIS2_PLACEMENT_3D ( 'NONE', #15, #72, #59 ) ;
#179 = CARTESIAN_POINT ( 'NONE',  ( 0.0000000000000000000, 0.0000000000000000000, 1.968503999999999809 ) ) ;
#180 = FACE_OUTER_BOUND ( 'NONE', #89, .T. ) ;
#181 = CYLINDRICAL_SURFACE ( 'NONE', #71, 0.07874000000000000443 ) ;
#182 = CIRCLE ( 'NONE', #213, 0.06374000000000018540 ) ;
#183 = DIRECTION ( 'NONE',  ( 0.7071067811865502373, 8.659560562354966138E-17, -0.7071067811865446862 ) ) ;
#184 =( NAMED_UNIT ( * ) SI_UNIT ( $, .STERADIAN. ) SOLID_ANGLE_UNIT ( ) );
#185 = EDGE_LOOP ( 'NONE', ( #93, #39 ) ) ;
#186 =( LENGTH_UNIT ( ) NAMED_UNIT ( * ) SI_UNIT ( $, .METRE. ) );
#187 = ORIENTED_EDGE ( 'NONE', *, *, #64, .T. ) ;
#188 = EDGE_LOOP ( 'NONE', ( #110, #134, #132, #114 ) ) ;
#189 = CARTESIAN_POINT ( 'NONE',  ( -0.07874000000000000443, 0.0000000000000000000, 1.968503999999999809 ) ) ;
#190 = CARTESIAN_POINT ( 'NONE',  ( 0.0000000000000000000, 0.0000000000000000000, 1.968503999999999809 ) ) ;
#191 = AXIS2_PLACEMENT_3D ( 'NONE', #63, #44, #144 ) ;
#192 = DIRECTION ( 'NONE',  ( 0.0000000000000000000, 0.0000000000000000000, 1.000000000000000000 ) ) ;
#193 = CARTESIAN_POINT ( 'NONE',  ( 0.0000000000000000000, 0.0000000000000000000, 0.0000000000000000000 ) ) ;
#194 = DIMENSIONAL_EXPONENTS ( 1.000000000000000000, 0.0000000000000000000, 0.0000000000000000000, 0.0000000000000000000, 0.0000000000000000000, 0.0000000000000000000, 0.0000000000000000000 ) ;
#195 = DIRECTION ( 'NONE',  ( -0.0000000000000000000, -0.0000000000000000000, -1.000000000000000000 ) ) ;
#196 = CARTESIAN_POINT ( 'NONE',  ( 0.0000000000000000000, 0.0000000000000000000, 0.0000000000000000000 ) ) ;
#197 = ADVANCED_FACE ( 'NONE', ( #162 ), #234, .T. ) ;
#198 = DIRECTION ( 'NONE',  ( -0.0000000000000000000, -0.0000000000000000000, -1.000000000000000000 ) ) ;
#199 = STYLED_ITEM ( 'NONE', ( #128 ), #112 ) ;
#200 = DIRECTION ( 'NONE',  ( 1.000000000000000000, 0.0000000000000000000, 0.0000000000000000000 ) ) ;
#201 = PRESENTATION_LAYER_ASSIGNMENT (  '', '', ( #60 ) ) ;
#202 = ORIENTED_EDGE ( 'NONE', *, *, #78, .F. ) ;
#203 = FILL_AREA_STYLE_COLOUR ( '', #151 ) ;
#204 = ORIENTED_EDGE ( 'NONE', *, *, #38, .T. ) ;
#205 = LINE ( 'NONE', #189, #143 ) ;
#206 = APPLICATION_PROTOCOL_DEFINITION ( 'draft international standard', 'automotive_design', 1998, #31 ) ;
#207 = CARTESIAN_POINT ( 'NONE',  ( 0.0000000000000000000, 0.0000000000000000000, 1.968503999999999809 ) ) ;
#208 = VERTEX_POINT ( 'NONE', #105 ) ;
#209 = DIRECTION ( 'NONE',  ( 1.000000000000000000, 0.0000000000000000000, 0.0000000000000000000 ) ) ;
#210 = VECTOR ( 'NONE', #183, 39.37007874015748854 ) ;
#211 = LENGTH_MEASURE_WITH_UNIT ( LENGTH_MEASURE( 0.02539999999999999897 ), #73 );
#212 = LINE ( 'NONE', #40, #210 ) ;
#213 = AXIS2_PLACEMENT_3D ( 'NONE', #190, #192, #121 ) ;
#214 = CARTESIAN_POINT ( 'NONE',  ( 0.003936999999999995191, 0.0000000000000000000, 0.0000000000000000000 ) ) ;
#215 = CARTESIAN_POINT ( 'NONE',  ( 0.003936999999999995191, 0.0000000000000000000, 0.0000000000000000000 ) ) ;
#216 = CONICAL_SURFACE ( 'NONE', #10, 0.003936999999999995191, 0.7853981633974501664 ) ;
#217 = EDGE_CURVE ( 'NONE', #218, #208, #83, .T. ) ;
#218 = VERTEX_POINT ( 'NONE', #235 ) ;
#219 = DIRECTION ( 'NONE',  ( -0.0000000000000000000, -0.0000000000000000000, -1.000000000000000000 ) ) ;
#220 = ORIENTED_EDGE ( 'NONE', *, *, #38, .F. ) ;
#221 = ORIENTED_EDGE ( 'NONE', *, *, #21, .F. ) ;
#222 = AXIS2_PLACEMENT_3D ( 'NONE', #61, #233, #24 ) ;
#223 = SURFACE_STYLE_FILL_AREA ( #69 ) ;
#224 = ORIENTED_EDGE ( 'NONE', *, *, #106, .T. ) ;
#225 = ORIENTED_EDGE ( 'NONE', *, *, #99, .F. ) ;
#226 = CARTESIAN_POINT ( 'NONE',  ( -0.06374000000000018540, 0.0000000000000000000, 1.968503999999999809 ) ) ;
#227 = CONICAL_SURFACE ( 'NONE', #18, 0.003936999999999995191, 0.7853981633974501664 ) ;
#228 = FACE_OUTER_BOUND ( 'NONE', #188, .T. ) ;
#229 = PLANE ( 'NONE',  #242 ) ;
#230 = UNCERTAINTY_MEASURE_WITH_UNIT (LENGTH_MEASURE( 1.000000000000000082E-05 ), #141, 'distance_accuracy_value', 'NONE');
#231 = CIRCLE ( 'NONE', #222, 0.07874000000000000443 ) ;
#232 = DIRECTION ( 'NONE',  ( -1.000000000000000000, 0.0000000000000000000, 0.0000000000000000000 ) ) ;
#233 = DIRECTION ( 'NONE',  ( 0.0000000000000000000, 0.0000000000000000000, -1.000000000000000000 ) ) ;
#234 = CYLINDRICAL_SURFACE ( 'NONE', #176, 0.07874000000000000443 ) ;
#235 = CARTESIAN_POINT ( 'NONE',  ( -0.07874000000000000443, 0.0000000000000000000, 0.07480299999999973082 ) ) ;
#236 = PRODUCT_DEFINITION ( 'UNKNOWN', '', #7, #96 ) ;
#237 = AXIS2_PLACEMENT_3D ( 'NONE', #22, #107, #6 ) ;
#238 =( CONVERSION_BASED_UNIT ( 'INCH', #148 ) LENGTH_UNIT ( ) NAMED_UNIT ( #84 ) );
#239 = VERTEX_POINT ( 'NONE', #65 ) ;
#240 = SURFACE_STYLE_USAGE ( .BOTH. , #51 ) ;
#241 = EDGE_CURVE ( 'NONE', #167, #208, #109, .T. ) ;
#242 = AXIS2_PLACEMENT_3D ( 'NONE', #193, #102, #17 ) ;
#243 = UNCERTAINTY_MEASURE_WITH_UNIT (LENGTH_MEASURE( 1.000000000000000082E-05 ), #238, 'distance_accuracy_value', 'NONE');
#244 = CARTESIAN_POINT ( 'NONE',  ( 0.0000000000000000000, 0.0000000000000000000, 0.0000000000000000000 ) ) ;
#245 = ORIENTED_EDGE ( 'NONE', *, *, #174, .F. ) ;
#246 = VECTOR ( 'NONE', #54, 39.37007874015748854 ) ;
#247 = DIRECTION ( 'NONE',  ( -0.0000000000000000000, -0.0000000000000000000, -1.000000000000000000 ) ) ;
#248 = LINE ( 'NONE', #98, #246 ) ;
#249 = CIRCLE ( 'NONE', #178, 0.07874000000000000443 ) ;
ENDSEC;
END-ISO-10303-21;
