ISO-10303-21;
HEADER;
FILE_DESCRIPTION (( 'STEP AP214' ),
    '1' );
FILE_NAME ('05082.STEP',
    '2023-06-22T15:50:55',
    ( '' ),
    ( '' ),
    'SwSTEP 2.0',
    'SolidWorks 2023',
    '' );
FILE_SCHEMA (( 'AUTOMOTIVE_DESIGN' ));
ENDSEC;

DATA;
#1 = DIRECTION ( 'NONE',  ( 0.000000000000000000, 0.000000000000000000, -1.000000000000000000 ) ) ;
#2 =( GEOMETRIC_REPRESENTATION_CONTEXT ( 3 ) GLOBAL_UNCERTAINTY_ASSIGNED_CONTEXT ( ( #202 ) ) GLOBAL_UNIT_ASSIGNED_CONTEXT ( ( #226, #122, #51 ) ) REPRESENTATION_CONTEXT ( 'NONE', 'WORKASPACE' ) );
#3 = CARTESIAN_POINT ( 'NONE',  ( 0.000000000000000000, 0.5625000000000000000, 0.000000000000000000 ) ) ;
#4 = CYLINDRICAL_SURFACE ( 'NONE', #159, 0.09375000000000002776 ) ;
#5 = DIMENSIONAL_EXPONENTS ( 1.000000000000000000, 0.000000000000000000, 0.000000000000000000, 0.000000000000000000, 0.000000000000000000, 0.000000000000000000, 0.000000000000000000 ) ;
#6 = CYLINDRICAL_SURFACE ( 'NONE', #265, 0.09374999999999998612 ) ;
#7 = CIRCLE ( 'NONE', #104, 0.09375000000000005551 ) ;
#8 =( GEOMETRIC_REPRESENTATION_CONTEXT ( 3 ) GLOBAL_UNCERTAINTY_ASSIGNED_CONTEXT ( ( #306 ) ) GLOBAL_UNIT_ASSIGNED_CONTEXT ( ( #182, #132, #148 ) ) REPRESENTATION_CONTEXT ( 'NONE', 'WORKASPACE' ) );
#9 = ORIENTED_EDGE ( 'NONE', *, *, #217, .T. ) ;
#10 = ADVANCED_FACE ( 'NONE', ( #131 ), #33, .T. ) ;
#11 = VERTEX_POINT ( 'NONE', #172 ) ;
#12 = PRESENTATION_STYLE_ASSIGNMENT (( #78 ) ) ;
#13 = MECHANICAL_DESIGN_GEOMETRIC_PRESENTATION_REPRESENTATION (  '', ( #63 ), #8 ) ;
#14 = LINE ( 'NONE', #146, #143 ) ;
#15 = FACE_OUTER_BOUND ( 'NONE', #103, .T. ) ;
#16 = CARTESIAN_POINT ( 'NONE',  ( 1.148106374200643401E-17, 0.5625000000000000000, 0.09374999999999998612 ) ) ;
#17 = DIRECTION ( 'NONE',  ( 0.000000000000000000, 0.000000000000000000, -1.000000000000000000 ) ) ;
#18 = ORIENTED_EDGE ( 'NONE', *, *, #220, .F. ) ;
#19 = DIRECTION ( 'NONE',  ( 0.000000000000000000, 0.000000000000000000, 1.000000000000000000 ) ) ;
#20 = PLANE ( 'NONE',  #271 ) ;
#21 = FILL_AREA_STYLE ('',( #308 ) ) ;
#22 = CARTESIAN_POINT ( 'NONE',  ( 0.000000000000000000, 0.5625000000000001110, 0.000000000000000000 ) ) ;
#23 = CARTESIAN_POINT ( 'NONE',  ( 0.000000000000000000, 0.000000000000000000, -0.09375000000000001388 ) ) ;
#24 = DIRECTION ( 'NONE',  ( 1.000000000000000000, 0.000000000000000000, 0.000000000000000000 ) ) ;
#25 = FILL_AREA_STYLE_COLOUR ( '', #254 ) ;
#26 = STYLED_ITEM ( 'NONE', ( #117 ), #168 ) ;
#27 = PRESENTATION_STYLE_ASSIGNMENT (( #90 ) ) ;
#28 = VECTOR ( 'NONE', #211, 39.37007874015748143 ) ;
#29 = PRODUCT_DEFINITION ( 'UNKNOWN', '', #258, #173 ) ;
#30 = ORIENTED_EDGE ( 'NONE', *, *, #50, .F. ) ;
#31 =( LENGTH_UNIT ( ) NAMED_UNIT ( * ) SI_UNIT ( $, .METRE. ) );
#32 = PRESENTATION_LAYER_ASSIGNMENT (  '', '', ( #282 ) ) ;
#33 = CYLINDRICAL_SURFACE ( 'NONE', #138, 0.09375000000000002776 ) ;
#34 =( NAMED_UNIT ( * ) SI_UNIT ( $, .STERADIAN. ) SOLID_ANGLE_UNIT ( ) );
#35 = EDGE_LOOP ( 'NONE', ( #224, #232, #9, #123 ) ) ;
#36 =( LENGTH_UNIT ( ) NAMED_UNIT ( * ) SI_UNIT ( $, .METRE. ) );
#37 = ORIENTED_EDGE ( 'NONE', *, *, #163, .F. ) ;
#38 = CARTESIAN_POINT ( 'NONE',  ( -6.123233995736766036E-17, 2.500000000000000000, 0.000000000000000000 ) ) ;
#39 = CLOSED_SHELL ( 'NONE', ( #153, #150, #10, #72 ) ) ;
#40 =( NAMED_UNIT ( * ) PLANE_ANGLE_UNIT ( ) SI_UNIT ( $, .RADIAN. ) );
#41 = CARTESIAN_POINT ( 'NONE',  ( 1.148106374200643555E-17, 0.000000000000000000, 0.09375000000000001388 ) ) ;
#42 = FACE_OUTER_BOUND ( 'NONE', #299, .T. ) ;
#43 = SURFACE_STYLE_USAGE ( .BOTH. , #60 ) ;
#44 = DIRECTION ( 'NONE',  ( -1.000000000000000000, 0.000000000000000000, 0.000000000000000000 ) ) ;
#45 = SURFACE_STYLE_FILL_AREA ( #65 ) ;
#46 = CIRCLE ( 'NONE', #160, 0.09375000000000001388 ) ;
#47 = CARTESIAN_POINT ( 'NONE',  ( 0.000000000000000000, 0.5625000000000000000, 0.000000000000000000 ) ) ;
#48 = SURFACE_STYLE_USAGE ( .BOTH. , #99 ) ;
#49 = AXIS2_PLACEMENT_3D ( 'NONE', #47, #221, #140 ) ;
#50 = EDGE_CURVE ( 'NONE', #256, #157, #7, .T. ) ;
#51 =( NAMED_UNIT ( * ) SI_UNIT ( $, .STERADIAN. ) SOLID_ANGLE_UNIT ( ) );
#52 = ORIENTED_EDGE ( 'NONE', *, *, #163, .T. ) ;
#53 = SURFACE_SIDE_STYLE ('',( #76 ) ) ;
#54 =( LENGTH_UNIT ( ) NAMED_UNIT ( * ) SI_UNIT ( $, .METRE. ) );
#55 = EDGE_LOOP ( 'NONE', ( #100, #101 ) ) ;
#56 = DIRECTION ( 'NONE',  ( -1.000000000000000000, 0.000000000000000000, 0.000000000000000000 ) ) ;
#57 = CARTESIAN_POINT ( 'NONE',  ( 0.000000000000000000, 0.000000000000000000, 0.000000000000000000 ) ) ;
#58 = DIMENSIONAL_EXPONENTS ( 1.000000000000000000, 0.000000000000000000, 0.000000000000000000, 0.000000000000000000, 0.000000000000000000, 0.000000000000000000, 0.000000000000000000 ) ;
#59 = DIRECTION ( 'NONE',  ( -0.000000000000000000, -1.000000000000000000, -0.000000000000000000 ) ) ;
#60 = SURFACE_SIDE_STYLE ('',( #210 ) ) ;
#61 = CIRCLE ( 'NONE', #79, 0.09374999999999998612 ) ;
#62 = LENGTH_MEASURE_WITH_UNIT ( LENGTH_MEASURE( 0.02539999999999999897 ), #54 );
#63 = STYLED_ITEM ( 'NONE', ( #206 ), #223 ) ;
#64 =( NAMED_UNIT ( * ) PLANE_ANGLE_UNIT ( ) SI_UNIT ( $, .RADIAN. ) );
#65 = FILL_AREA_STYLE ('',( #25 ) ) ;
#66 = AXIS2_PLACEMENT_3D ( 'NONE', #287, #59, #1 ) ;
#67 = AXIS2_PLACEMENT_3D ( 'NONE', #57, #19, #24 ) ;
#68 =( NAMED_UNIT ( * ) PLANE_ANGLE_UNIT ( ) SI_UNIT ( $, .RADIAN. ) );
#69 = PRODUCT ( '05082', '05082', '', ( #269 ) ) ;
#70 =( NAMED_UNIT ( * ) PLANE_ANGLE_UNIT ( ) SI_UNIT ( $, .RADIAN. ) );
#71 = DIRECTION ( 'NONE',  ( -0.000000000000000000, -1.000000000000000000, -0.000000000000000000 ) ) ;
#72 = ADVANCED_FACE ( 'NONE', ( #15 ), #96, .F. ) ;
#73 = APPLICATION_CONTEXT ( 'automotive_design' ) ;
#74 = ADVANCED_BREP_SHAPE_REPRESENTATION ( '05082', ( #214, #93, #67 ), #301 ) ;
#75 = FILL_AREA_STYLE ('',( #191 ) ) ;
#76 = SURFACE_STYLE_FILL_AREA ( #200 ) ;
#77 = ORIENTED_EDGE ( 'NONE', *, *, #297, .F. ) ;
#78 = SURFACE_STYLE_USAGE ( .BOTH. , #53 ) ;
#79 = AXIS2_PLACEMENT_3D ( 'NONE', #22, #111, #286 ) ;
#80 = AXIS2_PLACEMENT_3D ( 'NONE', #284, #233, #184 ) ;
#81 = DIRECTION ( 'NONE',  ( -0.000000000000000000, -1.000000000000000000, -0.000000000000000000 ) ) ;
#82 = FACE_OUTER_BOUND ( 'NONE', #55, .T. ) ;
#83 = LENGTH_MEASURE_WITH_UNIT ( LENGTH_MEASURE( 0.02539999999999999897 ), #36 );
#84 = CARTESIAN_POINT ( 'NONE',  ( 1.148106374200643401E-17, 0.000000000000000000, 0.09374999999999998612 ) ) ;
#85 = CARTESIAN_POINT ( 'NONE',  ( 0.09374999999999998612, 0.5625000000000001110, 1.148106374200644171E-17 ) ) ;
#86 = CARTESIAN_POINT ( 'NONE',  ( -0.09374999999999998612, 0.5625000000000001110, 0.000000000000000000 ) ) ;
#87 = MECHANICAL_DESIGN_GEOMETRIC_PRESENTATION_REPRESENTATION (  '', ( #282 ), #197 ) ;
#88 = ORIENTED_EDGE ( 'NONE', *, *, #217, .F. ) ;
#89 = ORIENTED_EDGE ( 'NONE', *, *, #236, .T. ) ;
#90 = SURFACE_STYLE_USAGE ( .BOTH. , #115 ) ;
#91 = CYLINDRICAL_SURFACE ( 'NONE', #274, 0.09374999999999998612 ) ;
#92 = CIRCLE ( 'NONE', #128, 0.09374999999999998612 ) ;
#93 = MANIFOLD_SOLID_BREP ( 'Revolve - Tool Body (Straight Shanked)', #39 ) ;
#94 = PRESENTATION_STYLE_ASSIGNMENT (( #48 ) ) ;
#95 = EDGE_CURVE ( 'NONE', #164, #279, #121, .T. ) ;
#96 = PLANE ( 'NONE',  #300 ) ;
#97 =( GEOMETRIC_REPRESENTATION_CONTEXT ( 3 ) GLOBAL_UNCERTAINTY_ASSIGNED_CONTEXT ( ( #283 ) ) GLOBAL_UNIT_ASSIGNED_CONTEXT ( ( #102, #64, #34 ) ) REPRESENTATION_CONTEXT ( 'NONE', 'WORKASPACE' ) );
#98 = EDGE_CURVE ( 'NONE', #157, #256, #118, .T. ) ;
#99 = SURFACE_SIDE_STYLE ('',( #278 ) ) ;
#100 = ORIENTED_EDGE ( 'NONE', *, *, #95, .F. ) ;
#101 = ORIENTED_EDGE ( 'NONE', *, *, #127, .F. ) ;
#102 =( CONVERSION_BASED_UNIT ( 'INCH', #187 ) LENGTH_UNIT ( ) NAMED_UNIT ( #288 ) );
#103 = EDGE_LOOP ( 'NONE', ( #230, #189 ) ) ;
#104 = AXIS2_PLACEMENT_3D ( 'NONE', #227, #147, #56 ) ;
#105 = CARTESIAN_POINT ( 'NONE',  ( 0.000000000000000000, 0.000000000000000000, 0.000000000000000000 ) ) ;
#106 = APPLICATION_PROTOCOL_DEFINITION ( 'draft international standard', 'automotive_design', 1998, #177 ) ;
#107 = LINE ( 'NONE', #263, #190 ) ;
#108 = CLOSED_SHELL ( 'NONE', ( #209, #168, #176, #223 ) ) ;
#109 = DIRECTION ( 'NONE',  ( -0.000000000000000000, -1.000000000000000000, -0.000000000000000000 ) ) ;
#110 = PRESENTATION_LAYER_ASSIGNMENT (  '', '', ( #26 ) ) ;
#111 = DIRECTION ( 'NONE',  ( -3.160378836509298460E-17, 1.000000000000000000, -0.000000000000000000 ) ) ;
#112 = DIMENSIONAL_EXPONENTS ( 1.000000000000000000, 0.000000000000000000, 0.000000000000000000, 0.000000000000000000, 0.000000000000000000, 0.000000000000000000, 0.000000000000000000 ) ;
#113 =( CONVERSION_BASED_UNIT ( 'INCH', #62 ) LENGTH_UNIT ( ) NAMED_UNIT ( #112 ) );
#114 = FILL_AREA_STYLE_COLOUR ( '', #296 ) ;
#115 = SURFACE_SIDE_STYLE ('',( #45 ) ) ;
#116 = UNCERTAINTY_MEASURE_WITH_UNIT (LENGTH_MEASURE( 1.000000000000000082E-05 ), #119, 'distance_accuracy_value', 'NONE');
#117 = PRESENTATION_STYLE_ASSIGNMENT (( #216 ) ) ;
#118 = CIRCLE ( 'NONE', #222, 0.09375000000000005551 ) ;
#119 =( CONVERSION_BASED_UNIT ( 'INCH', #192 ) LENGTH_UNIT ( ) NAMED_UNIT ( #58 ) );
#120 = DIRECTION ( 'NONE',  ( 0.000000000000000000, 0.000000000000000000, -1.000000000000000000 ) ) ;
#121 = CIRCLE ( 'NONE', #264, 0.09374999999999998612 ) ;
#122 =( NAMED_UNIT ( * ) PLANE_ANGLE_UNIT ( ) SI_UNIT ( $, .RADIAN. ) );
#123 = ORIENTED_EDGE ( 'NONE', *, *, #98, .F. ) ;
#124 = LENGTH_MEASURE_WITH_UNIT ( LENGTH_MEASURE( 0.02539999999999999897 ), #31 );
#125 = ORIENTED_EDGE ( 'NONE', *, *, #156, .F. ) ;
#126 = COLOUR_RGB ( '',0.7921568627450980005, 0.8196078431372548767, 0.9333333333333333481 ) ;
#127 = EDGE_CURVE ( 'NONE', #279, #164, #61, .T. ) ;
#128 = AXIS2_PLACEMENT_3D ( 'NONE', #213, #81, #174 ) ;
#129 = EDGE_LOOP ( 'NONE', ( #77, #171 ) ) ;
#130 = DIRECTION ( 'NONE',  ( 0.000000000000000000, 0.000000000000000000, -1.000000000000000000 ) ) ;
#131 = FACE_OUTER_BOUND ( 'NONE', #35, .T. ) ;
#132 =( NAMED_UNIT ( * ) PLANE_ANGLE_UNIT ( ) SI_UNIT ( $, .RADIAN. ) );
#133 = CARTESIAN_POINT ( 'NONE',  ( -6.123233995736766036E-17, 2.500000000000000000, 0.000000000000000000 ) ) ;
#134 = DIRECTION ( 'NONE',  ( -3.160378836509298460E-17, 1.000000000000000000, -0.000000000000000000 ) ) ;
#135 = MECHANICAL_DESIGN_GEOMETRIC_PRESENTATION_REPRESENTATION (  '', ( #26 ), #228 ) ;
#136 = FACE_OUTER_BOUND ( 'NONE', #129, .T. ) ;
#137 =( NAMED_UNIT ( * ) SI_UNIT ( $, .STERADIAN. ) SOLID_ANGLE_UNIT ( ) );
#138 = AXIS2_PLACEMENT_3D ( 'NONE', #133, #309, #285 ) ;
#139 = DIRECTION ( 'NONE',  ( 0.000000000000000000, 0.000000000000000000, -1.000000000000000000 ) ) ;
#140 = DIRECTION ( 'NONE',  ( 0.000000000000000000, -0.000000000000000000, 1.000000000000000000 ) ) ;
#141 = MECHANICAL_DESIGN_GEOMETRIC_PRESENTATION_REPRESENTATION (  '', ( #276 ), #2 ) ;
#142 = MECHANICAL_DESIGN_GEOMETRIC_PRESENTATION_REPRESENTATION (  '', ( #165 ), #205 ) ;
#143 = VECTOR ( 'NONE', #268, 39.37007874015748143 ) ;
#144 = SURFACE_SIDE_STYLE ('',( #277 ) ) ;
#145 = ORIENTED_EDGE ( 'NONE', *, *, #225, .T. ) ;
#146 = CARTESIAN_POINT ( 'NONE',  ( 0.000000000000000000, 0.000000000000000000, -0.09374999999999998612 ) ) ;
#147 = DIRECTION ( 'NONE',  ( -3.160378836509298460E-17, 1.000000000000000000, -0.000000000000000000 ) ) ;
#148 =( NAMED_UNIT ( * ) SI_UNIT ( $, .STERADIAN. ) SOLID_ANGLE_UNIT ( ) );
#149 = DIRECTION ( 'NONE',  ( 1.000000000000000000, 3.160378836509298460E-17, 0.000000000000000000 ) ) ;
#150 = ADVANCED_FACE ( 'NONE', ( #82 ), #20, .F. ) ;
#151 =( NAMED_UNIT ( * ) PLANE_ANGLE_UNIT ( ) SI_UNIT ( $, .RADIAN. ) );
#152 = PRESENTATION_LAYER_ASSIGNMENT (  '', '', ( #276 ) ) ;
#153 = ADVANCED_FACE ( 'NONE', ( #42 ), #4, .T. ) ;
#154 = DIRECTION ( 'NONE',  ( -3.160378836509298460E-17, 1.000000000000000000, -0.000000000000000000 ) ) ;
#155 = CARTESIAN_POINT ( 'NONE',  ( 0.000000000000000000, 0.5625000000000001110, 0.000000000000000000 ) ) ;
#156 = EDGE_CURVE ( 'NONE', #234, #280, #208, .T. ) ;
#157 = VERTEX_POINT ( 'NONE', #183 ) ;
#158 = DIRECTION ( 'NONE',  ( -3.160378836509298460E-17, 1.000000000000000000, 0.000000000000000000 ) ) ;
#159 = AXIS2_PLACEMENT_3D ( 'NONE', #38, #134, #235 ) ;
#160 = AXIS2_PLACEMENT_3D ( 'NONE', #105, #109, #17 ) ;
#161 =( LENGTH_UNIT ( ) NAMED_UNIT ( * ) SI_UNIT ( $, .METRE. ) );
#162 = DIMENSIONAL_EXPONENTS ( 1.000000000000000000, 0.000000000000000000, 0.000000000000000000, 0.000000000000000000, 0.000000000000000000, 0.000000000000000000, 0.000000000000000000 ) ;
#163 = EDGE_CURVE ( 'NONE', #204, #280, #249, .T. ) ;
#164 = VERTEX_POINT ( 'NONE', #86 ) ;
#165 = STYLED_ITEM ( 'NONE', ( #255 ), #93 ) ;
#166 = COLOUR_RGB ( '',0.7921568627450980005, 0.8196078431372548767, 0.9333333333333333481 ) ;
#167 = FILL_AREA_STYLE ('',( #114 ) ) ;
#168 = ADVANCED_FACE ( 'NONE', ( #136 ), #242, .T. ) ;
#169 = FILL_AREA_STYLE ('',( #207 ) ) ;
#170 = CIRCLE ( 'NONE', #257, 0.09374999999999998612 ) ;
#171 = ORIENTED_EDGE ( 'NONE', *, *, #225, .F. ) ;
#172 = CARTESIAN_POINT ( 'NONE',  ( 0.000000000000000000, 0.5625000000000000000, -0.09374999999999998612 ) ) ;
#173 = PRODUCT_DEFINITION_CONTEXT ( 'detailed design', #177, 'design' ) ;
#174 = DIRECTION ( 'NONE',  ( 0.000000000000000000, 0.000000000000000000, -1.000000000000000000 ) ) ;
#175 = EDGE_LOOP ( 'NONE', ( #261, #201, #37, #18 ) ) ;
#176 = ADVANCED_FACE ( 'NONE', ( #251 ), #91, .T. ) ;
#177 = APPLICATION_CONTEXT ( 'automotive_design' ) ;
#178 = DIRECTION ( 'NONE',  ( -3.160378836509298460E-17, 1.000000000000000000, -0.000000000000000000 ) ) ;
#179 = EDGE_LOOP ( 'NONE', ( #125, #145, #281, #273 ) ) ;
#180 = CARTESIAN_POINT ( 'NONE',  ( 4.681872370432437241E-35, 0.5625000000000000000, 0.000000000000000000 ) ) ;
#181 =( NAMED_UNIT ( * ) SI_UNIT ( $, .STERADIAN. ) SOLID_ANGLE_UNIT ( ) );
#182 =( CONVERSION_BASED_UNIT ( 'INCH', #83 ) LENGTH_UNIT ( ) NAMED_UNIT ( #5 ) );
#183 = CARTESIAN_POINT ( 'NONE',  ( 0.09374999999999998612, 2.500000000000000000, 1.148106374200644171E-17 ) ) ;
#184 = DIRECTION ( 'NONE',  ( 0.000000000000000000, 0.000000000000000000, -1.000000000000000000 ) ) ;
#185 = STYLED_ITEM ( 'NONE', ( #12 ), #214 ) ;
#186 = UNCERTAINTY_MEASURE_WITH_UNIT (LENGTH_MEASURE( 1.000000000000000082E-05 ), #240, 'distance_accuracy_value', 'NONE');
#187 = LENGTH_MEASURE_WITH_UNIT ( LENGTH_MEASURE( 0.02539999999999999897 ), #203 );
#188 = SHAPE_DEFINITION_REPRESENTATION ( #253, #74 ) ;
#189 = ORIENTED_EDGE ( 'NONE', *, *, #98, .T. ) ;
#190 = VECTOR ( 'NONE', #154, 39.37007874015748143 ) ;
#191 = FILL_AREA_STYLE_COLOUR ( '', #250 ) ;
#192 = LENGTH_MEASURE_WITH_UNIT ( LENGTH_MEASURE( 0.02539999999999999897 ), #161 );
#193 =( CONVERSION_BASED_UNIT ( 'INCH', #248 ) LENGTH_UNIT ( ) NAMED_UNIT ( #266 ) );
#194 =( NAMED_UNIT ( * ) SI_UNIT ( $, .STERADIAN. ) SOLID_ANGLE_UNIT ( ) );
#195 = DIRECTION ( 'NONE',  ( -0.000000000000000000, -1.000000000000000000, -0.000000000000000000 ) ) ;
#196 = CARTESIAN_POINT ( 'NONE',  ( 0.09374999999999998612, 2.500000000000000000, 0.000000000000000000 ) ) ;
#197 =( GEOMETRIC_REPRESENTATION_CONTEXT ( 3 ) GLOBAL_UNCERTAINTY_ASSIGNED_CONTEXT ( ( #215 ) ) GLOBAL_UNIT_ASSIGNED_CONTEXT ( ( #193, #70, #252 ) ) REPRESENTATION_CONTEXT ( 'NONE', 'WORKASPACE' ) );
#198 = PRODUCT_RELATED_PRODUCT_CATEGORY ( 'part', '', ( #69 ) ) ;
#199 = ORIENTED_EDGE ( 'NONE', *, *, #95, .T. ) ;
#200 = FILL_AREA_STYLE ('',( #275 ) ) ;
#201 = ORIENTED_EDGE ( 'NONE', *, *, #156, .T. ) ;
#202 = UNCERTAINTY_MEASURE_WITH_UNIT (LENGTH_MEASURE( 1.000000000000000082E-05 ), #226, 'distance_accuracy_value', 'NONE');
#203 =( LENGTH_UNIT ( ) NAMED_UNIT ( * ) SI_UNIT ( $, .METRE. ) );
#204 = VERTEX_POINT ( 'NONE', #23 ) ;
#205 =( GEOMETRIC_REPRESENTATION_CONTEXT ( 3 ) GLOBAL_UNCERTAINTY_ASSIGNED_CONTEXT ( ( #267 ) ) GLOBAL_UNIT_ASSIGNED_CONTEXT ( ( #113, #40, #137 ) ) REPRESENTATION_CONTEXT ( 'NONE', 'WORKASPACE' ) );
#206 = PRESENTATION_STYLE_ASSIGNMENT (( #43 ) ) ;
#207 = FILL_AREA_STYLE_COLOUR ( '', #126 ) ;
#208 = LINE ( 'NONE', #84, #28 ) ;
#209 = ADVANCED_FACE ( 'NONE', ( #247 ), #6, .T. ) ;
#210 = SURFACE_STYLE_FILL_AREA ( #21 ) ;
#211 = DIRECTION ( 'NONE',  ( -0.000000000000000000, -1.000000000000000000, -0.000000000000000000 ) ) ;
#212 = VECTOR ( 'NONE', #178, 39.37007874015748143 ) ;
#213 = CARTESIAN_POINT ( 'NONE',  ( 0.000000000000000000, 0.5625000000000000000, 0.000000000000000000 ) ) ;
#214 = MANIFOLD_SOLID_BREP ( 'Revolve - Cutting Edge', #108 ) ;
#215 = UNCERTAINTY_MEASURE_WITH_UNIT (LENGTH_MEASURE( 1.000000000000000082E-05 ), #193, 'distance_accuracy_value', 'NONE');
#216 = SURFACE_STYLE_USAGE ( .BOTH. , #246 ) ;
#217 = EDGE_CURVE ( 'NONE', #164, #256, #107, .T. ) ;
#218 = PRESENTATION_LAYER_ASSIGNMENT (  '', '', ( #165 ) ) ;
#219 = SURFACE_STYLE_FILL_AREA ( #167 ) ;
#220 = EDGE_CURVE ( 'NONE', #11, #204, #14, .T. ) ;
#221 = DIRECTION ( 'NONE',  ( 0.000000000000000000, 1.000000000000000000, 0.000000000000000000 ) ) ;
#222 = AXIS2_PLACEMENT_3D ( 'NONE', #294, #244, #262 ) ;
#223 = ADVANCED_FACE ( 'NONE', ( #238 ), #243, .T. ) ;
#224 = ORIENTED_EDGE ( 'NONE', *, *, #304, .F. ) ;
#225 = EDGE_CURVE ( 'NONE', #234, #11, #92, .T. ) ;
#226 =( CONVERSION_BASED_UNIT ( 'INCH', #124 ) LENGTH_UNIT ( ) NAMED_UNIT ( #295 ) );
#227 = CARTESIAN_POINT ( 'NONE',  ( -6.123233995736766036E-17, 2.500000000000000000, 0.000000000000000000 ) ) ;
#228 =( GEOMETRIC_REPRESENTATION_CONTEXT ( 3 ) GLOBAL_UNCERTAINTY_ASSIGNED_CONTEXT ( ( #116 ) ) GLOBAL_UNIT_ASSIGNED_CONTEXT ( ( #119, #68, #194 ) ) REPRESENTATION_CONTEXT ( 'NONE', 'WORKASPACE' ) );
#229 = CARTESIAN_POINT ( 'NONE',  ( 0.000000000000000000, 0.000000000000000000, 0.000000000000000000 ) ) ;
#230 = ORIENTED_EDGE ( 'NONE', *, *, #50, .T. ) ;
#231 = CARTESIAN_POINT ( 'NONE',  ( -0.09375000000000012490, 2.500000000000000000, 0.000000000000000000 ) ) ;
#232 = ORIENTED_EDGE ( 'NONE', *, *, #127, .T. ) ;
#233 = DIRECTION ( 'NONE',  ( 0.000000000000000000, -1.000000000000000000, -0.000000000000000000 ) ) ;
#234 = VERTEX_POINT ( 'NONE', #16 ) ;
#235 = DIRECTION ( 'NONE',  ( -1.000000000000000000, 0.000000000000000000, 0.000000000000000000 ) ) ;
#236 = EDGE_CURVE ( 'NONE', #280, #204, #46, .T. ) ;
#237 = COLOUR_RGB ( '',1.000000000000000000, 0.000000000000000000, 0.000000000000000000 ) ;
#238 = FACE_OUTER_BOUND ( 'NONE', #307, .T. ) ;
#239 = DIRECTION ( 'NONE',  ( -3.160378836509298460E-17, 1.000000000000000000, -0.000000000000000000 ) ) ;
#240 =( CONVERSION_BASED_UNIT ( 'INCH', #293 ) LENGTH_UNIT ( ) NAMED_UNIT ( #162 ) );
#241 = LINE ( 'NONE', #289, #212 ) ;
#242 = PLANE ( 'NONE',  #49 ) ;
#243 = PLANE ( 'NONE',  #80 ) ;
#244 = DIRECTION ( 'NONE',  ( -3.160378836509298460E-17, 1.000000000000000000, -0.000000000000000000 ) ) ;
#245 = PRESENTATION_LAYER_ASSIGNMENT (  '', '', ( #185 ) ) ;
#246 = SURFACE_SIDE_STYLE ('',( #219 ) ) ;
#247 = FACE_OUTER_BOUND ( 'NONE', #175, .T. ) ;
#248 = LENGTH_MEASURE_WITH_UNIT ( LENGTH_MEASURE( 0.02539999999999999897 ), #298 );
#249 = CIRCLE ( 'NONE', #66, 0.09375000000000001388 ) ;
#250 = COLOUR_RGB ( '',1.000000000000000000, 0.000000000000000000, 0.000000000000000000 ) ;
#251 = FACE_OUTER_BOUND ( 'NONE', #179, .T. ) ;
#252 =( NAMED_UNIT ( * ) SI_UNIT ( $, .STERADIAN. ) SOLID_ANGLE_UNIT ( ) );
#253 = PRODUCT_DEFINITION_SHAPE ( 'NONE', 'NONE',  #29 ) ;
#254 = COLOUR_RGB ( '',1.000000000000000000, 0.000000000000000000, 0.000000000000000000 ) ;
#255 = PRESENTATION_STYLE_ASSIGNMENT (( #305 ) ) ;
#256 = VERTEX_POINT ( 'NONE', #231 ) ;
#257 = AXIS2_PLACEMENT_3D ( 'NONE', #3, #259, #130 ) ;
#258 = PRODUCT_DEFINITION_FORMATION_WITH_SPECIFIED_SOURCE ( 'ANY', '', #69, .NOT_KNOWN. ) ;
#259 = DIRECTION ( 'NONE',  ( -0.000000000000000000, -1.000000000000000000, -0.000000000000000000 ) ) ;
#260 = DIRECTION ( 'NONE',  ( 3.160378836509298460E-17, -1.000000000000000000, 0.000000000000000000 ) ) ;
#261 = ORIENTED_EDGE ( 'NONE', *, *, #297, .T. ) ;
#262 = DIRECTION ( 'NONE',  ( -1.000000000000000000, 0.000000000000000000, 0.000000000000000000 ) ) ;
#263 = CARTESIAN_POINT ( 'NONE',  ( -0.09375000000000009714, 2.500000000000000000, 0.000000000000000000 ) ) ;
#264 = AXIS2_PLACEMENT_3D ( 'NONE', #155, #239, #44 ) ;
#265 = AXIS2_PLACEMENT_3D ( 'NONE', #229, #195, #120 ) ;
#266 = DIMENSIONAL_EXPONENTS ( 1.000000000000000000, 0.000000000000000000, 0.000000000000000000, 0.000000000000000000, 0.000000000000000000, 0.000000000000000000, 0.000000000000000000 ) ;
#267 = UNCERTAINTY_MEASURE_WITH_UNIT (LENGTH_MEASURE( 1.000000000000000082E-05 ), #113, 'distance_accuracy_value', 'NONE');
#268 = DIRECTION ( 'NONE',  ( -0.000000000000000000, -1.000000000000000000, -0.000000000000000000 ) ) ;
#269 = PRODUCT_CONTEXT ( 'NONE', #73, 'mechanical' ) ;
#270 =( LENGTH_UNIT ( ) NAMED_UNIT ( * ) SI_UNIT ( $, .METRE. ) );
#271 = AXIS2_PLACEMENT_3D ( 'NONE', #180, #158, #290 ) ;
#272 = PRESENTATION_LAYER_ASSIGNMENT (  '', '', ( #63 ) ) ;
#273 = ORIENTED_EDGE ( 'NONE', *, *, #236, .F. ) ;
#274 = AXIS2_PLACEMENT_3D ( 'NONE', #302, #71, #139 ) ;
#275 = FILL_AREA_STYLE_COLOUR ( '', #166 ) ;
#276 = STYLED_ITEM ( 'NONE', ( #94 ), #209 ) ;
#277 = SURFACE_STYLE_FILL_AREA ( #169 ) ;
#278 = SURFACE_STYLE_FILL_AREA ( #75 ) ;
#279 = VERTEX_POINT ( 'NONE', #85 ) ;
#280 = VERTEX_POINT ( 'NONE', #41 ) ;
#281 = ORIENTED_EDGE ( 'NONE', *, *, #220, .T. ) ;
#282 = STYLED_ITEM ( 'NONE', ( #27 ), #176 ) ;
#283 = UNCERTAINTY_MEASURE_WITH_UNIT (LENGTH_MEASURE( 1.000000000000000082E-05 ), #102, 'distance_accuracy_value', 'NONE');
#284 = CARTESIAN_POINT ( 'NONE',  ( 0.000000000000000000, 0.000000000000000000, 0.000000000000000000 ) ) ;
#285 = DIRECTION ( 'NONE',  ( -1.000000000000000000, 0.000000000000000000, 0.000000000000000000 ) ) ;
#286 = DIRECTION ( 'NONE',  ( -1.000000000000000000, 0.000000000000000000, 0.000000000000000000 ) ) ;
#287 = CARTESIAN_POINT ( 'NONE',  ( 0.000000000000000000, 0.000000000000000000, 0.000000000000000000 ) ) ;
#288 = DIMENSIONAL_EXPONENTS ( 1.000000000000000000, 0.000000000000000000, 0.000000000000000000, 0.000000000000000000, 0.000000000000000000, 0.000000000000000000, 0.000000000000000000 ) ;
#289 = CARTESIAN_POINT ( 'NONE',  ( 0.09374999999999995837, 2.500000000000000000, 1.148106374200644017E-17 ) ) ;
#290 = DIRECTION ( 'NONE',  ( -1.000000000000000000, -3.160378836509298460E-17, 0.000000000000000000 ) ) ;
#291 = MECHANICAL_DESIGN_GEOMETRIC_PRESENTATION_REPRESENTATION (  '', ( #185 ), #97 ) ;
#292 = APPLICATION_PROTOCOL_DEFINITION ( 'draft international standard', 'automotive_design', 1998, #73 ) ;
#293 = LENGTH_MEASURE_WITH_UNIT ( LENGTH_MEASURE( 0.02539999999999999897 ), #270 );
#294 = CARTESIAN_POINT ( 'NONE',  ( -6.123233995736766036E-17, 2.500000000000000000, 0.000000000000000000 ) ) ;
#295 = DIMENSIONAL_EXPONENTS ( 1.000000000000000000, 0.000000000000000000, 0.000000000000000000, 0.000000000000000000, 0.000000000000000000, 0.000000000000000000, 0.000000000000000000 ) ;
#296 = COLOUR_RGB ( '',1.000000000000000000, 0.000000000000000000, 0.000000000000000000 ) ;
#297 = EDGE_CURVE ( 'NONE', #11, #234, #170, .T. ) ;
#298 =( LENGTH_UNIT ( ) NAMED_UNIT ( * ) SI_UNIT ( $, .METRE. ) );
#299 = EDGE_LOOP ( 'NONE', ( #199, #303, #30, #88 ) ) ;
#300 = AXIS2_PLACEMENT_3D ( 'NONE', #196, #260, #149 ) ;
#301 =( GEOMETRIC_REPRESENTATION_CONTEXT ( 3 ) GLOBAL_UNCERTAINTY_ASSIGNED_CONTEXT ( ( #186 ) ) GLOBAL_UNIT_ASSIGNED_CONTEXT ( ( #240, #151, #181 ) ) REPRESENTATION_CONTEXT ( 'NONE', 'WORKASPACE' ) );
#302 = CARTESIAN_POINT ( 'NONE',  ( 0.000000000000000000, 0.000000000000000000, 0.000000000000000000 ) ) ;
#303 = ORIENTED_EDGE ( 'NONE', *, *, #304, .T. ) ;
#304 = EDGE_CURVE ( 'NONE', #279, #157, #241, .T. ) ;
#305 = SURFACE_STYLE_USAGE ( .BOTH. , #144 ) ;
#306 = UNCERTAINTY_MEASURE_WITH_UNIT (LENGTH_MEASURE( 1.000000000000000082E-05 ), #182, 'distance_accuracy_value', 'NONE');
#307 = EDGE_LOOP ( 'NONE', ( #52, #89 ) ) ;
#308 = FILL_AREA_STYLE_COLOUR ( '', #237 ) ;
#309 = DIRECTION ( 'NONE',  ( -3.160378836509298460E-17, 1.000000000000000000, -0.000000000000000000 ) ) ;
ENDSEC;
END-ISO-10303-21;
