ISO-10303-21;
HEADER;
FILE_DESCRIPTION (( 'STEP AP214' ),
    '1' );
FILE_NAME ('Micro_SFP-125-22.STEP',
    '2021-09-02T05:59:43',
    ( '' ),
    ( '' ),
    'SwSTEP 2.0',
    'SolidWorks 2020',
    '' );
FILE_SCHEMA (( 'AUTOMOTIVE_DESIGN' ));
ENDSEC;

DATA;
#1 = AXIS2_PLACEMENT_3D ( 'NONE', #285, #191, #284 ) ;
#2 = FILL_AREA_STYLE_COLOUR ( '', #159 ) ;
#3 = DIRECTION ( 'NONE',  ( 0.0000000000000000000, 0.0000000000000000000, -1.000000000000000000 ) ) ;
#4 = DIRECTION ( 'NONE',  ( -0.0000000000000000000, -0.0000000000000000000, -1.000000000000000000 ) ) ;
#5 = ORIENTED_EDGE ( 'NONE', *, *, #104, .F. ) ;
#6 = AXIS2_PLACEMENT_3D ( 'NONE', #49, #208, #141 ) ;
#7 = FACE_OUTER_BOUND ( 'NONE', #134, .T. ) ;
#8 = CYLINDRICAL_SURFACE ( 'NONE', #23, 0.06250000000000000000 ) ;
#9 = CARTESIAN_POINT ( 'NONE',  ( 0.06243750000000002770, 0.0000000000000000000, 0.2500000000000000000 ) ) ;
#10 = DIRECTION ( 'NONE',  ( -0.0000000000000000000, -0.0000000000000000000, -1.000000000000000000 ) ) ;
#11 = DIRECTION ( 'NONE',  ( -0.0000000000000000000, -0.0000000000000000000, -1.000000000000000000 ) ) ;
#12 = ORIENTED_EDGE ( 'NONE', *, *, #296, .F. ) ;
#13 = AXIS2_PLACEMENT_3D ( 'NONE', #228, #24, #22 ) ;
#14 = AXIS2_PLACEMENT_3D ( 'NONE', #164, #4, #187 ) ;
#15 = EDGE_LOOP ( 'NONE', ( #110, #225, #275, #179 ) ) ;
#16 =( LENGTH_UNIT ( ) NAMED_UNIT ( * ) SI_UNIT ( $, .METRE. ) );
#17 = EDGE_CURVE ( 'NONE', #149, #202, #177, .T. ) ;
#18 = ORIENTED_EDGE ( 'NONE', *, *, #143, .F. ) ;
#19 = AXIS2_PLACEMENT_3D ( 'NONE', #130, #175, #194 ) ;
#20 = ORIENTED_EDGE ( 'NONE', *, *, #224, .F. ) ;
#21 = DIRECTION ( 'NONE',  ( -0.1736481776669310251, 2.126576849575781468E-17, 0.9848077530122080203 ) ) ;
#22 = DIRECTION ( 'NONE',  ( 1.000000000000000000, 0.0000000000000000000, 0.0000000000000000000 ) ) ;
#23 = AXIS2_PLACEMENT_3D ( 'NONE', #264, #10, #291 ) ;
#24 = DIRECTION ( 'NONE',  ( -1.224646799147353454E-16, -0.0000000000000000000, -1.000000000000000000 ) ) ;
#25 = CARTESIAN_POINT ( 'NONE',  ( 0.0000000000000000000, 0.0000000000000000000, 1.500000000000000222 ) ) ;
#26 =( NAMED_UNIT ( * ) PLANE_ANGLE_UNIT ( ) SI_UNIT ( $, .RADIAN. ) );
#27 = DIRECTION ( 'NONE',  ( -1.000000000000000000, 0.0000000000000000000, 0.0000000000000000000 ) ) ;
#28 = DIRECTION ( 'NONE',  ( 1.000000000000000000, 0.0000000000000000000, -0.0000000000000000000 ) ) ;
#29 =( LENGTH_UNIT ( ) NAMED_UNIT ( * ) SI_UNIT ( $, .METRE. ) );
#30 = AXIS2_PLACEMENT_3D ( 'NONE', #260, #192, #28 ) ;
#31 = EDGE_CURVE ( 'NONE', #103, #246, #35, .T. ) ;
#32 = VERTEX_POINT ( 'NONE', #299 ) ;
#33 = EDGE_CURVE ( 'NONE', #246, #176, #41, .T. ) ;
#34 = ORIENTED_EDGE ( 'NONE', *, *, #43, .T. ) ;
#35 = CIRCLE ( 'NONE', #57, 0.06243749999999999301 ) ;
#36 = AXIS2_PLACEMENT_3D ( 'NONE', #214, #198, #272 ) ;
#37 = EDGE_CURVE ( 'NONE', #103, #259, #274, .T. ) ;
#38 = APPLICATION_CONTEXT ( 'automotive_design' ) ;
#39 = EDGE_LOOP ( 'NONE', ( #189, #201 ) ) ;
#40 = ORIENTED_EDGE ( 'NONE', *, *, #167, .T. ) ;
#41 = LINE ( 'NONE', #205, #89 ) ;
#42 = DIRECTION ( 'NONE',  ( 0.0000000000000000000, 0.0000000000000000000, 1.000000000000000000 ) ) ;
#43 = EDGE_CURVE ( 'NONE', #202, #149, #188, .T. ) ;
#44 = FACE_OUTER_BOUND ( 'NONE', #294, .T. ) ;
#45 = CARTESIAN_POINT ( 'NONE',  ( -0.04750000000000064587, 0.0000000000000000000, 1.500000000000000222 ) ) ;
#46 = VECTOR ( 'NONE', #21, 39.37007874015748854 ) ;
#47 =( GEOMETRIC_REPRESENTATION_CONTEXT ( 3 ) GLOBAL_UNCERTAINTY_ASSIGNED_CONTEXT ( ( #139 ) ) GLOBAL_UNIT_ASSIGNED_CONTEXT ( ( #51, #26, #168 ) ) REPRESENTATION_CONTEXT ( 'NONE', 'WORKASPACE' ) );
#48 = DIRECTION ( 'NONE',  ( -1.000000000000000000, 0.0000000000000000000, 0.0000000000000000000 ) ) ;
#49 = CARTESIAN_POINT ( 'NONE',  ( 9.364125142994979186E-34, 0.0000000000000000000, 7.646388452176288915E-18 ) ) ;
#50 = VECTOR ( 'NONE', #11, 39.37007874015748143 ) ;
#51 =( CONVERSION_BASED_UNIT ( 'INCH', #71 ) LENGTH_UNIT ( ) NAMED_UNIT ( #120 ) );
#52 = DIRECTION ( 'NONE',  ( 0.0000000000000000000, 0.0000000000000000000, -1.000000000000000000 ) ) ;
#53 =( NAMED_UNIT ( * ) PLANE_ANGLE_UNIT ( ) SI_UNIT ( $, .RADIAN. ) );
#54 = DIMENSIONAL_EXPONENTS ( 1.000000000000000000, 0.0000000000000000000, 0.0000000000000000000, 0.0000000000000000000, 0.0000000000000000000, 0.0000000000000000000, 0.0000000000000000000 ) ;
#55 = PRODUCT_RELATED_PRODUCT_CATEGORY ( 'part', '', ( #266 ) ) ;
#56 = DIRECTION ( 'NONE',  ( 0.0000000000000000000, 0.0000000000000000000, 1.000000000000000000 ) ) ;
#57 = AXIS2_PLACEMENT_3D ( 'NONE', #85, #186, #48 ) ;
#58 = MECHANICAL_DESIGN_GEOMETRIC_PRESENTATION_REPRESENTATION (  '', ( #255 ), #229 ) ;
#59 = EDGE_LOOP ( 'NONE', ( #219, #200, #218, #108 ) ) ;
#60 = CARTESIAN_POINT ( 'NONE',  ( -0.06243749999999995831, 7.650215473423621689E-18, 0.2500000000000000000 ) ) ;
#61 = DIRECTION ( 'NONE',  ( -1.000000000000000000, 0.0000000000000000000, 0.0000000000000000000 ) ) ;
#62 = PRESENTATION_LAYER_ASSIGNMENT (  '', '', ( #195 ) ) ;
#63 = FACE_OUTER_BOUND ( 'NONE', #70, .T. ) ;
#64 = EDGE_CURVE ( 'NONE', #166, #259, #221, .T. ) ;
#65 = DIRECTION ( 'NONE',  ( 1.000000000000000000, 0.0000000000000000000, 0.0000000000000000000 ) ) ;
#66 = CARTESIAN_POINT ( 'NONE',  ( 0.0000000000000000000, 0.0000000000000000000, 0.0000000000000000000 ) ) ;
#67 = CONICAL_SURFACE ( 'NONE', #289, 0.06243749999999999301, 0.1745329251994337527 ) ;
#68 = LINE ( 'NONE', #245, #250 ) ;
#69 = DIRECTION ( 'NONE',  ( -1.000000000000000000, 0.0000000000000000000, 1.224646799147353700E-16 ) ) ;
#70 = EDGE_LOOP ( 'NONE', ( #112, #242, #267, #80 ) ) ;
#71 = LENGTH_MEASURE_WITH_UNIT ( LENGTH_MEASURE( 0.02539999999999999897 ), #29 );
#72 = CARTESIAN_POINT ( 'NONE',  ( 3.061616997868383634E-17, 0.0000000000000000000, 0.2500000000000000000 ) ) ;
#73 = CARTESIAN_POINT ( 'NONE',  ( 0.0000000000000000000, 0.0000000000000000000, 0.0000000000000000000 ) ) ;
#74 = EDGE_CURVE ( 'NONE', #197, #202, #252, .T. ) ;
#75 = ORIENTED_EDGE ( 'NONE', *, *, #33, .T. ) ;
#76 =( CONVERSION_BASED_UNIT ( 'INCH', #292 ) LENGTH_UNIT ( ) NAMED_UNIT ( #132 ) );
#77 = ORIENTED_EDGE ( 'NONE', *, *, #104, .T. ) ;
#78 =( NAMED_UNIT ( * ) SI_UNIT ( $, .STERADIAN. ) SOLID_ANGLE_UNIT ( ) );
#79 = LINE ( 'NONE', #269, #50 ) ;
#80 = ORIENTED_EDGE ( 'NONE', *, *, #253, .F. ) ;
#81 = PRODUCT_DEFINITION_SHAPE ( 'NONE', 'NONE',  #213 ) ;
#82 = AXIS2_PLACEMENT_3D ( 'NONE', #66, #180, #256 ) ;
#83 = VECTOR ( 'NONE', #236, 39.37007874015748143 ) ;
#84 = SURFACE_STYLE_USAGE ( .BOTH. , #109 ) ;
#85 = CARTESIAN_POINT ( 'NONE',  ( 3.061616997868383634E-17, 0.0000000000000000000, 0.2500000000000000000 ) ) ;
#86 = ORIENTED_EDGE ( 'NONE', *, *, #282, .T. ) ;
#87 = VERTEX_POINT ( 'NONE', #45 ) ;
#88 = EDGE_LOOP ( 'NONE', ( #156, #34, #40, #147 ) ) ;
#89 = VECTOR ( 'NONE', #140, 39.37007874015748143 ) ;
#90 = FILL_AREA_STYLE ('',( #2 ) ) ;
#91 = ADVANCED_FACE ( 'NONE', ( #181 ), #281, .T. ) ;
#92 = DIRECTION ( 'NONE',  ( 0.7071067811865456854, 8.659560562354911904E-17, -0.7071067811865493491 ) ) ;
#93 = LINE ( 'NONE', #148, #184 ) ;
#94 = AXIS2_PLACEMENT_3D ( 'NONE', #138, #278, #135 ) ;
#95 = PLANE ( 'NONE',  #30 ) ;
#96 = ADVANCED_FACE ( 'NONE', ( #44 ), #223, .T. ) ;
#97 = CARTESIAN_POINT ( 'NONE',  ( 0.06250000000000000000, 7.654042494670956004E-18, 1.485000000000000764 ) ) ;
#98 = CARTESIAN_POINT ( 'NONE',  ( 0.06250000000000002776, 7.654042494670959086E-18, 0.2503544551137261154 ) ) ;
#99 = PRODUCT_DEFINITION_FORMATION_WITH_SPECIFIED_SOURCE ( 'ANY', '', #266, .NOT_KNOWN. ) ;
#100 = FACE_OUTER_BOUND ( 'NONE', #155, .T. ) ;
#101 = UNCERTAINTY_MEASURE_WITH_UNIT (LENGTH_MEASURE( 1.000000000000000082E-05 ), #178, 'distance_accuracy_value', 'NONE');
#102 = ORIENTED_EDGE ( 'NONE', *, *, #196, .T. ) ;
#103 = VERTEX_POINT ( 'NONE', #60 ) ;
#104 = EDGE_CURVE ( 'NONE', #246, #103, #203, .T. ) ;
#105 = ORIENTED_EDGE ( 'NONE', *, *, #167, .F. ) ;
#106 = ORIENTED_EDGE ( 'NONE', *, *, #17, .T. ) ;
#107 =( NAMED_UNIT ( * ) SI_UNIT ( $, .STERADIAN. ) SOLID_ANGLE_UNIT ( ) );
#108 = ORIENTED_EDGE ( 'NONE', *, *, #43, .F. ) ;
#109 = SURFACE_SIDE_STYLE ('',( #117 ) ) ;
#110 = ORIENTED_EDGE ( 'NONE', *, *, #31, .F. ) ;
#111 = ADVANCED_BREP_SHAPE_REPRESENTATION ( 'Micro_SFP-125-22', ( #150, #131 ), #262 ) ;
#112 = ORIENTED_EDGE ( 'NONE', *, *, #142, .F. ) ;
#113 = CARTESIAN_POINT ( 'NONE',  ( 3.061616997868383634E-17, 0.0000000000000000000, 0.2500000000000000000 ) ) ;
#114 = DIRECTION ( 'NONE',  ( 1.000000000000000000, 0.0000000000000000000, -0.0000000000000000000 ) ) ;
#115 = ADVANCED_FACE ( 'NONE', ( #63 ), #261, .T. ) ;
#116 = CARTESIAN_POINT ( 'NONE',  ( -0.06250000000000000000, 0.0000000000000000000, 1.485000000000000764 ) ) ;
#117 = SURFACE_STYLE_FILL_AREA ( #279 ) ;
#118 = DIRECTION ( 'NONE',  ( 1.000000000000000000, 0.0000000000000000000, 0.0000000000000000000 ) ) ;
#119 = DIRECTION ( 'NONE',  ( 0.0000000000000000000, 0.0000000000000000000, -1.000000000000000000 ) ) ;
#120 = DIMENSIONAL_EXPONENTS ( 1.000000000000000000, 0.0000000000000000000, 0.0000000000000000000, 0.0000000000000000000, 0.0000000000000000000, 0.0000000000000000000, 0.0000000000000000000 ) ;
#121 = LINE ( 'NONE', #206, #83 ) ;
#122 = PRODUCT_DEFINITION_CONTEXT ( 'detailed design', #257, 'design' ) ;
#123 = AXIS2_PLACEMENT_3D ( 'NONE', #251, #42, #137 ) ;
#124 = FACE_OUTER_BOUND ( 'NONE', #39, .T. ) ;
#125 = ORIENTED_EDGE ( 'NONE', *, *, #31, .T. ) ;
#126 = DIRECTION ( 'NONE',  ( 0.1736481776669312471, 0.0000000000000000000, 0.9848077530122077983 ) ) ;
#127 = VECTOR ( 'NONE', #151, 39.37007874015748143 ) ;
#128 = APPLICATION_PROTOCOL_DEFINITION ( 'draft international standard', 'automotive_design', 1998, #38 ) ;
#129 = CARTESIAN_POINT ( 'NONE',  ( -0.06249999999999996531, 0.0000000000000000000, 0.2503544551137261154 ) ) ;
#130 = CARTESIAN_POINT ( 'NONE',  ( 9.364125142994979186E-34, 0.0000000000000000000, 7.646388452176288915E-18 ) ) ;
#131 = AXIS2_PLACEMENT_3D ( 'NONE', #73, #56, #271 ) ;
#132 = DIMENSIONAL_EXPONENTS ( 1.000000000000000000, 0.0000000000000000000, 0.0000000000000000000, 0.0000000000000000000, 0.0000000000000000000, 0.0000000000000000000, 0.0000000000000000000 ) ;
#133 = DIRECTION ( 'NONE',  ( -0.7071067811865456854, 0.0000000000000000000, -0.7071067811865493491 ) ) ;
#134 = EDGE_LOOP ( 'NONE', ( #211, #5, #297, #169 ) ) ;
#135 = DIRECTION ( 'NONE',  ( 1.000000000000000000, 0.0000000000000000000, 0.0000000000000000000 ) ) ;
#136 = CONICAL_SURFACE ( 'NONE', #1, 0.06243749999999999301, 0.1745329251994337527 ) ;
#137 = DIRECTION ( 'NONE',  ( 1.000000000000000000, 0.0000000000000000000, 0.0000000000000000000 ) ) ;
#138 = CARTESIAN_POINT ( 'NONE',  ( 3.065957821073044867E-17, 0.0000000000000000000, 0.2503544551137261154 ) ) ;
#139 = UNCERTAINTY_MEASURE_WITH_UNIT (LENGTH_MEASURE( 1.000000000000000082E-05 ), #51, 'distance_accuracy_value', 'NONE');
#140 = DIRECTION ( 'NONE',  ( -1.224646799147353454E-16, -0.0000000000000000000, -1.000000000000000000 ) ) ;
#141 = DIRECTION ( 'NONE',  ( -1.000000000000000000, 0.0000000000000000000, 1.224646799147353207E-16 ) ) ;
#142 = EDGE_CURVE ( 'NONE', #197, #87, #207, .T. ) ;
#143 = EDGE_CURVE ( 'NONE', #259, #166, #293, .T. ) ;
#144 = CARTESIAN_POINT ( 'NONE',  ( 0.0000000000000000000, 0.0000000000000000000, 0.0000000000000000000 ) ) ;
#145 = UNCERTAINTY_MEASURE_WITH_UNIT (LENGTH_MEASURE( 1.000000000000000082E-05 ), #76, 'distance_accuracy_value', 'NONE');
#146 = DIRECTION ( 'NONE',  ( -1.224646799147353454E-16, -0.0000000000000000000, -1.000000000000000000 ) ) ;
#147 = ORIENTED_EDGE ( 'NONE', *, *, #64, .F. ) ;
#148 = CARTESIAN_POINT ( 'NONE',  ( 0.06243750000000002770, 0.0000000000000000000, 0.2500000000000000000 ) ) ;
#149 = VERTEX_POINT ( 'NONE', #116 ) ;
#150 = MANIFOLD_SOLID_BREP ( 'Cut-Revolve1', #243 ) ;
#151 = DIRECTION ( 'NONE',  ( -0.0000000000000000000, -0.0000000000000000000, -1.000000000000000000 ) ) ;
#152 = APPLICATION_PROTOCOL_DEFINITION ( 'draft international standard', 'automotive_design', 1998, #257 ) ;
#153 = ORIENTED_EDGE ( 'NONE', *, *, #142, .T. ) ;
#154 = LENGTH_MEASURE_WITH_UNIT ( LENGTH_MEASURE( 0.02539999999999999897 ), #216 );
#155 = EDGE_LOOP ( 'NONE', ( #106, #270, #18, #105 ) ) ;
#156 = ORIENTED_EDGE ( 'NONE', *, *, #290, .F. ) ;
#157 = EDGE_LOOP ( 'NONE', ( #125, #75, #12, #217 ) ) ;
#158 = DIRECTION ( 'NONE',  ( -1.224646799147353454E-16, -0.0000000000000000000, -1.000000000000000000 ) ) ;
#159 = COLOUR_RGB ( '',0.7921568627450980005, 0.8196078431372548767, 0.9333333333333333481 ) ;
#160 = CARTESIAN_POINT ( 'NONE',  ( -0.06243749999999995831, 7.646388452176285834E-18, 0.2500000000000000000 ) ) ;
#161 = CARTESIAN_POINT ( 'NONE',  ( 0.0000000000000000000, 0.0000000000000000000, 1.485000000000000764 ) ) ;
#162 = SURFACE_STYLE_USAGE ( .BOTH. , #280 ) ;
#163 = CARTESIAN_POINT ( 'NONE',  ( 0.0000000000000000000, 0.0000000000000000000, 1.485000000000000764 ) ) ;
#164 = CARTESIAN_POINT ( 'NONE',  ( 0.0000000000000000000, 0.0000000000000000000, 1.500000000000000222 ) ) ;
#165 = CARTESIAN_POINT ( 'NONE',  ( 0.04750000000000064587, 6.735557395310482421E-18, 1.500000000000000222 ) ) ;
#166 = VERTEX_POINT ( 'NONE', #98 ) ;
#167 = EDGE_CURVE ( 'NONE', #149, #259, #204, .T. ) ;
#168 =( NAMED_UNIT ( * ) SI_UNIT ( $, .STERADIAN. ) SOLID_ANGLE_UNIT ( ) );
#169 = ORIENTED_EDGE ( 'NONE', *, *, #64, .T. ) ;
#170 = ADVANCED_FACE ( 'NONE', ( #7 ), #136, .T. ) ;
#171 = ORIENTED_EDGE ( 'NONE', *, *, #33, .F. ) ;
#172 = VECTOR ( 'NONE', #92, 39.37007874015748143 ) ;
#173 = COLOUR_RGB ( '',0.7921568627450980005, 0.8196078431372548767, 0.9333333333333333481 ) ;
#174 = ADVANCED_FACE ( 'NONE', ( #258 ), #209, .T. ) ;
#175 = DIRECTION ( 'NONE',  ( -1.224646799147353454E-16, -0.0000000000000000000, -1.000000000000000000 ) ) ;
#176 = VERTEX_POINT ( 'NONE', #210 ) ;
#177 = CIRCLE ( 'NONE', #287, 0.06250000000000000000 ) ;
#178 =( CONVERSION_BASED_UNIT ( 'INCH', #154 ) LENGTH_UNIT ( ) NAMED_UNIT ( #54 ) );
#179 = ORIENTED_EDGE ( 'NONE', *, *, #238, .F. ) ;
#180 = DIRECTION ( 'NONE',  ( -1.224646799147353454E-16, -0.0000000000000000000, -1.000000000000000000 ) ) ;
#181 = FACE_OUTER_BOUND ( 'NONE', #240, .T. ) ;
#182 = AXIS2_PLACEMENT_3D ( 'NONE', #163, #3, #65 ) ;
#183 = DIRECTION ( 'NONE',  ( 0.0000000000000000000, 0.0000000000000000000, -1.000000000000000000 ) ) ;
#184 = VECTOR ( 'NONE', #126, 39.37007874015748143 ) ;
#185 = SURFACE_STYLE_FILL_AREA ( #90 ) ;
#186 = DIRECTION ( 'NONE',  ( -1.224646799147353454E-16, -0.0000000000000000000, -1.000000000000000000 ) ) ;
#187 = DIRECTION ( 'NONE',  ( -1.000000000000000000, 0.0000000000000000000, 0.0000000000000000000 ) ) ;
#188 = CIRCLE ( 'NONE', #182, 0.06250000000000000000 ) ;
#189 = ORIENTED_EDGE ( 'NONE', *, *, #296, .T. ) ;
#190 = CARTESIAN_POINT ( 'NONE',  ( 0.0000000000000000000, 0.0000000000000000000, 1.500000000000000222 ) ) ;
#191 = DIRECTION ( 'NONE',  ( 1.224646799147353454E-16, 0.0000000000000000000, 1.000000000000000000 ) ) ;
#192 = DIRECTION ( 'NONE',  ( 0.0000000000000000000, 0.0000000000000000000, 1.000000000000000000 ) ) ;
#193 = ADVANCED_FACE ( 'NONE', ( #100 ), #8, .T. ) ;
#194 = DIRECTION ( 'NONE',  ( -1.000000000000000000, 0.0000000000000000000, 1.224646799147353207E-16 ) ) ;
#195 = STYLED_ITEM ( 'NONE', ( #254 ), #150 ) ;
#196 = EDGE_CURVE ( 'NONE', #103, #32, #121, .T. ) ;
#197 = VERTEX_POINT ( 'NONE', #165 ) ;
#198 = DIRECTION ( 'NONE',  ( 0.0000000000000000000, 0.0000000000000000000, 1.000000000000000000 ) ) ;
#199 = CIRCLE ( 'NONE', #6, 0.06243750000000001382 ) ;
#200 = ORIENTED_EDGE ( 'NONE', *, *, #282, .F. ) ;
#201 = ORIENTED_EDGE ( 'NONE', *, *, #224, .T. ) ;
#202 = VERTEX_POINT ( 'NONE', #97 ) ;
#203 = CIRCLE ( 'NONE', #212, 0.06243749999999999301 ) ;
#204 = LINE ( 'NONE', #263, #127 ) ;
#205 = CARTESIAN_POINT ( 'NONE',  ( 0.06243749999999999994, 7.646388452176287375E-18, -7.646388452176288915E-18 ) ) ;
#206 = CARTESIAN_POINT ( 'NONE',  ( -0.06243749999999999994, 0.0000000000000000000, 7.646388452176288915E-18 ) ) ;
#207 = CIRCLE ( 'NONE', #123, 0.04750000000000064587 ) ;
#208 = DIRECTION ( 'NONE',  ( -1.224646799147353454E-16, -0.0000000000000000000, -1.000000000000000000 ) ) ;
#209 = CYLINDRICAL_SURFACE ( 'NONE', #273, 0.06243749999999999994 ) ;
#210 = CARTESIAN_POINT ( 'NONE',  ( 0.06243750000000001382, 7.646388452176287375E-18, 0.0000000000000000000 ) ) ;
#211 = ORIENTED_EDGE ( 'NONE', *, *, #37, .F. ) ;
#212 = AXIS2_PLACEMENT_3D ( 'NONE', #113, #158, #230 ) ;
#213 = PRODUCT_DEFINITION ( 'UNKNOWN', '', #99, #122 ) ;
#214 = CARTESIAN_POINT ( 'NONE',  ( 0.0000000000000000000, 0.0000000000000000000, 1.500000000000000222 ) ) ;
#215 = CIRCLE ( 'NONE', #36, 0.04750000000000064587 ) ;
#216 =( LENGTH_UNIT ( ) NAMED_UNIT ( * ) SI_UNIT ( $, .METRE. ) );
#217 = ORIENTED_EDGE ( 'NONE', *, *, #196, .F. ) ;
#218 = ORIENTED_EDGE ( 'NONE', *, *, #253, .T. ) ;
#219 = ORIENTED_EDGE ( 'NONE', *, *, #74, .F. ) ;
#220 = ADVANCED_FACE ( 'NONE', ( #232 ), #231, .T. ) ;
#221 = CIRCLE ( 'NONE', #94, 0.06250000000000000000 ) ;
#222 = CONICAL_SURFACE ( 'NONE', #244, 0.04750000000000064587, 0.7853981633974457255 ) ;
#223 = PLANE ( 'NONE',  #268 ) ;
#224 = EDGE_CURVE ( 'NONE', #176, #32, #199, .T. ) ;
#225 = ORIENTED_EDGE ( 'NONE', *, *, #37, .T. ) ;
#226 = ADVANCED_FACE ( 'NONE', ( #283 ), #222, .T. ) ;
#227 = FILL_AREA_STYLE_COLOUR ( '', #173 ) ;
#228 = CARTESIAN_POINT ( 'NONE',  ( 3.065957821073044867E-17, 0.0000000000000000000, 0.2503544551137261154 ) ) ;
#229 =( GEOMETRIC_REPRESENTATION_CONTEXT ( 3 ) GLOBAL_UNCERTAINTY_ASSIGNED_CONTEXT ( ( #145 ) ) GLOBAL_UNIT_ASSIGNED_CONTEXT ( ( #76, #53, #78 ) ) REPRESENTATION_CONTEXT ( 'NONE', 'WORKASPACE' ) );
#230 = DIRECTION ( 'NONE',  ( -1.000000000000000000, 0.0000000000000000000, 0.0000000000000000000 ) ) ;
#231 = CYLINDRICAL_SURFACE ( 'NONE', #14, 0.06250000000000000000 ) ;
#232 = FACE_OUTER_BOUND ( 'NONE', #88, .T. ) ;
#233 = MECHANICAL_DESIGN_GEOMETRIC_PRESENTATION_REPRESENTATION (  '', ( #195 ), #47 ) ;
#234 = PRESENTATION_LAYER_ASSIGNMENT (  '', '', ( #255 ) ) ;
#235 = ADVANCED_FACE ( 'NONE', ( #124 ), #95, .F. ) ;
#236 = DIRECTION ( 'NONE',  ( -1.224646799147353454E-16, -0.0000000000000000000, -1.000000000000000000 ) ) ;
#237 = DIRECTION ( 'NONE',  ( 1.000000000000000000, 0.0000000000000000000, 0.0000000000000000000 ) ) ;
#238 = EDGE_CURVE ( 'NONE', #246, #166, #93, .T. ) ;
#239 = DIRECTION ( 'NONE',  ( 1.224646799147353454E-16, 0.0000000000000000000, 1.000000000000000000 ) ) ;
#240 = EDGE_LOOP ( 'NONE', ( #171, #77, #102, #20 ) ) ;
#241 = SHAPE_DEFINITION_REPRESENTATION ( #81, #111 ) ;
#242 = ORIENTED_EDGE ( 'NONE', *, *, #74, .T. ) ;
#243 = CLOSED_SHELL ( 'NONE', ( #174, #248, #115, #193, #220, #96, #226, #170, #91, #235 ) ) ;
#244 = AXIS2_PLACEMENT_3D ( 'NONE', #190, #52, #27 ) ;
#245 = CARTESIAN_POINT ( 'NONE',  ( -0.04750000000000064587, 0.0000000000000000000, 1.500000000000000222 ) ) ;
#246 = VERTEX_POINT ( 'NONE', #9 ) ;
#247 = CARTESIAN_POINT ( 'NONE',  ( 0.0000000000000000000, 0.0000000000000000000, 1.500000000000000222 ) ) ;
#248 = ADVANCED_FACE ( 'NONE', ( #288 ), #67, .T. ) ;
#249 = AXIS2_PLACEMENT_3D ( 'NONE', #25, #119, #61 ) ;
#250 = VECTOR ( 'NONE', #133, 39.37007874015748143 ) ;
#251 = CARTESIAN_POINT ( 'NONE',  ( 0.0000000000000000000, 0.0000000000000000000, 1.500000000000000222 ) ) ;
#252 = LINE ( 'NONE', #298, #172 ) ;
#253 = EDGE_CURVE ( 'NONE', #87, #149, #68, .T. ) ;
#254 = PRESENTATION_STYLE_ASSIGNMENT (( #162 ) ) ;
#255 = STYLED_ITEM ( 'NONE', ( #286 ), #111 ) ;
#256 = DIRECTION ( 'NONE',  ( -1.000000000000000000, 0.0000000000000000000, 1.224646799147353700E-16 ) ) ;
#257 = APPLICATION_CONTEXT ( 'automotive_design' ) ;
#258 = FACE_OUTER_BOUND ( 'NONE', #157, .T. ) ;
#259 = VERTEX_POINT ( 'NONE', #129 ) ;
#260 = CARTESIAN_POINT ( 'NONE',  ( 0.0000000000000000000, 0.0000000000000000000, 0.0000000000000000000 ) ) ;
#261 = CONICAL_SURFACE ( 'NONE', #249, 0.04750000000000064587, 0.7853981633974457255 ) ;
#262 =( GEOMETRIC_REPRESENTATION_CONTEXT ( 3 ) GLOBAL_UNCERTAINTY_ASSIGNED_CONTEXT ( ( #101 ) ) GLOBAL_UNIT_ASSIGNED_CONTEXT ( ( #178, #295, #107 ) ) REPRESENTATION_CONTEXT ( 'NONE', 'WORKASPACE' ) );
#263 = CARTESIAN_POINT ( 'NONE',  ( -0.06250000000000000000, 0.0000000000000000000, 1.500000000000000222 ) ) ;
#264 = CARTESIAN_POINT ( 'NONE',  ( 0.0000000000000000000, 0.0000000000000000000, 1.500000000000000222 ) ) ;
#265 = PRODUCT_CONTEXT ( 'NONE', #38, 'mechanical' ) ;
#266 = PRODUCT ( 'Micro_SFP-125-22', 'Micro_SFP-125-22', '', ( #265 ) ) ;
#267 = ORIENTED_EDGE ( 'NONE', *, *, #17, .F. ) ;
#268 = AXIS2_PLACEMENT_3D ( 'NONE', #247, #276, #114 ) ;
#269 = CARTESIAN_POINT ( 'NONE',  ( 0.06250000000000000000, 7.654042494670956004E-18, 1.500000000000000222 ) ) ;
#270 = ORIENTED_EDGE ( 'NONE', *, *, #290, .T. ) ;
#271 = DIRECTION ( 'NONE',  ( 1.000000000000000000, 0.0000000000000000000, 0.0000000000000000000 ) ) ;
#272 = DIRECTION ( 'NONE',  ( 1.000000000000000000, 0.0000000000000000000, 0.0000000000000000000 ) ) ;
#273 = AXIS2_PLACEMENT_3D ( 'NONE', #144, #146, #69 ) ;
#274 = LINE ( 'NONE', #160, #46 ) ;
#275 = ORIENTED_EDGE ( 'NONE', *, *, #143, .T. ) ;
#276 = DIRECTION ( 'NONE',  ( 0.0000000000000000000, 0.0000000000000000000, 1.000000000000000000 ) ) ;
#277 = CIRCLE ( 'NONE', #19, 0.06243750000000001382 ) ;
#278 = DIRECTION ( 'NONE',  ( -1.224646799147353454E-16, -0.0000000000000000000, -1.000000000000000000 ) ) ;
#279 = FILL_AREA_STYLE ('',( #227 ) ) ;
#280 = SURFACE_SIDE_STYLE ('',( #185 ) ) ;
#281 = CYLINDRICAL_SURFACE ( 'NONE', #82, 0.06243749999999999994 ) ;
#282 = EDGE_CURVE ( 'NONE', #87, #197, #215, .T. ) ;
#283 = FACE_OUTER_BOUND ( 'NONE', #59, .T. ) ;
#284 = DIRECTION ( 'NONE',  ( 1.000000000000000000, 0.0000000000000000000, 0.0000000000000000000 ) ) ;
#285 = CARTESIAN_POINT ( 'NONE',  ( 3.061616997868383634E-17, 0.0000000000000000000, 0.2500000000000000000 ) ) ;
#286 = PRESENTATION_STYLE_ASSIGNMENT (( #84 ) ) ;
#287 = AXIS2_PLACEMENT_3D ( 'NONE', #161, #183, #118 ) ;
#288 = FACE_OUTER_BOUND ( 'NONE', #15, .T. ) ;
#289 = AXIS2_PLACEMENT_3D ( 'NONE', #72, #239, #237 ) ;
#290 = EDGE_CURVE ( 'NONE', #202, #166, #79, .T. ) ;
#291 = DIRECTION ( 'NONE',  ( -1.000000000000000000, 0.0000000000000000000, 0.0000000000000000000 ) ) ;
#292 = LENGTH_MEASURE_WITH_UNIT ( LENGTH_MEASURE( 0.02539999999999999897 ), #16 );
#293 = CIRCLE ( 'NONE', #13, 0.06250000000000000000 ) ;
#294 = EDGE_LOOP ( 'NONE', ( #86, #153 ) ) ;
#295 =( NAMED_UNIT ( * ) PLANE_ANGLE_UNIT ( ) SI_UNIT ( $, .RADIAN. ) );
#296 = EDGE_CURVE ( 'NONE', #32, #176, #277, .T. ) ;
#297 = ORIENTED_EDGE ( 'NONE', *, *, #238, .T. ) ;
#298 = CARTESIAN_POINT ( 'NONE',  ( 0.04750000000000064587, 5.817072295950006528E-18, 1.500000000000000222 ) ) ;
#299 = CARTESIAN_POINT ( 'NONE',  ( -0.06243750000000001382, 0.0000000000000000000, 1.529277690435257783E-17 ) ) ;
ENDSEC;
END-ISO-10303-21;
