ISO-10303-21;
HEADER;
FILE_DESCRIPTION (( 'STEP AP214' ),
    '1' );
FILE_NAME ('03690.STEP',
    '2023-06-22T15:39:33',
    ( '' ),
    ( '' ),
    'SwSTEP 2.0',
    'SolidWorks 2023',
    '' );
FILE_SCHEMA (( 'AUTOMOTIVE_DESIGN' ));
ENDSEC;

DATA;
#1 = VECTOR ( 'NONE', #79, 39.37007874015748143 ) ;
#2 = STYLED_ITEM ( 'NONE', ( #25 ), #247 ) ;
#3 =( CONVERSION_BASED_UNIT ( 'INCH', #21 ) LENGTH_UNIT ( ) NAMED_UNIT ( #250 ) );
#4 = DIRECTION ( 'NONE',  ( 0.000000000000000000, 0.000000000000000000, -1.000000000000000000 ) ) ;
#5 = CYLINDRICAL_SURFACE ( 'NONE', #146, 0.3750000000000000555 ) ;
#6 = AXIS2_PLACEMENT_3D ( 'NONE', #123, #195, #147 ) ;
#7 = LENGTH_MEASURE_WITH_UNIT ( LENGTH_MEASURE( 0.02539999999999999897 ), #83 );
#8 = DIRECTION ( 'NONE',  ( -0.000000000000000000, -1.000000000000000000, -0.000000000000000000 ) ) ;
#9 = VECTOR ( 'NONE', #100, 39.37007874015748143 ) ;
#10 = CARTESIAN_POINT ( 'NONE',  ( 0.3749999999999999445, 6.000000000000000888, 4.592425496802576068E-17 ) ) ;
#11 = CARTESIAN_POINT ( 'NONE',  ( 0.3750000000000000555, 6.000000000000000888, 0.000000000000000000 ) ) ;
#12 = PRESENTATION_LAYER_ASSIGNMENT (  '', '', ( #214 ) ) ;
#13 = DIRECTION ( 'NONE',  ( -1.000000000000000000, 0.000000000000000000, 0.000000000000000000 ) ) ;
#14 = COLOUR_RGB ( '',1.000000000000000000, 0.000000000000000000, 0.000000000000000000 ) ;
#15 = ORIENTED_EDGE ( 'NONE', *, *, #132, .T. ) ;
#16 =( NAMED_UNIT ( * ) SI_UNIT ( $, .STERADIAN. ) SOLID_ANGLE_UNIT ( ) );
#17 = ORIENTED_EDGE ( 'NONE', *, *, #24, .T. ) ;
#18 = PRESENTATION_STYLE_ASSIGNMENT (( #208 ) ) ;
#19 = ORIENTED_EDGE ( 'NONE', *, *, #299, .F. ) ;
#20 =( LENGTH_UNIT ( ) NAMED_UNIT ( * ) SI_UNIT ( $, .METRE. ) );
#21 = LENGTH_MEASURE_WITH_UNIT ( LENGTH_MEASURE( 0.02539999999999999897 ), #286 );
#22 = CIRCLE ( 'NONE', #68, 0.3750000000000001665 ) ;
#23 = SURFACE_STYLE_USAGE ( .BOTH. , #144 ) ;
#24 = EDGE_CURVE ( 'NONE', #91, #231, #184, .T. ) ;
#25 = PRESENTATION_STYLE_ASSIGNMENT (( #71 ) ) ;
#26 = ADVANCED_BREP_SHAPE_REPRESENTATION ( '03690', ( #36, #247, #48 ), #235 ) ;
#27 =( NAMED_UNIT ( * ) SI_UNIT ( $, .STERADIAN. ) SOLID_ANGLE_UNIT ( ) );
#28 = DIRECTION ( 'NONE',  ( 0.000000000000000000, 0.000000000000000000, -1.000000000000000000 ) ) ;
#29 = CARTESIAN_POINT ( 'NONE',  ( 0.000000000000000000, 3.250000000000000000, 0.000000000000000000 ) ) ;
#30 =( NAMED_UNIT ( * ) PLANE_ANGLE_UNIT ( ) SI_UNIT ( $, .RADIAN. ) );
#31 = FACE_OUTER_BOUND ( 'NONE', #207, .T. ) ;
#32 =( GEOMETRIC_REPRESENTATION_CONTEXT ( 3 ) GLOBAL_UNCERTAINTY_ASSIGNED_CONTEXT ( ( #292 ) ) GLOBAL_UNIT_ASSIGNED_CONTEXT ( ( #157, #203, #86 ) ) REPRESENTATION_CONTEXT ( 'NONE', 'WORKASPACE' ) );
#33 = DIRECTION ( 'NONE',  ( -0.000000000000000000, -1.000000000000000000, -0.000000000000000000 ) ) ;
#34 = DIRECTION ( 'NONE',  ( 1.000000000000000000, 0.000000000000000000, 0.000000000000000000 ) ) ;
#35 =( NAMED_UNIT ( * ) SI_UNIT ( $, .STERADIAN. ) SOLID_ANGLE_UNIT ( ) );
#36 = MANIFOLD_SOLID_BREP ( 'Revolve - Cutting Edge', #192 ) ;
#37 = DIRECTION ( 'NONE',  ( 0.000000000000000000, 0.000000000000000000, -1.000000000000000000 ) ) ;
#38 = AXIS2_PLACEMENT_3D ( 'NONE', #43, #259, #308 ) ;
#39 = CARTESIAN_POINT ( 'NONE',  ( 0.000000000000000000, 0.000000000000000000, 0.000000000000000000 ) ) ;
#40 =( GEOMETRIC_REPRESENTATION_CONTEXT ( 3 ) GLOBAL_UNCERTAINTY_ASSIGNED_CONTEXT ( ( #223 ) ) GLOBAL_UNIT_ASSIGNED_CONTEXT ( ( #178, #156, #16 ) ) REPRESENTATION_CONTEXT ( 'NONE', 'WORKASPACE' ) );
#41 = DIRECTION ( 'NONE',  ( 0.000000000000000000, -0.000000000000000000, 1.000000000000000000 ) ) ;
#42 = ORIENTED_EDGE ( 'NONE', *, *, #205, .F. ) ;
#43 = CARTESIAN_POINT ( 'NONE',  ( -1.224646799147354440E-16, 6.000000000000000888, 0.000000000000000000 ) ) ;
#44 = PRODUCT_DEFINITION ( 'UNKNOWN', '', #88, #236 ) ;
#45 = ORIENTED_EDGE ( 'NONE', *, *, #74, .T. ) ;
#46 = UNCERTAINTY_MEASURE_WITH_UNIT (LENGTH_MEASURE( 1.000000000000000082E-05 ), #126, 'distance_accuracy_value', 'NONE');
#47 = ORIENTED_EDGE ( 'NONE', *, *, #109, .F. ) ;
#48 = AXIS2_PLACEMENT_3D ( 'NONE', #77, #128, #34 ) ;
#49 = FILL_AREA_STYLE ('',( #182 ) ) ;
#50 = EDGE_LOOP ( 'NONE', ( #281, #17 ) ) ;
#51 = AXIS2_PLACEMENT_3D ( 'NONE', #258, #277, #41 ) ;
#52 = PLANE ( 'NONE',  #6 ) ;
#53 = FACE_OUTER_BOUND ( 'NONE', #50, .T. ) ;
#54 = MECHANICAL_DESIGN_GEOMETRIC_PRESENTATION_REPRESENTATION (  '', ( #154 ), #40 ) ;
#55 = CARTESIAN_POINT ( 'NONE',  ( 4.592425496802575451E-17, 3.250000000000000000, 0.3750000000000000555 ) ) ;
#56 = PRODUCT_RELATED_PRODUCT_CATEGORY ( 'part', '', ( #164 ) ) ;
#57 = DIRECTION ( 'NONE',  ( -1.000000000000000000, 0.000000000000000000, 0.000000000000000000 ) ) ;
#58 = DIRECTION ( 'NONE',  ( -4.453261087808560759E-17, 1.000000000000000000, -0.000000000000000000 ) ) ;
#59 = AXIS2_PLACEMENT_3D ( 'NONE', #293, #174, #127 ) ;
#60 = APPLICATION_PROTOCOL_DEFINITION ( 'draft international standard', 'automotive_design', 1998, #171 ) ;
#61 = DIRECTION ( 'NONE',  ( -1.000000000000000000, -4.453261087808560759E-17, 0.000000000000000000 ) ) ;
#62 = AXIS2_PLACEMENT_3D ( 'NONE', #149, #253, #28 ) ;
#63 = APPLICATION_PROTOCOL_DEFINITION ( 'draft international standard', 'automotive_design', 1998, #103 ) ;
#64 = LENGTH_MEASURE_WITH_UNIT ( LENGTH_MEASURE( 0.02539999999999999897 ), #152 );
#65 = ADVANCED_FACE ( 'NONE', ( #227 ), #97, .T. ) ;
#66 = SURFACE_STYLE_FILL_AREA ( #273 ) ;
#67 = MECHANICAL_DESIGN_GEOMETRIC_PRESENTATION_REPRESENTATION (  '', ( #214 ), #175 ) ;
#68 = AXIS2_PLACEMENT_3D ( 'NONE', #120, #219, #57 ) ;
#69 = LENGTH_MEASURE_WITH_UNIT ( LENGTH_MEASURE( 0.02539999999999999897 ), #20 );
#70 = ORIENTED_EDGE ( 'NONE', *, *, #24, .F. ) ;
#71 = SURFACE_STYLE_USAGE ( .BOTH. , #245 ) ;
#72 = ORIENTED_EDGE ( 'NONE', *, *, #190, .T. ) ;
#73 = LENGTH_MEASURE_WITH_UNIT ( LENGTH_MEASURE( 0.02539999999999999897 ), #75 );
#74 = EDGE_CURVE ( 'NONE', #261, #186, #93, .T. ) ;
#75 =( LENGTH_UNIT ( ) NAMED_UNIT ( * ) SI_UNIT ( $, .METRE. ) );
#76 =( NAMED_UNIT ( * ) SI_UNIT ( $, .STERADIAN. ) SOLID_ANGLE_UNIT ( ) );
#77 = CARTESIAN_POINT ( 'NONE',  ( 0.000000000000000000, 0.000000000000000000, 0.000000000000000000 ) ) ;
#78 = DIMENSIONAL_EXPONENTS ( 1.000000000000000000, 0.000000000000000000, 0.000000000000000000, 0.000000000000000000, 0.000000000000000000, 0.000000000000000000, 0.000000000000000000 ) ;
#79 = DIRECTION ( 'NONE',  ( -4.453261087808560759E-17, 1.000000000000000000, -0.000000000000000000 ) ) ;
#80 = CARTESIAN_POINT ( 'NONE',  ( 0.000000000000000000, 0.000000000000000000, -0.3750000000000000555 ) ) ;
#81 = CARTESIAN_POINT ( 'NONE',  ( 3.718412684285603637E-34, 3.250000000000000000, 0.000000000000000000 ) ) ;
#82 = AXIS2_PLACEMENT_3D ( 'NONE', #179, #302, #246 ) ;
#83 =( LENGTH_UNIT ( ) NAMED_UNIT ( * ) SI_UNIT ( $, .METRE. ) );
#84 = PLANE ( 'NONE',  #266 ) ;
#85 = DIRECTION ( 'NONE',  ( -1.000000000000000000, 0.000000000000000000, 0.000000000000000000 ) ) ;
#86 =( NAMED_UNIT ( * ) SI_UNIT ( $, .STERADIAN. ) SOLID_ANGLE_UNIT ( ) );
#87 = AXIS2_PLACEMENT_3D ( 'NONE', #29, #220, #172 ) ;
#88 = PRODUCT_DEFINITION_FORMATION_WITH_SPECIFIED_SOURCE ( 'ANY', '', #164, .NOT_KNOWN. ) ;
#89 = ADVANCED_FACE ( 'NONE', ( #31 ), #225, .F. ) ;
#90 = FILL_AREA_STYLE_COLOUR ( '', #185 ) ;
#91 = VERTEX_POINT ( 'NONE', #272 ) ;
#92 =( NAMED_UNIT ( * ) PLANE_ANGLE_UNIT ( ) SI_UNIT ( $, .RADIAN. ) );
#93 = CIRCLE ( 'NONE', #244, 0.3750000000000000555 ) ;
#94 = ORIENTED_EDGE ( 'NONE', *, *, #188, .F. ) ;
#95 =( CONVERSION_BASED_UNIT ( 'INCH', #145 ) LENGTH_UNIT ( ) NAMED_UNIT ( #148 ) );
#96 = SURFACE_STYLE_USAGE ( .BOTH. , #283 ) ;
#97 = CYLINDRICAL_SURFACE ( 'NONE', #167, 0.3750000000000001110 ) ;
#98 = MECHANICAL_DESIGN_GEOMETRIC_PRESENTATION_REPRESENTATION (  '', ( #138 ), #252 ) ;
#99 = PRESENTATION_LAYER_ASSIGNMENT (  '', '', ( #2 ) ) ;
#100 = DIRECTION ( 'NONE',  ( -4.453261087808560759E-17, 1.000000000000000000, -0.000000000000000000 ) ) ;
#101 = DIMENSIONAL_EXPONENTS ( 1.000000000000000000, 0.000000000000000000, 0.000000000000000000, 0.000000000000000000, 0.000000000000000000, 0.000000000000000000, 0.000000000000000000 ) ;
#102 = CYLINDRICAL_SURFACE ( 'NONE', #59, 0.3750000000000001110 ) ;
#103 = APPLICATION_CONTEXT ( 'automotive_design' ) ;
#104 =( NAMED_UNIT ( * ) SI_UNIT ( $, .STERADIAN. ) SOLID_ANGLE_UNIT ( ) );
#105 = SURFACE_SIDE_STYLE ('',( #153 ) ) ;
#106 = SURFACE_SIDE_STYLE ('',( #210 ) ) ;
#107 = VERTEX_POINT ( 'NONE', #124 ) ;
#108 = ORIENTED_EDGE ( 'NONE', *, *, #109, .T. ) ;
#109 = EDGE_CURVE ( 'NONE', #107, #202, #110, .T. ) ;
#110 = CIRCLE ( 'NONE', #282, 0.3750000000000000555 ) ;
#111 = MECHANICAL_DESIGN_GEOMETRIC_PRESENTATION_REPRESENTATION (  '', ( #2 ), #257 ) ;
#112 = LENGTH_MEASURE_WITH_UNIT ( LENGTH_MEASURE( 0.02539999999999999897 ), #139 );
#113 = ORIENTED_EDGE ( 'NONE', *, *, #240, .T. ) ;
#114 = ADVANCED_FACE ( 'NONE', ( #200 ), #102, .T. ) ;
#115 = FILL_AREA_STYLE_COLOUR ( '', #285 ) ;
#116 = FILL_AREA_STYLE ('',( #215 ) ) ;
#117 = SURFACE_STYLE_FILL_AREA ( #284 ) ;
#118 = PRODUCT_DEFINITION_SHAPE ( 'NONE', 'NONE',  #44 ) ;
#119 = FACE_OUTER_BOUND ( 'NONE', #183, .T. ) ;
#120 = CARTESIAN_POINT ( 'NONE',  ( -1.224646799147354440E-16, 6.000000000000000888, 0.000000000000000000 ) ) ;
#121 = LINE ( 'NONE', #10, #9 ) ;
#122 = DIMENSIONAL_EXPONENTS ( 1.000000000000000000, 0.000000000000000000, 0.000000000000000000, 0.000000000000000000, 0.000000000000000000, 0.000000000000000000, 0.000000000000000000 ) ;
#123 = CARTESIAN_POINT ( 'NONE',  ( 0.000000000000000000, 0.000000000000000000, 0.000000000000000000 ) ) ;
#124 = CARTESIAN_POINT ( 'NONE',  ( -0.3750000000000000555, 3.250000000000000000, 0.000000000000000000 ) ) ;
#125 = PRESENTATION_LAYER_ASSIGNMENT (  '', '', ( #256 ) ) ;
#126 =( CONVERSION_BASED_UNIT ( 'INCH', #7 ) LENGTH_UNIT ( ) NAMED_UNIT ( #291 ) );
#127 = DIRECTION ( 'NONE',  ( -1.000000000000000000, 0.000000000000000000, 0.000000000000000000 ) ) ;
#128 = DIRECTION ( 'NONE',  ( 0.000000000000000000, 0.000000000000000000, 1.000000000000000000 ) ) ;
#129 = DIRECTION ( 'NONE',  ( 1.000000000000000000, 4.453261087808560759E-17, 0.000000000000000000 ) ) ;
#130 = PRESENTATION_LAYER_ASSIGNMENT (  '', '', ( #154 ) ) ;
#131 = VERTEX_POINT ( 'NONE', #267 ) ;
#132 = EDGE_CURVE ( 'NONE', #107, #155, #193, .T. ) ;
#133 = SURFACE_SIDE_STYLE ('',( #66 ) ) ;
#134 = ORIENTED_EDGE ( 'NONE', *, *, #299, .T. ) ;
#135 = CLOSED_SHELL ( 'NONE', ( #114, #199, #65, #89 ) ) ;
#136 = CARTESIAN_POINT ( 'NONE',  ( 0.000000000000000000, 3.250000000000000000, 0.000000000000000000 ) ) ;
#137 = ORIENTED_EDGE ( 'NONE', *, *, #74, .F. ) ;
#138 = STYLED_ITEM ( 'NONE', ( #265 ), #249 ) ;
#139 =( LENGTH_UNIT ( ) NAMED_UNIT ( * ) SI_UNIT ( $, .METRE. ) );
#140 = ORIENTED_EDGE ( 'NONE', *, *, #132, .F. ) ;
#141 = CIRCLE ( 'NONE', #87, 0.3750000000000000555 ) ;
#142 = COLOUR_RGB ( '',0.7921568627450980005, 0.8196078431372548767, 0.9333333333333333481 ) ;
#143 = EDGE_CURVE ( 'NONE', #202, #107, #141, .T. ) ;
#144 = SURFACE_SIDE_STYLE ('',( #117 ) ) ;
#145 = LENGTH_MEASURE_WITH_UNIT ( LENGTH_MEASURE( 0.02539999999999999897 ), #189 );
#146 = AXIS2_PLACEMENT_3D ( 'NONE', #217, #243, #4 ) ;
#147 = DIRECTION ( 'NONE',  ( 0.000000000000000000, 0.000000000000000000, -1.000000000000000000 ) ) ;
#148 = DIMENSIONAL_EXPONENTS ( 1.000000000000000000, 0.000000000000000000, 0.000000000000000000, 0.000000000000000000, 0.000000000000000000, 0.000000000000000000, 0.000000000000000000 ) ;
#149 = CARTESIAN_POINT ( 'NONE',  ( 0.000000000000000000, 0.000000000000000000, 0.000000000000000000 ) ) ;
#150 =( NAMED_UNIT ( * ) PLANE_ANGLE_UNIT ( ) SI_UNIT ( $, .RADIAN. ) );
#151 = LINE ( 'NONE', #224, #264 ) ;
#152 =( LENGTH_UNIT ( ) NAMED_UNIT ( * ) SI_UNIT ( $, .METRE. ) );
#153 = SURFACE_STYLE_FILL_AREA ( #168 ) ;
#154 = STYLED_ITEM ( 'NONE', ( #18 ), #226 ) ;
#155 = VERTEX_POINT ( 'NONE', #269 ) ;
#156 =( NAMED_UNIT ( * ) PLANE_ANGLE_UNIT ( ) SI_UNIT ( $, .RADIAN. ) );
#157 =( CONVERSION_BASED_UNIT ( 'INCH', #69 ) LENGTH_UNIT ( ) NAMED_UNIT ( #101 ) );
#158 = UNCERTAINTY_MEASURE_WITH_UNIT (LENGTH_MEASURE( 1.000000000000000082E-05 ), #95, 'distance_accuracy_value', 'NONE');
#159 = ORIENTED_EDGE ( 'NONE', *, *, #143, .T. ) ;
#160 = PRESENTATION_STYLE_ASSIGNMENT (( #96 ) ) ;
#161 = EDGE_LOOP ( 'NONE', ( #108, #263, #19, #140 ) ) ;
#162 =( NAMED_UNIT ( * ) PLANE_ANGLE_UNIT ( ) SI_UNIT ( $, .RADIAN. ) );
#163 = VECTOR ( 'NONE', #173, 39.37007874015748143 ) ;
#164 = PRODUCT ( '03690', '03690', '', ( #295 ) ) ;
#165 =( CONVERSION_BASED_UNIT ( 'INCH', #73 ) LENGTH_UNIT ( ) NAMED_UNIT ( #122 ) );
#166 = UNCERTAINTY_MEASURE_WITH_UNIT (LENGTH_MEASURE( 1.000000000000000082E-05 ), #198, 'distance_accuracy_value', 'NONE');
#167 = AXIS2_PLACEMENT_3D ( 'NONE', #251, #58, #85 ) ;
#168 = FILL_AREA_STYLE ('',( #289 ) ) ;
#169 = AXIS2_PLACEMENT_3D ( 'NONE', #136, #234, #305 ) ;
#170 = CARTESIAN_POINT ( 'NONE',  ( -0.3750000000000002220, 6.000000000000000888, 0.000000000000000000 ) ) ;
#171 = APPLICATION_CONTEXT ( 'automotive_design' ) ;
#172 = DIRECTION ( 'NONE',  ( -1.000000000000000000, 0.000000000000000000, 0.000000000000000000 ) ) ;
#173 = DIRECTION ( 'NONE',  ( -0.000000000000000000, -1.000000000000000000, -0.000000000000000000 ) ) ;
#174 = DIRECTION ( 'NONE',  ( -4.453261087808560759E-17, 1.000000000000000000, -0.000000000000000000 ) ) ;
#175 =( GEOMETRIC_REPRESENTATION_CONTEXT ( 3 ) GLOBAL_UNCERTAINTY_ASSIGNED_CONTEXT ( ( #166 ) ) GLOBAL_UNIT_ASSIGNED_CONTEXT ( ( #198, #150, #104 ) ) REPRESENTATION_CONTEXT ( 'NONE', 'WORKASPACE' ) );
#176 = CARTESIAN_POINT ( 'NONE',  ( 0.3750000000000000555, 3.250000000000000000, 4.592425496802576684E-17 ) ) ;
#177 = FILL_AREA_STYLE_COLOUR ( '', #212 ) ;
#178 =( CONVERSION_BASED_UNIT ( 'INCH', #112 ) LENGTH_UNIT ( ) NAMED_UNIT ( #78 ) );
#179 = CARTESIAN_POINT ( 'NONE',  ( 0.000000000000000000, 0.000000000000000000, 0.000000000000000000 ) ) ;
#180 = CIRCLE ( 'NONE', #38, 0.3750000000000001665 ) ;
#181 = FACE_OUTER_BOUND ( 'NONE', #204, .T. ) ;
#182 = FILL_AREA_STYLE_COLOUR ( '', #142 ) ;
#183 = EDGE_LOOP ( 'NONE', ( #45, #72, #239, #276 ) ) ;
#184 = CIRCLE ( 'NONE', #82, 0.3750000000000000555 ) ;
#185 = COLOUR_RGB ( '',1.000000000000000000, 0.000000000000000000, 0.000000000000000000 ) ;
#186 = VERTEX_POINT ( 'NONE', #55 ) ;
#187 =( NAMED_UNIT ( * ) SI_UNIT ( $, .STERADIAN. ) SOLID_ANGLE_UNIT ( ) );
#188 = EDGE_CURVE ( 'NONE', #202, #131, #121, .T. ) ;
#189 =( LENGTH_UNIT ( ) NAMED_UNIT ( * ) SI_UNIT ( $, .METRE. ) );
#190 = EDGE_CURVE ( 'NONE', #186, #91, #151, .T. ) ;
#191 = LINE ( 'NONE', #80, #163 ) ;
#192 = CLOSED_SHELL ( 'NONE', ( #249, #226, #221, #274 ) ) ;
#193 = LINE ( 'NONE', #170, #1 ) ;
#194 = CARTESIAN_POINT ( 'NONE',  ( 0.000000000000000000, 3.250000000000000000, 0.000000000000000000 ) ) ;
#195 = DIRECTION ( 'NONE',  ( 0.000000000000000000, -1.000000000000000000, -0.000000000000000000 ) ) ;
#196 = PRESENTATION_STYLE_ASSIGNMENT (( #248 ) ) ;
#197 = SHAPE_DEFINITION_REPRESENTATION ( #118, #26 ) ;
#198 =( CONVERSION_BASED_UNIT ( 'INCH', #64 ) LENGTH_UNIT ( ) NAMED_UNIT ( #218 ) );
#199 = ADVANCED_FACE ( 'NONE', ( #294 ), #84, .F. ) ;
#200 = FACE_OUTER_BOUND ( 'NONE', #161, .T. ) ;
#201 = DIRECTION ( 'NONE',  ( 0.000000000000000000, 0.000000000000000000, -1.000000000000000000 ) ) ;
#202 = VERTEX_POINT ( 'NONE', #176 ) ;
#203 =( NAMED_UNIT ( * ) PLANE_ANGLE_UNIT ( ) SI_UNIT ( $, .RADIAN. ) );
#204 = EDGE_LOOP ( 'NONE', ( #137, #309 ) ) ;
#205 = EDGE_CURVE ( 'NONE', #131, #155, #180, .T. ) ;
#206 = PLANE ( 'NONE',  #51 ) ;
#207 = EDGE_LOOP ( 'NONE', ( #134, #229 ) ) ;
#208 = SURFACE_STYLE_USAGE ( .BOTH. , #106 ) ;
#209 = EDGE_LOOP ( 'NONE', ( #47, #232 ) ) ;
#210 = SURFACE_STYLE_FILL_AREA ( #304 ) ;
#211 = ORIENTED_EDGE ( 'NONE', *, *, #290, .T. ) ;
#212 = COLOUR_RGB ( '',1.000000000000000000, 0.000000000000000000, 0.000000000000000000 ) ;
#213 = SURFACE_STYLE_FILL_AREA ( #116 ) ;
#214 = STYLED_ITEM ( 'NONE', ( #196 ), #36 ) ;
#215 = FILL_AREA_STYLE_COLOUR ( '', #14 ) ;
#216 = CIRCLE ( 'NONE', #62, 0.3750000000000000555 ) ;
#217 = CARTESIAN_POINT ( 'NONE',  ( 0.000000000000000000, 0.000000000000000000, 0.000000000000000000 ) ) ;
#218 = DIMENSIONAL_EXPONENTS ( 1.000000000000000000, 0.000000000000000000, 0.000000000000000000, 0.000000000000000000, 0.000000000000000000, 0.000000000000000000, 0.000000000000000000 ) ;
#219 = DIRECTION ( 'NONE',  ( -4.453261087808560759E-17, 1.000000000000000000, -0.000000000000000000 ) ) ;
#220 = DIRECTION ( 'NONE',  ( -4.453261087808560759E-17, 1.000000000000000000, -0.000000000000000000 ) ) ;
#221 = ADVANCED_FACE ( 'NONE', ( #230 ), #255, .T. ) ;
#222 = PRESENTATION_LAYER_ASSIGNMENT (  '', '', ( #138 ) ) ;
#223 = UNCERTAINTY_MEASURE_WITH_UNIT (LENGTH_MEASURE( 1.000000000000000082E-05 ), #178, 'distance_accuracy_value', 'NONE');
#224 = CARTESIAN_POINT ( 'NONE',  ( 4.592425496802575451E-17, 0.000000000000000000, 0.3750000000000000555 ) ) ;
#225 = PLANE ( 'NONE',  #262 ) ;
#226 = ADVANCED_FACE ( 'NONE', ( #181 ), #206, .T. ) ;
#227 = FACE_OUTER_BOUND ( 'NONE', #237, .T. ) ;
#228 = COLOUR_RGB ( '',0.7921568627450980005, 0.8196078431372548767, 0.9333333333333333481 ) ;
#229 = ORIENTED_EDGE ( 'NONE', *, *, #205, .T. ) ;
#230 = FACE_OUTER_BOUND ( 'NONE', #307, .T. ) ;
#231 = VERTEX_POINT ( 'NONE', #260 ) ;
#232 = ORIENTED_EDGE ( 'NONE', *, *, #143, .F. ) ;
#233 = AXIS2_PLACEMENT_3D ( 'NONE', #39, #238, #201 ) ;
#234 = DIRECTION ( 'NONE',  ( -0.000000000000000000, -1.000000000000000000, -0.000000000000000000 ) ) ;
#235 =( GEOMETRIC_REPRESENTATION_CONTEXT ( 3 ) GLOBAL_UNCERTAINTY_ASSIGNED_CONTEXT ( ( #46 ) ) GLOBAL_UNIT_ASSIGNED_CONTEXT ( ( #126, #270, #76 ) ) REPRESENTATION_CONTEXT ( 'NONE', 'WORKASPACE' ) );
#236 = PRODUCT_DEFINITION_CONTEXT ( 'detailed design', #103, 'design' ) ;
#237 = EDGE_LOOP ( 'NONE', ( #94, #159, #15, #42 ) ) ;
#238 = DIRECTION ( 'NONE',  ( -0.000000000000000000, -1.000000000000000000, -0.000000000000000000 ) ) ;
#239 = ORIENTED_EDGE ( 'NONE', *, *, #280, .F. ) ;
#240 = EDGE_CURVE ( 'NONE', #186, #261, #275, .T. ) ;
#241 = CARTESIAN_POINT ( 'NONE',  ( 0.000000000000000000, 3.250000000000000000, -0.3750000000000000555 ) ) ;
#242 =( GEOMETRIC_REPRESENTATION_CONTEXT ( 3 ) GLOBAL_UNCERTAINTY_ASSIGNED_CONTEXT ( ( #158 ) ) GLOBAL_UNIT_ASSIGNED_CONTEXT ( ( #95, #30, #35 ) ) REPRESENTATION_CONTEXT ( 'NONE', 'WORKASPACE' ) );
#243 = DIRECTION ( 'NONE',  ( -0.000000000000000000, -1.000000000000000000, -0.000000000000000000 ) ) ;
#244 = AXIS2_PLACEMENT_3D ( 'NONE', #254, #33, #37 ) ;
#245 = SURFACE_SIDE_STYLE ('',( #288 ) ) ;
#246 = DIRECTION ( 'NONE',  ( 0.000000000000000000, 0.000000000000000000, -1.000000000000000000 ) ) ;
#247 = MANIFOLD_SOLID_BREP ( 'Revolve - Tool Body (Straight Shanked)', #135 ) ;
#248 = SURFACE_STYLE_USAGE ( .BOTH. , #105 ) ;
#249 = ADVANCED_FACE ( 'NONE', ( #119 ), #5, .T. ) ;
#250 = DIMENSIONAL_EXPONENTS ( 1.000000000000000000, 0.000000000000000000, 0.000000000000000000, 0.000000000000000000, 0.000000000000000000, 0.000000000000000000, 0.000000000000000000 ) ;
#251 = CARTESIAN_POINT ( 'NONE',  ( -1.224646799147354440E-16, 6.000000000000000888, 0.000000000000000000 ) ) ;
#252 =( GEOMETRIC_REPRESENTATION_CONTEXT ( 3 ) GLOBAL_UNCERTAINTY_ASSIGNED_CONTEXT ( ( #278 ) ) GLOBAL_UNIT_ASSIGNED_CONTEXT ( ( #165, #162, #187 ) ) REPRESENTATION_CONTEXT ( 'NONE', 'WORKASPACE' ) );
#253 = DIRECTION ( 'NONE',  ( -0.000000000000000000, -1.000000000000000000, -0.000000000000000000 ) ) ;
#254 = CARTESIAN_POINT ( 'NONE',  ( 0.000000000000000000, 3.250000000000000000, 0.000000000000000000 ) ) ;
#255 = CYLINDRICAL_SURFACE ( 'NONE', #233, 0.3750000000000000555 ) ;
#256 = STYLED_ITEM ( 'NONE', ( #300 ), #221 ) ;
#257 =( GEOMETRIC_REPRESENTATION_CONTEXT ( 3 ) GLOBAL_UNCERTAINTY_ASSIGNED_CONTEXT ( ( #306 ) ) GLOBAL_UNIT_ASSIGNED_CONTEXT ( ( #3, #92, #27 ) ) REPRESENTATION_CONTEXT ( 'NONE', 'WORKASPACE' ) );
#258 = CARTESIAN_POINT ( 'NONE',  ( 0.000000000000000000, 3.250000000000000000, 0.000000000000000000 ) ) ;
#259 = DIRECTION ( 'NONE',  ( -4.453261087808560759E-17, 1.000000000000000000, -0.000000000000000000 ) ) ;
#260 = CARTESIAN_POINT ( 'NONE',  ( 0.000000000000000000, 0.000000000000000000, -0.3750000000000000555 ) ) ;
#261 = VERTEX_POINT ( 'NONE', #241 ) ;
#262 = AXIS2_PLACEMENT_3D ( 'NONE', #11, #296, #129 ) ;
#263 = ORIENTED_EDGE ( 'NONE', *, *, #188, .T. ) ;
#264 = VECTOR ( 'NONE', #8, 39.37007874015748143 ) ;
#265 = PRESENTATION_STYLE_ASSIGNMENT (( #23 ) ) ;
#266 = AXIS2_PLACEMENT_3D ( 'NONE', #81, #271, #61 ) ;
#267 = CARTESIAN_POINT ( 'NONE',  ( 0.3750000000000000555, 6.000000000000000888, 4.592425496802576684E-17 ) ) ;
#268 = DIRECTION ( 'NONE',  ( -4.453261087808560759E-17, 1.000000000000000000, -0.000000000000000000 ) ) ;
#269 = CARTESIAN_POINT ( 'NONE',  ( -0.3750000000000002776, 6.000000000000000888, 0.000000000000000000 ) ) ;
#270 =( NAMED_UNIT ( * ) PLANE_ANGLE_UNIT ( ) SI_UNIT ( $, .RADIAN. ) );
#271 = DIRECTION ( 'NONE',  ( -4.453261087808560759E-17, 1.000000000000000000, 0.000000000000000000 ) ) ;
#272 = CARTESIAN_POINT ( 'NONE',  ( 4.592425496802575451E-17, 0.000000000000000000, 0.3750000000000000555 ) ) ;
#273 = FILL_AREA_STYLE ('',( #177 ) ) ;
#274 = ADVANCED_FACE ( 'NONE', ( #53 ), #52, .T. ) ;
#275 = CIRCLE ( 'NONE', #169, 0.3750000000000000555 ) ;
#276 = ORIENTED_EDGE ( 'NONE', *, *, #290, .F. ) ;
#277 = DIRECTION ( 'NONE',  ( 0.000000000000000000, 1.000000000000000000, 0.000000000000000000 ) ) ;
#278 = UNCERTAINTY_MEASURE_WITH_UNIT (LENGTH_MEASURE( 1.000000000000000082E-05 ), #165, 'distance_accuracy_value', 'NONE');
#279 = SURFACE_STYLE_USAGE ( .BOTH. , #133 ) ;
#280 = EDGE_CURVE ( 'NONE', #231, #91, #216, .T. ) ;
#281 = ORIENTED_EDGE ( 'NONE', *, *, #280, .T. ) ;
#282 = AXIS2_PLACEMENT_3D ( 'NONE', #194, #268, #13 ) ;
#283 = SURFACE_SIDE_STYLE ('',( #213 ) ) ;
#284 = FILL_AREA_STYLE ('',( #90 ) ) ;
#285 = COLOUR_RGB ( '',1.000000000000000000, 0.000000000000000000, 0.000000000000000000 ) ;
#286 =( LENGTH_UNIT ( ) NAMED_UNIT ( * ) SI_UNIT ( $, .METRE. ) );
#287 = PRESENTATION_LAYER_ASSIGNMENT (  '', '', ( #297 ) ) ;
#288 = SURFACE_STYLE_FILL_AREA ( #49 ) ;
#289 = FILL_AREA_STYLE_COLOUR ( '', #228 ) ;
#290 = EDGE_CURVE ( 'NONE', #261, #231, #191, .T. ) ;
#291 = DIMENSIONAL_EXPONENTS ( 1.000000000000000000, 0.000000000000000000, 0.000000000000000000, 0.000000000000000000, 0.000000000000000000, 0.000000000000000000, 0.000000000000000000 ) ;
#292 = UNCERTAINTY_MEASURE_WITH_UNIT (LENGTH_MEASURE( 1.000000000000000082E-05 ), #157, 'distance_accuracy_value', 'NONE');
#293 = CARTESIAN_POINT ( 'NONE',  ( -1.224646799147354440E-16, 6.000000000000000888, 0.000000000000000000 ) ) ;
#294 = FACE_OUTER_BOUND ( 'NONE', #209, .T. ) ;
#295 = PRODUCT_CONTEXT ( 'NONE', #171, 'mechanical' ) ;
#296 = DIRECTION ( 'NONE',  ( 4.453261087808560759E-17, -1.000000000000000000, 0.000000000000000000 ) ) ;
#297 = STYLED_ITEM ( 'NONE', ( #160 ), #274 ) ;
#298 = ORIENTED_EDGE ( 'NONE', *, *, #190, .F. ) ;
#299 = EDGE_CURVE ( 'NONE', #155, #131, #22, .T. ) ;
#300 = PRESENTATION_STYLE_ASSIGNMENT (( #279 ) ) ;
#301 = MECHANICAL_DESIGN_GEOMETRIC_PRESENTATION_REPRESENTATION (  '', ( #256 ), #32 ) ;
#302 = DIRECTION ( 'NONE',  ( -0.000000000000000000, -1.000000000000000000, -0.000000000000000000 ) ) ;
#303 = MECHANICAL_DESIGN_GEOMETRIC_PRESENTATION_REPRESENTATION (  '', ( #297 ), #242 ) ;
#304 = FILL_AREA_STYLE ('',( #115 ) ) ;
#305 = DIRECTION ( 'NONE',  ( 0.000000000000000000, 0.000000000000000000, -1.000000000000000000 ) ) ;
#306 = UNCERTAINTY_MEASURE_WITH_UNIT (LENGTH_MEASURE( 1.000000000000000082E-05 ), #3, 'distance_accuracy_value', 'NONE');
#307 = EDGE_LOOP ( 'NONE', ( #298, #113, #211, #70 ) ) ;
#308 = DIRECTION ( 'NONE',  ( -1.000000000000000000, 0.000000000000000000, 0.000000000000000000 ) ) ;
#309 = ORIENTED_EDGE ( 'NONE', *, *, #240, .F. ) ;
ENDSEC;
END-ISO-10303-21;
