ISO-10303-21;
HEADER;
FILE_DESCRIPTION (( 'STEP AP214' ),
    '1' );
FILE_NAME ('Micro_RNC-125-23X.STEP',
    '2021-09-03T17:33:41',
    ( '' ),
    ( '' ),
    'SwSTEP 2.0',
    'SolidWorks 2020',
    '' );
FILE_SCHEMA (( 'AUTOMOTIVE_DESIGN' ));
ENDSEC;

DATA;
#1 = EDGE_CURVE ( 'NONE', #97, #124, #109, .T. ) ;
#2 = PRODUCT_DEFINITION_FORMATION_WITH_SPECIFIED_SOURCE ( 'ANY', '', #243, .NOT_KNOWN. ) ;
#3 = APPLICATION_CONTEXT ( 'automotive_design' ) ;
#4 = DIMENSIONAL_EXPONENTS ( 1.000000000000000000, 0.0000000000000000000, 0.0000000000000000000, 0.0000000000000000000, 0.0000000000000000000, 0.0000000000000000000, 0.0000000000000000000 ) ;
#5 = APPLICATION_PROTOCOL_DEFINITION ( 'draft international standard', 'automotive_design', 1998, #3 ) ;
#6 =( NAMED_UNIT ( * ) SI_UNIT ( $, .STERADIAN. ) SOLID_ANGLE_UNIT ( ) );
#7 = ORIENTED_EDGE ( 'NONE', *, *, #1, .T. ) ;
#8 = AXIS2_PLACEMENT_3D ( 'NONE', #145, #76, #210 ) ;
#9 = SURFACE_SIDE_STYLE ('',( #29 ) ) ;
#10 = ORIENTED_EDGE ( 'NONE', *, *, #231, .T. ) ;
#11 = MANIFOLD_SOLID_BREP ( 'Mirror1', #146 ) ;
#12 = DIRECTION ( 'NONE',  ( -0.0000000000000000000, -0.0000000000000000000, -1.000000000000000000 ) ) ;
#13 = ORIENTED_EDGE ( 'NONE', *, *, #166, .F. ) ;
#14 = EDGE_LOOP ( 'NONE', ( #204, #236 ) ) ;
#15 = CIRCLE ( 'NONE', #159, 0.004000000000000000083 ) ;
#16 = DIRECTION ( 'NONE',  ( -0.0000000000000000000, -0.0000000000000000000, -1.000000000000000000 ) ) ;
#17 = CONICAL_SURFACE ( 'NONE', #49, 0.004000000000000000083, 0.7853981633974501664 ) ;
#18 = CARTESIAN_POINT ( 'NONE',  ( 0.0000000000000000000, 0.0000000000000000000, 0.05849999999999978134 ) ) ;
#19 = UNCERTAINTY_MEASURE_WITH_UNIT (LENGTH_MEASURE( 1.000000000000000082E-05 ), #24, 'distance_accuracy_value', 'NONE');
#20 = FACE_OUTER_BOUND ( 'NONE', #107, .T. ) ;
#21 = CARTESIAN_POINT ( 'NONE',  ( -0.004000000000000000083, -4.898587196589413537E-19, 3.000000000000000444 ) ) ;
#22 = PLANE ( 'NONE',  #84 ) ;
#23 = CARTESIAN_POINT ( 'NONE',  ( 0.06250000000000000000, 7.654042494670956004E-18, 0.05849999999999978134 ) ) ;
#24 =( CONVERSION_BASED_UNIT ( 'INCH', #233 ) LENGTH_UNIT ( ) NAMED_UNIT ( #105 ) );
#25 = EDGE_CURVE ( 'NONE', #127, #124, #130, .T. ) ;
#26 =( NAMED_UNIT ( * ) PLANE_ANGLE_UNIT ( ) SI_UNIT ( $, .RADIAN. ) );
#27 = CIRCLE ( 'NONE', #173, 0.004000000000000000083 ) ;
#28 = EDGE_LOOP ( 'NONE', ( #167, #10, #88, #238 ) ) ;
#29 = SURFACE_STYLE_FILL_AREA ( #31 ) ;
#30 = ADVANCED_FACE ( 'NONE', ( #222 ), #17, .T. ) ;
#31 = FILL_AREA_STYLE ('',( #141 ) ) ;
#32 = ADVANCED_FACE ( 'NONE', ( #206 ), #142, .T. ) ;
#33 = AXIS2_PLACEMENT_3D ( 'NONE', #131, #12, #224 ) ;
#34 = SURFACE_SIDE_STYLE ('',( #223 ) ) ;
#35 =( NAMED_UNIT ( * ) PLANE_ANGLE_UNIT ( ) SI_UNIT ( $, .RADIAN. ) );
#36 = DIRECTION ( 'NONE',  ( -1.000000000000000000, 0.0000000000000000000, 0.0000000000000000000 ) ) ;
#37 = VECTOR ( 'NONE', #16, 39.37007874015748143 ) ;
#38 = CARTESIAN_POINT ( 'NONE',  ( 0.0000000000000000000, 0.0000000000000000000, 3.000000000000000444 ) ) ;
#39 = DIRECTION ( 'NONE',  ( -0.7071067811865487940, 8.659560562354948882E-17, 0.7071067811865462405 ) ) ;
#40 =( LENGTH_UNIT ( ) NAMED_UNIT ( * ) SI_UNIT ( $, .METRE. ) );
#41 = AXIS2_PLACEMENT_3D ( 'NONE', #18, #72, #36 ) ;
#42 = CARTESIAN_POINT ( 'NONE',  ( 0.06250000000000000000, 7.654042494670956004E-18, 3.000000000000000444 ) ) ;
#43 = CYLINDRICAL_SURFACE ( 'NONE', #158, 0.06250000000000000000 ) ;
#44 = DIMENSIONAL_EXPONENTS ( 1.000000000000000000, 0.0000000000000000000, 0.0000000000000000000, 0.0000000000000000000, 0.0000000000000000000, 0.0000000000000000000, 0.0000000000000000000 ) ;
#45 =( NAMED_UNIT ( * ) PLANE_ANGLE_UNIT ( ) SI_UNIT ( $, .RADIAN. ) );
#46 = VERTEX_POINT ( 'NONE', #192 ) ;
#47 = COLOUR_RGB ( '',0.7921568627450980005, 0.8196078431372548767, 0.9333333333333333481 ) ;
#48 = ORIENTED_EDGE ( 'NONE', *, *, #237, .T. ) ;
#49 = AXIS2_PLACEMENT_3D ( 'NONE', #115, #50, #95 ) ;
#50 = DIRECTION ( 'NONE',  ( 0.0000000000000000000, 0.0000000000000000000, 1.000000000000000000 ) ) ;
#51 = LINE ( 'NONE', #187, #93 ) ;
#52 =( NAMED_UNIT ( * ) SI_UNIT ( $, .STERADIAN. ) SOLID_ANGLE_UNIT ( ) );
#53 = EDGE_LOOP ( 'NONE', ( #235, #143, #129, #86 ) ) ;
#54 = PRESENTATION_STYLE_ASSIGNMENT (( #112 ) ) ;
#55 = UNCERTAINTY_MEASURE_WITH_UNIT (LENGTH_MEASURE( 1.000000000000000082E-05 ), #240, 'distance_accuracy_value', 'NONE');
#56 = DIRECTION ( 'NONE',  ( 0.0000000000000000000, 0.0000000000000000000, -1.000000000000000000 ) ) ;
#57 = PRODUCT_DEFINITION ( 'UNKNOWN', '', #2, #214 ) ;
#58 = LINE ( 'NONE', #42, #188 ) ;
#59 = AXIS2_PLACEMENT_3D ( 'NONE', #119, #60, #245 ) ;
#60 = DIRECTION ( 'NONE',  ( 0.0000000000000000000, 0.0000000000000000000, 1.000000000000000000 ) ) ;
#61 = DIRECTION ( 'NONE',  ( 0.0000000000000000000, 0.0000000000000000000, -1.000000000000000000 ) ) ;
#62 = CARTESIAN_POINT ( 'NONE',  ( -0.06250000000000000000, 0.0000000000000000000, 2.941500000000000448 ) ) ;
#63 =( GEOMETRIC_REPRESENTATION_CONTEXT ( 3 ) GLOBAL_UNCERTAINTY_ASSIGNED_CONTEXT ( ( #19 ) ) GLOBAL_UNIT_ASSIGNED_CONTEXT ( ( #24, #26, #106 ) ) REPRESENTATION_CONTEXT ( 'NONE', 'WORKASPACE' ) );
#64 = SURFACE_STYLE_USAGE ( .BOTH. , #9 ) ;
#65 = APPLICATION_PROTOCOL_DEFINITION ( 'draft international standard', 'automotive_design', 1998, #155 ) ;
#66 = EDGE_CURVE ( 'NONE', #124, #97, #249, .T. ) ;
#67 = ORIENTED_EDGE ( 'NONE', *, *, #83, .T. ) ;
#68 = VERTEX_POINT ( 'NONE', #189 ) ;
#69 = EDGE_CURVE ( 'NONE', #68, #225, #15, .T. ) ;
#70 = AXIS2_PLACEMENT_3D ( 'NONE', #232, #61, #104 ) ;
#71 =( LENGTH_UNIT ( ) NAMED_UNIT ( * ) SI_UNIT ( $, .METRE. ) );
#72 = DIRECTION ( 'NONE',  ( -0.0000000000000000000, -0.0000000000000000000, -1.000000000000000000 ) ) ;
#73 = AXIS2_PLACEMENT_3D ( 'NONE', #162, #219, #180 ) ;
#74 = FILL_AREA_STYLE_COLOUR ( '', #75 ) ;
#75 = COLOUR_RGB ( '',0.7921568627450980005, 0.8196078431372548767, 0.9333333333333333481 ) ;
#76 = DIRECTION ( 'NONE',  ( -0.0000000000000000000, -0.0000000000000000000, -1.000000000000000000 ) ) ;
#77 = CARTESIAN_POINT ( 'NONE',  ( 0.0000000000000000000, 0.0000000000000000000, 2.941500000000000448 ) ) ;
#78 = EDGE_CURVE ( 'NONE', #225, #68, #161, .T. ) ;
#79 = DIRECTION ( 'NONE',  ( 1.000000000000000000, 0.0000000000000000000, 0.0000000000000000000 ) ) ;
#80 = DIRECTION ( 'NONE',  ( 1.000000000000000000, 0.0000000000000000000, -0.0000000000000000000 ) ) ;
#81 = DIRECTION ( 'NONE',  ( 1.000000000000000000, 0.0000000000000000000, 0.0000000000000000000 ) ) ;
#82 = CARTESIAN_POINT ( 'NONE',  ( 0.0000000000000000000, 0.0000000000000000000, 3.000000000000000444 ) ) ;
#83 = EDGE_CURVE ( 'NONE', #68, #97, #51, .T. ) ;
#84 = AXIS2_PLACEMENT_3D ( 'NONE', #82, #157, #80 ) ;
#85 =( GEOMETRIC_REPRESENTATION_CONTEXT ( 3 ) GLOBAL_UNCERTAINTY_ASSIGNED_CONTEXT ( ( #211 ) ) GLOBAL_UNIT_ASSIGNED_CONTEXT ( ( #183, #45, #6 ) ) REPRESENTATION_CONTEXT ( 'NONE', 'WORKASPACE' ) );
#86 = ORIENTED_EDGE ( 'NONE', *, *, #25, .F. ) ;
#87 = STYLED_ITEM ( 'NONE', ( #54 ), #11 ) ;
#88 = ORIENTED_EDGE ( 'NONE', *, *, #66, .T. ) ;
#89 = AXIS2_PLACEMENT_3D ( 'NONE', #150, #151, #134 ) ;
#90 = ORIENTED_EDGE ( 'NONE', *, *, #144, .F. ) ;
#91 = EDGE_CURVE ( 'NONE', #190, #127, #191, .T. ) ;
#92 = AXIS2_PLACEMENT_3D ( 'NONE', #113, #186, #148 ) ;
#93 = VECTOR ( 'NONE', #229, 39.37007874015748143 ) ;
#94 = CARTESIAN_POINT ( 'NONE',  ( 0.0000000000000000000, 0.0000000000000000000, 0.0000000000000000000 ) ) ;
#95 = DIRECTION ( 'NONE',  ( 1.000000000000000000, 0.0000000000000000000, 0.0000000000000000000 ) ) ;
#96 = AXIS2_PLACEMENT_3D ( 'NONE', #176, #244, #79 ) ;
#97 = VERTEX_POINT ( 'NONE', #23 ) ;
#98 = CARTESIAN_POINT ( 'NONE',  ( -0.06250000000000000000, 0.0000000000000000000, 3.000000000000000444 ) ) ;
#99 = CYLINDRICAL_SURFACE ( 'NONE', #89, 0.06250000000000000000 ) ;
#100 = EDGE_CURVE ( 'NONE', #127, #190, #152, .T. ) ;
#101 = FACE_OUTER_BOUND ( 'NONE', #201, .T. ) ;
#102 = FACE_OUTER_BOUND ( 'NONE', #53, .T. ) ;
#103 = CARTESIAN_POINT ( 'NONE',  ( -0.06250000000000000000, 0.0000000000000000000, 0.05849999999999978134 ) ) ;
#104 = DIRECTION ( 'NONE',  ( -1.000000000000000000, 0.0000000000000000000, 0.0000000000000000000 ) ) ;
#105 = DIMENSIONAL_EXPONENTS ( 1.000000000000000000, 0.0000000000000000000, 0.0000000000000000000, 0.0000000000000000000, 0.0000000000000000000, 0.0000000000000000000, 0.0000000000000000000 ) ;
#106 =( NAMED_UNIT ( * ) SI_UNIT ( $, .STERADIAN. ) SOLID_ANGLE_UNIT ( ) );
#107 = EDGE_LOOP ( 'NONE', ( #13, #163, #160, #184 ) ) ;
#108 =( LENGTH_UNIT ( ) NAMED_UNIT ( * ) SI_UNIT ( $, .METRE. ) );
#109 = CIRCLE ( 'NONE', #41, 0.06250000000000000000 ) ;
#110 = AXIS2_PLACEMENT_3D ( 'NONE', #178, #248, #81 ) ;
#111 = AXIS2_PLACEMENT_3D ( 'NONE', #77, #56, #198 ) ;
#112 = SURFACE_STYLE_USAGE ( .BOTH. , #34 ) ;
#113 = CARTESIAN_POINT ( 'NONE',  ( 0.0000000000000000000, 0.0000000000000000000, 3.000000000000000444 ) ) ;
#114 = EDGE_CURVE ( 'NONE', #200, #46, #138, .T. ) ;
#115 = CARTESIAN_POINT ( 'NONE',  ( 0.0000000000000000000, 0.0000000000000000000, 0.0000000000000000000 ) ) ;
#116 = ADVANCED_BREP_SHAPE_REPRESENTATION ( 'Micro_RNC-125-23X', ( #11, #73 ), #85 ) ;
#117 = FACE_OUTER_BOUND ( 'NONE', #14, .T. ) ;
#118 = PRESENTATION_LAYER_ASSIGNMENT (  '', '', ( #221 ) ) ;
#119 = CARTESIAN_POINT ( 'NONE',  ( 0.0000000000000000000, 0.0000000000000000000, 0.0000000000000000000 ) ) ;
#120 = ADVANCED_FACE ( 'NONE', ( #20 ), #99, .T. ) ;
#121 = DIRECTION ( 'NONE',  ( 0.0000000000000000000, 0.0000000000000000000, -1.000000000000000000 ) ) ;
#122 = CARTESIAN_POINT ( 'NONE',  ( -0.004000000000000000083, -4.071950607164948872E-18, 3.000000000000000444 ) ) ;
#123 = CONICAL_SURFACE ( 'NONE', #110, 0.004000000000000000083, 0.7853981633974501664 ) ;
#124 = VERTEX_POINT ( 'NONE', #103 ) ;
#125 = SHAPE_DEFINITION_REPRESENTATION ( #175, #116 ) ;
#126 = ORIENTED_EDGE ( 'NONE', *, *, #182, .T. ) ;
#127 = VERTEX_POINT ( 'NONE', #62 ) ;
#128 = ORIENTED_EDGE ( 'NONE', *, *, #231, .F. ) ;
#129 = ORIENTED_EDGE ( 'NONE', *, *, #66, .F. ) ;
#130 = LINE ( 'NONE', #98, #37 ) ;
#131 = CARTESIAN_POINT ( 'NONE',  ( 0.0000000000000000000, 0.0000000000000000000, 0.05849999999999978134 ) ) ;
#132 = ADVANCED_FACE ( 'NONE', ( #139 ), #123, .T. ) ;
#133 = DIRECTION ( 'NONE',  ( -1.000000000000000000, 0.0000000000000000000, 0.0000000000000000000 ) ) ;
#134 = DIRECTION ( 'NONE',  ( -1.000000000000000000, 0.0000000000000000000, 0.0000000000000000000 ) ) ;
#135 = CARTESIAN_POINT ( 'NONE',  ( 0.06250000000000000000, 7.654042494670956004E-18, 2.941500000000000448 ) ) ;
#136 = ADVANCED_FACE ( 'NONE', ( #215 ), #22, .T. ) ;
#137 = CARTESIAN_POINT ( 'NONE',  ( 0.0000000000000000000, 0.0000000000000000000, 2.941500000000000448 ) ) ;
#138 = CIRCLE ( 'NONE', #70, 0.004000000000000000083 ) ;
#139 = FACE_OUTER_BOUND ( 'NONE', #181, .T. ) ;
#140 = LENGTH_MEASURE_WITH_UNIT ( LENGTH_MEASURE( 0.02539999999999999897 ), #40 );
#141 = FILL_AREA_STYLE_COLOUR ( '', #47 ) ;
#142 = CONICAL_SURFACE ( 'NONE', #92, 0.004000000000000000083, 0.7853981633974501664 ) ;
#143 = ORIENTED_EDGE ( 'NONE', *, *, #166, .T. ) ;
#144 = EDGE_CURVE ( 'NONE', #46, #190, #216, .T. ) ;
#145 = CARTESIAN_POINT ( 'NONE',  ( 0.0000000000000000000, 0.0000000000000000000, 0.0000000000000000000 ) ) ;
#146 = CLOSED_SHELL ( 'NONE', ( #132, #30, #209, #120, #246, #234, #32, #136 ) ) ;
#147 = AXIS2_PLACEMENT_3D ( 'NONE', #137, #230, #195 ) ;
#148 = DIRECTION ( 'NONE',  ( 1.000000000000000000, 0.0000000000000000000, 0.0000000000000000000 ) ) ;
#149 = ORIENTED_EDGE ( 'NONE', *, *, #91, .F. ) ;
#150 = CARTESIAN_POINT ( 'NONE',  ( 0.0000000000000000000, 0.0000000000000000000, 3.000000000000000444 ) ) ;
#151 = DIRECTION ( 'NONE',  ( -0.0000000000000000000, -0.0000000000000000000, -1.000000000000000000 ) ) ;
#152 = CIRCLE ( 'NONE', #111, 0.06250000000000000000 ) ;
#153 = LINE ( 'NONE', #21, #154 ) ;
#154 = VECTOR ( 'NONE', #194, 39.37007874015748143 ) ;
#155 = APPLICATION_CONTEXT ( 'automotive_design' ) ;
#156 = PRESENTATION_LAYER_ASSIGNMENT (  '', '', ( #87 ) ) ;
#157 = DIRECTION ( 'NONE',  ( 0.0000000000000000000, 0.0000000000000000000, 1.000000000000000000 ) ) ;
#158 = AXIS2_PLACEMENT_3D ( 'NONE', #197, #174, #212 ) ;
#159 = AXIS2_PLACEMENT_3D ( 'NONE', #94, #169, #241 ) ;
#160 = ORIENTED_EDGE ( 'NONE', *, *, #25, .T. ) ;
#161 = CIRCLE ( 'NONE', #8, 0.004000000000000000083 ) ;
#162 = CARTESIAN_POINT ( 'NONE',  ( 0.0000000000000000000, 0.0000000000000000000, 0.0000000000000000000 ) ) ;
#163 = ORIENTED_EDGE ( 'NONE', *, *, #91, .T. ) ;
#164 = EDGE_LOOP ( 'NONE', ( #217, #165, #218, #203 ) ) ;
#165 = ORIENTED_EDGE ( 'NONE', *, *, #114, .T. ) ;
#166 = EDGE_CURVE ( 'NONE', #190, #97, #58, .T. ) ;
#167 = ORIENTED_EDGE ( 'NONE', *, *, #78, .F. ) ;
#168 = EDGE_LOOP ( 'NONE', ( #239, #220 ) ) ;
#169 = DIRECTION ( 'NONE',  ( -0.0000000000000000000, -0.0000000000000000000, -1.000000000000000000 ) ) ;
#170 = MECHANICAL_DESIGN_GEOMETRIC_PRESENTATION_REPRESENTATION (  '', ( #87 ), #202 ) ;
#171 = LENGTH_MEASURE_WITH_UNIT ( LENGTH_MEASURE( 0.02539999999999999897 ), #71 );
#172 = VECTOR ( 'NONE', #196, 39.37007874015748143 ) ;
#173 = AXIS2_PLACEMENT_3D ( 'NONE', #38, #121, #133 ) ;
#174 = DIRECTION ( 'NONE',  ( -0.0000000000000000000, -0.0000000000000000000, -1.000000000000000000 ) ) ;
#175 = PRODUCT_DEFINITION_SHAPE ( 'NONE', 'NONE',  #57 ) ;
#176 = CARTESIAN_POINT ( 'NONE',  ( 0.0000000000000000000, 0.0000000000000000000, 0.0000000000000000000 ) ) ;
#177 = CARTESIAN_POINT ( 'NONE',  ( -0.004000000000000000083, 4.071950607164948872E-18, 0.0000000000000000000 ) ) ;
#178 = CARTESIAN_POINT ( 'NONE',  ( 0.0000000000000000000, 0.0000000000000000000, 3.000000000000000444 ) ) ;
#179 = MECHANICAL_DESIGN_GEOMETRIC_PRESENTATION_REPRESENTATION (  '', ( #221 ), #63 ) ;
#180 = DIRECTION ( 'NONE',  ( 1.000000000000000000, 0.0000000000000000000, 0.0000000000000000000 ) ) ;
#181 = EDGE_LOOP ( 'NONE', ( #126, #48, #149, #90 ) ) ;
#182 = EDGE_CURVE ( 'NONE', #46, #200, #27, .T. ) ;
#183 =( CONVERSION_BASED_UNIT ( 'INCH', #140 ) LENGTH_UNIT ( ) NAMED_UNIT ( #4 ) );
#184 = ORIENTED_EDGE ( 'NONE', *, *, #1, .F. ) ;
#185 = PRODUCT_CONTEXT ( 'NONE', #3, 'mechanical' ) ;
#186 = DIRECTION ( 'NONE',  ( 0.0000000000000000000, 0.0000000000000000000, -1.000000000000000000 ) ) ;
#187 = CARTESIAN_POINT ( 'NONE',  ( 0.004000000000000000083, 0.0000000000000000000, 0.0000000000000000000 ) ) ;
#188 = VECTOR ( 'NONE', #227, 39.37007874015748143 ) ;
#189 = CARTESIAN_POINT ( 'NONE',  ( 0.004000000000000000083, 0.0000000000000000000, 0.0000000000000000000 ) ) ;
#190 = VERTEX_POINT ( 'NONE', #135 ) ;
#191 = CIRCLE ( 'NONE', #147, 0.06250000000000000000 ) ;
#192 = CARTESIAN_POINT ( 'NONE',  ( 0.004000000000000000083, 0.0000000000000000000, 3.000000000000000444 ) ) ;
#193 = CONICAL_SURFACE ( 'NONE', #96, 0.004000000000000000083, 0.7853981633974501664 ) ;
#194 = DIRECTION ( 'NONE',  ( -0.7071067811865487940, -8.659560562354948882E-17, -0.7071067811865462405 ) ) ;
#195 = DIRECTION ( 'NONE',  ( -1.000000000000000000, 0.0000000000000000000, 0.0000000000000000000 ) ) ;
#196 = DIRECTION ( 'NONE',  ( 0.7071067811865487940, 0.0000000000000000000, -0.7071067811865462405 ) ) ;
#197 = CARTESIAN_POINT ( 'NONE',  ( 0.0000000000000000000, 0.0000000000000000000, 3.000000000000000444 ) ) ;
#198 = DIRECTION ( 'NONE',  ( -1.000000000000000000, 0.0000000000000000000, 0.0000000000000000000 ) ) ;
#199 = PRESENTATION_STYLE_ASSIGNMENT (( #64 ) ) ;
#200 = VERTEX_POINT ( 'NONE', #122 ) ;
#201 = EDGE_LOOP ( 'NONE', ( #128, #208, #67, #7 ) ) ;
#202 =( GEOMETRIC_REPRESENTATION_CONTEXT ( 3 ) GLOBAL_UNCERTAINTY_ASSIGNED_CONTEXT ( ( #55 ) ) GLOBAL_UNIT_ASSIGNED_CONTEXT ( ( #240, #35, #52 ) ) REPRESENTATION_CONTEXT ( 'NONE', 'WORKASPACE' ) );
#203 = ORIENTED_EDGE ( 'NONE', *, *, #100, .F. ) ;
#204 = ORIENTED_EDGE ( 'NONE', *, *, #69, .T. ) ;
#205 = VECTOR ( 'NONE', #39, 39.37007874015748143 ) ;
#206 = FACE_OUTER_BOUND ( 'NONE', #164, .T. ) ;
#207 = FILL_AREA_STYLE ('',( #74 ) ) ;
#208 = ORIENTED_EDGE ( 'NONE', *, *, #69, .F. ) ;
#209 = ADVANCED_FACE ( 'NONE', ( #102 ), #43, .T. ) ;
#210 = DIRECTION ( 'NONE',  ( -1.000000000000000000, 0.0000000000000000000, 0.0000000000000000000 ) ) ;
#211 = UNCERTAINTY_MEASURE_WITH_UNIT (LENGTH_MEASURE( 1.000000000000000082E-05 ), #183, 'distance_accuracy_value', 'NONE');
#212 = DIRECTION ( 'NONE',  ( -1.000000000000000000, 0.0000000000000000000, 0.0000000000000000000 ) ) ;
#213 = LINE ( 'NONE', #242, #205 ) ;
#214 = PRODUCT_DEFINITION_CONTEXT ( 'detailed design', #155, 'design' ) ;
#215 = FACE_OUTER_BOUND ( 'NONE', #168, .T. ) ;
#216 = LINE ( 'NONE', #228, #172 ) ;
#217 = ORIENTED_EDGE ( 'NONE', *, *, #237, .F. ) ;
#218 = ORIENTED_EDGE ( 'NONE', *, *, #144, .T. ) ;
#219 = DIRECTION ( 'NONE',  ( 0.0000000000000000000, 0.0000000000000000000, 1.000000000000000000 ) ) ;
#220 = ORIENTED_EDGE ( 'NONE', *, *, #114, .F. ) ;
#221 = STYLED_ITEM ( 'NONE', ( #199 ), #116 ) ;
#222 = FACE_OUTER_BOUND ( 'NONE', #28, .T. ) ;
#223 = SURFACE_STYLE_FILL_AREA ( #207 ) ;
#224 = DIRECTION ( 'NONE',  ( -1.000000000000000000, 0.0000000000000000000, 0.0000000000000000000 ) ) ;
#225 = VERTEX_POINT ( 'NONE', #177 ) ;
#226 = PRODUCT_RELATED_PRODUCT_CATEGORY ( 'part', '', ( #243 ) ) ;
#227 = DIRECTION ( 'NONE',  ( -0.0000000000000000000, -0.0000000000000000000, -1.000000000000000000 ) ) ;
#228 = CARTESIAN_POINT ( 'NONE',  ( 0.004000000000000000083, 0.0000000000000000000, 3.000000000000000444 ) ) ;
#229 = DIRECTION ( 'NONE',  ( 0.7071067811865487940, 0.0000000000000000000, 0.7071067811865462405 ) ) ;
#230 = DIRECTION ( 'NONE',  ( 0.0000000000000000000, 0.0000000000000000000, -1.000000000000000000 ) ) ;
#231 = EDGE_CURVE ( 'NONE', #225, #124, #213, .T. ) ;
#232 = CARTESIAN_POINT ( 'NONE',  ( 0.0000000000000000000, 0.0000000000000000000, 3.000000000000000444 ) ) ;
#233 = LENGTH_MEASURE_WITH_UNIT ( LENGTH_MEASURE( 0.02539999999999999897 ), #108 );
#234 = ADVANCED_FACE ( 'NONE', ( #117 ), #247, .F. ) ;
#235 = ORIENTED_EDGE ( 'NONE', *, *, #100, .T. ) ;
#236 = ORIENTED_EDGE ( 'NONE', *, *, #78, .T. ) ;
#237 = EDGE_CURVE ( 'NONE', #200, #127, #153, .T. ) ;
#238 = ORIENTED_EDGE ( 'NONE', *, *, #83, .F. ) ;
#239 = ORIENTED_EDGE ( 'NONE', *, *, #182, .F. ) ;
#240 =( CONVERSION_BASED_UNIT ( 'INCH', #171 ) LENGTH_UNIT ( ) NAMED_UNIT ( #44 ) );
#241 = DIRECTION ( 'NONE',  ( -1.000000000000000000, 0.0000000000000000000, 0.0000000000000000000 ) ) ;
#242 = CARTESIAN_POINT ( 'NONE',  ( -0.004000000000000000083, 4.898587196589413537E-19, 0.0000000000000000000 ) ) ;
#243 = PRODUCT ( 'Micro_RNC-125-23X', 'Micro_RNC-125-23X', '', ( #185 ) ) ;
#244 = DIRECTION ( 'NONE',  ( 0.0000000000000000000, 0.0000000000000000000, 1.000000000000000000 ) ) ;
#245 = DIRECTION ( 'NONE',  ( 1.000000000000000000, 0.0000000000000000000, -0.0000000000000000000 ) ) ;
#246 = ADVANCED_FACE ( 'NONE', ( #101 ), #193, .T. ) ;
#247 = PLANE ( 'NONE',  #59 ) ;
#248 = DIRECTION ( 'NONE',  ( 0.0000000000000000000, 0.0000000000000000000, -1.000000000000000000 ) ) ;
#249 = CIRCLE ( 'NONE', #33, 0.06250000000000000000 ) ;
ENDSEC;
END-ISO-10303-21;
