ISO-10303-21;
HEADER;
FILE_DESCRIPTION (( 'STEP AP214' ),
    '1' );
FILE_NAME ('Micro_RSC-500-1.STEP',
    '2021-09-03T17:53:36',
    ( '' ),
    ( '' ),
    'SwSTEP 2.0',
    'SolidWorks 2020',
    '' );
FILE_SCHEMA (( 'AUTOMOTIVE_DESIGN' ));
ENDSEC;

DATA;
#1 = STYLED_ITEM ( 'NONE', ( #176 ), #189 ) ;
#2 = EDGE_CURVE ( 'NONE', #81, #195, #153, .T. ) ;
#3 = SURFACE_STYLE_FILL_AREA ( #96 ) ;
#4 = EDGE_LOOP ( 'NONE', ( #100, #103, #63, #136 ) ) ;
#5 =( CONVERSION_BASED_UNIT ( 'INCH', #155 ) LENGTH_UNIT ( ) NAMED_UNIT ( #128 ) );
#6 = CIRCLE ( 'NONE', #53, 0.2500000000000000000 ) ;
#7 = ORIENTED_EDGE ( 'NONE', *, *, #9, .T. ) ;
#8 = ORIENTED_EDGE ( 'NONE', *, *, #163, .T. ) ;
#9 = EDGE_CURVE ( 'NONE', #142, #117, #22, .T. ) ;
#10 = DIRECTION ( 'NONE',  ( 0.0000000000000000000, 0.0000000000000000000, 1.000000000000000000 ) ) ;
#11 = DIRECTION ( 'NONE',  ( 1.000000000000000000, 0.0000000000000000000, 0.0000000000000000000 ) ) ;
#12 = STYLED_ITEM ( 'NONE', ( #181 ), #37 ) ;
#13 = CARTESIAN_POINT ( 'NONE',  ( 0.003999999999999999216, 0.0000000000000000000, 0.0000000000000000000 ) ) ;
#14 = CARTESIAN_POINT ( 'NONE',  ( 0.0000000000000000000, 0.0000000000000000000, 3.000000000000000444 ) ) ;
#15 = CARTESIAN_POINT ( 'NONE',  ( 0.0000000000000000000, 0.0000000000000000000, 0.4260844986619422570 ) ) ;
#16 = AXIS2_PLACEMENT_3D ( 'NONE', #221, #178, #196 ) ;
#17 =( LENGTH_UNIT ( ) NAMED_UNIT ( * ) SI_UNIT ( $, .METRE. ) );
#18 = ADVANCED_FACE ( 'NONE', ( #143 ), #167, .T. ) ;
#19 = ORIENTED_EDGE ( 'NONE', *, *, #199, .T. ) ;
#20 = EDGE_LOOP ( 'NONE', ( #7, #124 ) ) ;
#21 = EDGE_LOOP ( 'NONE', ( #157, #119, #133, #26 ) ) ;
#22 = CIRCLE ( 'NONE', #62, 0.2350000000000011524 ) ;
#23 = SURFACE_SIDE_STYLE ('',( #64 ) ) ;
#24 = AXIS2_PLACEMENT_3D ( 'NONE', #14, #172, #146 ) ;
#25 = EDGE_LOOP ( 'NONE', ( #162, #8, #121, #105 ) ) ;
#26 = ORIENTED_EDGE ( 'NONE', *, *, #163, .F. ) ;
#27 = ORIENTED_EDGE ( 'NONE', *, *, #67, .T. ) ;
#28 =( GEOMETRIC_REPRESENTATION_CONTEXT ( 3 ) GLOBAL_UNCERTAINTY_ASSIGNED_CONTEXT ( ( #79 ) ) GLOBAL_UNIT_ASSIGNED_CONTEXT ( ( #59, #201, #147 ) ) REPRESENTATION_CONTEXT ( 'NONE', 'WORKASPACE' ) );
#29 = LINE ( 'NONE', #149, #43 ) ;
#30 = CARTESIAN_POINT ( 'NONE',  ( 0.2500000000000000000, 3.061616997868382402E-17, 0.4260844986619422570 ) ) ;
#31 = DIRECTION ( 'NONE',  ( -0.7071067811865402453, 0.0000000000000000000, -0.7071067811865546782 ) ) ;
#32 = DIRECTION ( 'NONE',  ( 1.000000000000000000, 0.0000000000000000000, -0.0000000000000000000 ) ) ;
#33 = LINE ( 'NONE', #150, #144 ) ;
#34 =( NAMED_UNIT ( * ) PLANE_ANGLE_UNIT ( ) SI_UNIT ( $, .RADIAN. ) );
#35 = VERTEX_POINT ( 'NONE', #138 ) ;
#36 = CONICAL_SURFACE ( 'NONE', #112, 0.2350000000000011524, 0.7853981633974380649 ) ;
#37 = MANIFOLD_SOLID_BREP ( 'Cut-Revolve1', #174 ) ;
#38 = EDGE_LOOP ( 'NONE', ( #122, #85 ) ) ;
#39 = VECTOR ( 'NONE', #205, 39.37007874015748854 ) ;
#40 = DIRECTION ( 'NONE',  ( -1.000000000000000000, 0.0000000000000000000, 0.0000000000000000000 ) ) ;
#41 = APPLICATION_PROTOCOL_DEFINITION ( 'draft international standard', 'automotive_design', 1998, #219 ) ;
#42 = DIRECTION ( 'NONE',  ( 1.000000000000000000, 0.0000000000000000000, 0.0000000000000000000 ) ) ;
#43 = VECTOR ( 'NONE', #51, 39.37007874015748854 ) ;
#44 = AXIS2_PLACEMENT_3D ( 'NONE', #184, #170, #246 ) ;
#45 = DIRECTION ( 'NONE',  ( 1.000000000000000000, 0.0000000000000000000, -0.0000000000000000000 ) ) ;
#46 = ADVANCED_FACE ( 'NONE', ( #129 ), #55, .T. ) ;
#47 = CARTESIAN_POINT ( 'NONE',  ( -0.003999999999999999216, 1.555301434917138211E-17, 0.0000000000000000000 ) ) ;
#48 = CARTESIAN_POINT ( 'NONE',  ( -0.2500000000000000000, 0.0000000000000000000, 0.4260844986619422570 ) ) ;
#49 = AXIS2_PLACEMENT_3D ( 'NONE', #245, #145, #200 ) ;
#50 = CARTESIAN_POINT ( 'NONE',  ( -0.2500000000000000000, 0.0000000000000000000, 3.000000000000000444 ) ) ;
#51 = DIRECTION ( 'NONE',  ( 0.7071067811865402453, 8.659560562354845344E-17, -0.7071067811865546782 ) ) ;
#52 = FACE_OUTER_BOUND ( 'NONE', #38, .T. ) ;
#53 = AXIS2_PLACEMENT_3D ( 'NONE', #175, #249, #74 ) ;
#54 = FACE_OUTER_BOUND ( 'NONE', #179, .T. ) ;
#55 = CONICAL_SURFACE ( 'NONE', #202, 0.003999999999999999216, 0.5235987755983003700 ) ;
#56 = CARTESIAN_POINT ( 'NONE',  ( 0.0000000000000000000, 0.0000000000000000000, 0.0000000000000000000 ) ) ;
#57 = EDGE_CURVE ( 'NONE', #195, #81, #68, .T. ) ;
#58 = PRODUCT_CONTEXT ( 'NONE', #160, 'mechanical' ) ;
#59 =( CONVERSION_BASED_UNIT ( 'INCH', #237 ) LENGTH_UNIT ( ) NAMED_UNIT ( #125 ) );
#60 = DIRECTION ( 'NONE',  ( 0.0000000000000000000, 0.0000000000000000000, 1.000000000000000000 ) ) ;
#61 = DIRECTION ( 'NONE',  ( -0.0000000000000000000, -0.0000000000000000000, -1.000000000000000000 ) ) ;
#62 = AXIS2_PLACEMENT_3D ( 'NONE', #242, #161, #42 ) ;
#63 = ORIENTED_EDGE ( 'NONE', *, *, #67, .F. ) ;
#64 = SURFACE_STYLE_FILL_AREA ( #193 ) ;
#65 = FILL_AREA_STYLE_COLOUR ( '', #90 ) ;
#66 = PLANE ( 'NONE',  #240 ) ;
#67 = EDGE_CURVE ( 'NONE', #80, #78, #223, .T. ) ;
#68 = CIRCLE ( 'NONE', #192, 0.003999999999999999216 ) ;
#69 = COLOUR_RGB ( '',0.7921568627450980005, 0.8196078431372548767, 0.9333333333333333481 ) ;
#70 = CARTESIAN_POINT ( 'NONE',  ( -0.003999999999999999216, 4.898587196589411612E-19, 0.0000000000000000000 ) ) ;
#71 = DIRECTION ( 'NONE',  ( -0.0000000000000000000, -0.0000000000000000000, -1.000000000000000000 ) ) ;
#72 = PRODUCT_DEFINITION ( 'UNKNOWN', '', #169, #214 ) ;
#73 = AXIS2_PLACEMENT_3D ( 'NONE', #233, #132, #32 ) ;
#74 = DIRECTION ( 'NONE',  ( 1.000000000000000000, 0.0000000000000000000, 0.0000000000000000000 ) ) ;
#75 = DIRECTION ( 'NONE',  ( 0.0000000000000000000, 0.0000000000000000000, -1.000000000000000000 ) ) ;
#76 = PRODUCT ( 'Micro_RSC-500-1', 'Micro_RSC-500-1', '', ( #58 ) ) ;
#77 =( NAMED_UNIT ( * ) PLANE_ANGLE_UNIT ( ) SI_UNIT ( $, .RADIAN. ) );
#78 = VERTEX_POINT ( 'NONE', #30 ) ;
#79 = UNCERTAINTY_MEASURE_WITH_UNIT (LENGTH_MEASURE( 1.000000000000000082E-05 ), #59, 'distance_accuracy_value', 'NONE');
#80 = VERTEX_POINT ( 'NONE', #48 ) ;
#81 = VERTEX_POINT ( 'NONE', #47 ) ;
#82 = ORIENTED_EDGE ( 'NONE', *, *, #120, .T. ) ;
#83 = ORIENTED_EDGE ( 'NONE', *, *, #2, .F. ) ;
#84 = CONICAL_SURFACE ( 'NONE', #101, 0.003999999999999999216, 0.5235987755983003700 ) ;
#85 = ORIENTED_EDGE ( 'NONE', *, *, #2, .T. ) ;
#86 = EDGE_LOOP ( 'NONE', ( #238, #165, #82, #19 ) ) ;
#87 = EDGE_CURVE ( 'NONE', #117, #142, #139, .T. ) ;
#88 = LINE ( 'NONE', #70, #39 ) ;
#89 = DIRECTION ( 'NONE',  ( 0.0000000000000000000, 0.0000000000000000000, 1.000000000000000000 ) ) ;
#90 = COLOUR_RGB ( '',0.7921568627450980005, 0.8196078431372548767, 0.9333333333333333481 ) ;
#91 = DIRECTION ( 'NONE',  ( -1.000000000000000000, 0.0000000000000000000, 0.0000000000000000000 ) ) ;
#92 = CARTESIAN_POINT ( 'NONE',  ( 0.0000000000000000000, 0.0000000000000000000, 3.000000000000000444 ) ) ;
#93 = DIRECTION ( 'NONE',  ( -0.0000000000000000000, -0.0000000000000000000, -1.000000000000000000 ) ) ;
#94 = VECTOR ( 'NONE', #93, 39.37007874015748143 ) ;
#95 = FILL_AREA_STYLE_COLOUR ( '', #69 ) ;
#96 = FILL_AREA_STYLE ('',( #95 ) ) ;
#97 = VECTOR ( 'NONE', #106, 39.37007874015748854 ) ;
#98 = APPLICATION_PROTOCOL_DEFINITION ( 'draft international standard', 'automotive_design', 1998, #160 ) ;
#99 = SURFACE_SIDE_STYLE ('',( #3 ) ) ;
#100 = ORIENTED_EDGE ( 'NONE', *, *, #190, .T. ) ;
#101 = AXIS2_PLACEMENT_3D ( 'NONE', #247, #110, #227 ) ;
#102 = UNCERTAINTY_MEASURE_WITH_UNIT (LENGTH_MEASURE( 1.000000000000000082E-05 ), #116, 'distance_accuracy_value', 'NONE');
#103 = ORIENTED_EDGE ( 'NONE', *, *, #204, .T. ) ;
#104 = SURFACE_STYLE_USAGE ( .BOTH. , #23 ) ;
#105 = ORIENTED_EDGE ( 'NONE', *, *, #199, .F. ) ;
#106 = DIRECTION ( 'NONE',  ( 0.5000000000000012212, 0.0000000000000000000, 0.8660254037844377084 ) ) ;
#107 = CARTESIAN_POINT ( 'NONE',  ( 0.003999999999999999216, 0.0000000000000000000, 0.0000000000000000000 ) ) ;
#108 = DIRECTION ( 'NONE',  ( -0.0000000000000000000, -0.0000000000000000000, -1.000000000000000000 ) ) ;
#109 = DIRECTION ( 'NONE',  ( -1.000000000000000000, 0.0000000000000000000, 0.0000000000000000000 ) ) ;
#110 = DIRECTION ( 'NONE',  ( 0.0000000000000000000, 0.0000000000000000000, 1.000000000000000000 ) ) ;
#111 = DIRECTION ( 'NONE',  ( -1.000000000000000000, 0.0000000000000000000, 0.0000000000000000000 ) ) ;
#112 = AXIS2_PLACEMENT_3D ( 'NONE', #156, #232, #111 ) ;
#113 = EDGE_CURVE ( 'NONE', #117, #235, #29, .T. ) ;
#114 = LENGTH_MEASURE_WITH_UNIT ( LENGTH_MEASURE( 0.02539999999999999897 ), #17 );
#115 = EDGE_CURVE ( 'NONE', #81, #80, #88, .T. ) ;
#116 =( CONVERSION_BASED_UNIT ( 'INCH', #114 ) LENGTH_UNIT ( ) NAMED_UNIT ( #208 ) );
#117 = VERTEX_POINT ( 'NONE', #225 ) ;
#118 = UNCERTAINTY_MEASURE_WITH_UNIT (LENGTH_MEASURE( 1.000000000000000082E-05 ), #5, 'distance_accuracy_value', 'NONE');
#119 = ORIENTED_EDGE ( 'NONE', *, *, #9, .F. ) ;
#120 = EDGE_CURVE ( 'NONE', #195, #78, #229, .T. ) ;
#121 = ORIENTED_EDGE ( 'NONE', *, *, #180, .T. ) ;
#122 = ORIENTED_EDGE ( 'NONE', *, *, #57, .T. ) ;
#123 = AXIS2_PLACEMENT_3D ( 'NONE', #15, #108, #109 ) ;
#124 = ORIENTED_EDGE ( 'NONE', *, *, #87, .T. ) ;
#125 = DIMENSIONAL_EXPONENTS ( 1.000000000000000000, 0.0000000000000000000, 0.0000000000000000000, 0.0000000000000000000, 0.0000000000000000000, 0.0000000000000000000, 0.0000000000000000000 ) ;
#126 = CARTESIAN_POINT ( 'NONE',  ( 0.0000000000000000000, 0.0000000000000000000, 3.000000000000000444 ) ) ;
#127 = ADVANCED_FACE ( 'NONE', ( #207 ), #66, .T. ) ;
#128 = DIMENSIONAL_EXPONENTS ( 1.000000000000000000, 0.0000000000000000000, 0.0000000000000000000, 0.0000000000000000000, 0.0000000000000000000, 0.0000000000000000000, 0.0000000000000000000 ) ;
#129 = FACE_OUTER_BOUND ( 'NONE', #86, .T. ) ;
#130 = CARTESIAN_POINT ( 'NONE',  ( -0.2350000000000011524, 0.0000000000000000000, 3.000000000000000444 ) ) ;
#131 = DIRECTION ( 'NONE',  ( 0.0000000000000000000, 0.0000000000000000000, 1.000000000000000000 ) ) ;
#132 = DIRECTION ( 'NONE',  ( 0.0000000000000000000, 0.0000000000000000000, 1.000000000000000000 ) ) ;
#133 = ORIENTED_EDGE ( 'NONE', *, *, #159, .T. ) ;
#134 =( GEOMETRIC_REPRESENTATION_CONTEXT ( 3 ) GLOBAL_UNCERTAINTY_ASSIGNED_CONTEXT ( ( #102 ) ) GLOBAL_UNIT_ASSIGNED_CONTEXT ( ( #116, #34, #191 ) ) REPRESENTATION_CONTEXT ( 'NONE', 'WORKASPACE' ) );
#135 = CONICAL_SURFACE ( 'NONE', #215, 0.2350000000000011524, 0.7853981633974380649 ) ;
#136 = ORIENTED_EDGE ( 'NONE', *, *, #180, .F. ) ;
#137 = PRODUCT_RELATED_PRODUCT_CATEGORY ( 'part', '', ( #76 ) ) ;
#138 = CARTESIAN_POINT ( 'NONE',  ( -0.2500000000000000000, 0.0000000000000000000, 2.985000000000001208 ) ) ;
#139 = CIRCLE ( 'NONE', #158, 0.2350000000000011524 ) ;
#140 = ORIENTED_EDGE ( 'NONE', *, *, #115, .T. ) ;
#141 = ADVANCED_FACE ( 'NONE', ( #186 ), #84, .T. ) ;
#142 = VERTEX_POINT ( 'NONE', #198 ) ;
#143 = FACE_OUTER_BOUND ( 'NONE', #4, .T. ) ;
#144 = VECTOR ( 'NONE', #230, 39.37007874015748143 ) ;
#145 = DIRECTION ( 'NONE',  ( 0.0000000000000000000, 0.0000000000000000000, -1.000000000000000000 ) ) ;
#146 = DIRECTION ( 'NONE',  ( -1.000000000000000000, 0.0000000000000000000, 0.0000000000000000000 ) ) ;
#147 =( NAMED_UNIT ( * ) SI_UNIT ( $, .STERADIAN. ) SOLID_ANGLE_UNIT ( ) );
#148 = DIRECTION ( 'NONE',  ( 1.000000000000000000, 0.0000000000000000000, 0.0000000000000000000 ) ) ;
#149 = CARTESIAN_POINT ( 'NONE',  ( 0.2350000000000011524, 2.877919977996294002E-17, 3.000000000000000444 ) ) ;
#150 = CARTESIAN_POINT ( 'NONE',  ( 0.2500000000000000000, 3.061616997868382402E-17, 3.000000000000000444 ) ) ;
#151 = ORIENTED_EDGE ( 'NONE', *, *, #190, .F. ) ;
#152 = PLANE ( 'NONE',  #73 ) ;
#153 = CIRCLE ( 'NONE', #194, 0.003999999999999999216 ) ;
#154 = CARTESIAN_POINT ( 'NONE',  ( 0.0000000000000000000, 0.0000000000000000000, 3.000000000000000444 ) ) ;
#155 = LENGTH_MEASURE_WITH_UNIT ( LENGTH_MEASURE( 0.02539999999999999897 ), #177 );
#156 = CARTESIAN_POINT ( 'NONE',  ( 0.0000000000000000000, 0.0000000000000000000, 3.000000000000000444 ) ) ;
#157 = ORIENTED_EDGE ( 'NONE', *, *, #113, .F. ) ;
#158 = AXIS2_PLACEMENT_3D ( 'NONE', #126, #10, #148 ) ;
#159 = EDGE_CURVE ( 'NONE', #142, #35, #168, .T. ) ;
#160 = APPLICATION_CONTEXT ( 'automotive_design' ) ;
#161 = DIRECTION ( 'NONE',  ( 0.0000000000000000000, 0.0000000000000000000, 1.000000000000000000 ) ) ;
#162 = ORIENTED_EDGE ( 'NONE', *, *, #204, .F. ) ;
#163 = EDGE_CURVE ( 'NONE', #235, #35, #210, .T. ) ;
#164 = VECTOR ( 'NONE', #31, 39.37007874015748854 ) ;
#165 = ORIENTED_EDGE ( 'NONE', *, *, #57, .F. ) ;
#166 = DIRECTION ( 'NONE',  ( 1.000000000000000000, 0.0000000000000000000, 0.0000000000000000000 ) ) ;
#167 = CYLINDRICAL_SURFACE ( 'NONE', #16, 0.2500000000000000000 ) ;
#168 = LINE ( 'NONE', #130, #164 ) ;
#169 = PRODUCT_DEFINITION_FORMATION_WITH_SPECIFIED_SOURCE ( 'ANY', '', #76, .NOT_KNOWN. ) ;
#170 = DIRECTION ( 'NONE',  ( -0.0000000000000000000, -0.0000000000000000000, -1.000000000000000000 ) ) ;
#171 = CARTESIAN_POINT ( 'NONE',  ( 0.0000000000000000000, 0.0000000000000000000, 0.0000000000000000000 ) ) ;
#172 = DIRECTION ( 'NONE',  ( -0.0000000000000000000, -0.0000000000000000000, -1.000000000000000000 ) ) ;
#173 = ADVANCED_FACE ( 'NONE', ( #187 ), #224, .T. ) ;
#174 = CLOSED_SHELL ( 'NONE', ( #141, #226, #18, #173, #127, #243, #46, #222 ) ) ;
#175 = CARTESIAN_POINT ( 'NONE',  ( 0.0000000000000000000, 0.0000000000000000000, 2.985000000000001208 ) ) ;
#176 = PRESENTATION_STYLE_ASSIGNMENT (( #211 ) ) ;
#177 =( LENGTH_UNIT ( ) NAMED_UNIT ( * ) SI_UNIT ( $, .METRE. ) );
#178 = DIRECTION ( 'NONE',  ( -0.0000000000000000000, -0.0000000000000000000, -1.000000000000000000 ) ) ;
#179 = EDGE_LOOP ( 'NONE', ( #216, #244, #151, #183 ) ) ;
#180 = EDGE_CURVE ( 'NONE', #35, #80, #248, .T. ) ;
#181 = PRESENTATION_STYLE_ASSIGNMENT (( #104 ) ) ;
#182 = AXIS2_PLACEMENT_3D ( 'NONE', #56, #60, #166 ) ;
#183 = ORIENTED_EDGE ( 'NONE', *, *, #159, .F. ) ;
#184 = CARTESIAN_POINT ( 'NONE',  ( 0.0000000000000000000, 0.0000000000000000000, 0.4260844986619422570 ) ) ;
#185 = PRESENTATION_LAYER_ASSIGNMENT (  '', '', ( #1 ) ) ;
#186 = FACE_OUTER_BOUND ( 'NONE', #220, .T. ) ;
#187 = FACE_OUTER_BOUND ( 'NONE', #25, .T. ) ;
#188 = FACE_OUTER_BOUND ( 'NONE', #21, .T. ) ;
#189 = ADVANCED_BREP_SHAPE_REPRESENTATION ( 'Micro_RSC-500-1', ( #37, #182 ), #134 ) ;
#190 = EDGE_CURVE ( 'NONE', #35, #235, #6, .T. ) ;
#191 =( NAMED_UNIT ( * ) SI_UNIT ( $, .STERADIAN. ) SOLID_ANGLE_UNIT ( ) );
#192 = AXIS2_PLACEMENT_3D ( 'NONE', #171, #71, #91 ) ;
#193 = FILL_AREA_STYLE ('',( #65 ) ) ;
#194 = AXIS2_PLACEMENT_3D ( 'NONE', #239, #61, #40 ) ;
#195 = VERTEX_POINT ( 'NONE', #107 ) ;
#196 = DIRECTION ( 'NONE',  ( -1.000000000000000000, 0.0000000000000000000, 0.0000000000000000000 ) ) ;
#197 =( LENGTH_UNIT ( ) NAMED_UNIT ( * ) SI_UNIT ( $, .METRE. ) );
#198 = CARTESIAN_POINT ( 'NONE',  ( -0.2350000000000011524, 0.0000000000000000000, 3.000000000000000444 ) ) ;
#199 = EDGE_CURVE ( 'NONE', #78, #80, #203, .T. ) ;
#200 = DIRECTION ( 'NONE',  ( 1.000000000000000000, 0.0000000000000000000, 0.0000000000000000000 ) ) ;
#201 =( NAMED_UNIT ( * ) PLANE_ANGLE_UNIT ( ) SI_UNIT ( $, .RADIAN. ) );
#202 = AXIS2_PLACEMENT_3D ( 'NONE', #217, #131, #11 ) ;
#203 = CIRCLE ( 'NONE', #44, 0.2500000000000000000 ) ;
#204 = EDGE_CURVE ( 'NONE', #235, #78, #33, .T. ) ;
#205 = DIRECTION ( 'NONE',  ( -0.5000000000000012212, 6.123233995736780827E-17, 0.8660254037844377084 ) ) ;
#206 = PRODUCT_DEFINITION_SHAPE ( 'NONE', 'NONE',  #72 ) ;
#207 = FACE_OUTER_BOUND ( 'NONE', #20, .T. ) ;
#208 = DIMENSIONAL_EXPONENTS ( 1.000000000000000000, 0.0000000000000000000, 0.0000000000000000000, 0.0000000000000000000, 0.0000000000000000000, 0.0000000000000000000, 0.0000000000000000000 ) ;
#209 = CARTESIAN_POINT ( 'NONE',  ( 0.2500000000000000000, 3.061616997868382402E-17, 2.985000000000001208 ) ) ;
#210 = CIRCLE ( 'NONE', #49, 0.2500000000000000000 ) ;
#211 = SURFACE_STYLE_USAGE ( .BOTH. , #99 ) ;
#212 =( GEOMETRIC_REPRESENTATION_CONTEXT ( 3 ) GLOBAL_UNCERTAINTY_ASSIGNED_CONTEXT ( ( #118 ) ) GLOBAL_UNIT_ASSIGNED_CONTEXT ( ( #5, #77, #231 ) ) REPRESENTATION_CONTEXT ( 'NONE', 'WORKASPACE' ) );
#213 = DIRECTION ( 'NONE',  ( -1.000000000000000000, 0.0000000000000000000, 0.0000000000000000000 ) ) ;
#214 = PRODUCT_DEFINITION_CONTEXT ( 'detailed design', #219, 'design' ) ;
#215 = AXIS2_PLACEMENT_3D ( 'NONE', #154, #75, #213 ) ;
#216 = ORIENTED_EDGE ( 'NONE', *, *, #87, .F. ) ;
#217 = CARTESIAN_POINT ( 'NONE',  ( 0.0000000000000000000, 0.0000000000000000000, 0.0000000000000000000 ) ) ;
#218 = ORIENTED_EDGE ( 'NONE', *, *, #120, .F. ) ;
#219 = APPLICATION_CONTEXT ( 'automotive_design' ) ;
#220 = EDGE_LOOP ( 'NONE', ( #83, #140, #27, #218 ) ) ;
#221 = CARTESIAN_POINT ( 'NONE',  ( 0.0000000000000000000, 0.0000000000000000000, 3.000000000000000444 ) ) ;
#222 = ADVANCED_FACE ( 'NONE', ( #52 ), #152, .F. ) ;
#223 = CIRCLE ( 'NONE', #123, 0.2500000000000000000 ) ;
#224 = CYLINDRICAL_SURFACE ( 'NONE', #24, 0.2500000000000000000 ) ;
#225 = CARTESIAN_POINT ( 'NONE',  ( 0.2350000000000011524, 2.969768487932338510E-17, 3.000000000000000444 ) ) ;
#226 = ADVANCED_FACE ( 'NONE', ( #54 ), #36, .T. ) ;
#227 = DIRECTION ( 'NONE',  ( 1.000000000000000000, 0.0000000000000000000, 0.0000000000000000000 ) ) ;
#228 = MECHANICAL_DESIGN_GEOMETRIC_PRESENTATION_REPRESENTATION (  '', ( #12 ), #28 ) ;
#229 = LINE ( 'NONE', #13, #97 ) ;
#230 = DIRECTION ( 'NONE',  ( -0.0000000000000000000, -0.0000000000000000000, -1.000000000000000000 ) ) ;
#231 =( NAMED_UNIT ( * ) SI_UNIT ( $, .STERADIAN. ) SOLID_ANGLE_UNIT ( ) );
#232 = DIRECTION ( 'NONE',  ( 0.0000000000000000000, 0.0000000000000000000, -1.000000000000000000 ) ) ;
#233 = CARTESIAN_POINT ( 'NONE',  ( 0.0000000000000000000, 0.0000000000000000000, 0.0000000000000000000 ) ) ;
#234 = PRESENTATION_LAYER_ASSIGNMENT (  '', '', ( #12 ) ) ;
#235 = VERTEX_POINT ( 'NONE', #209 ) ;
#236 = SHAPE_DEFINITION_REPRESENTATION ( #206, #189 ) ;
#237 = LENGTH_MEASURE_WITH_UNIT ( LENGTH_MEASURE( 0.02539999999999999897 ), #197 );
#238 = ORIENTED_EDGE ( 'NONE', *, *, #115, .F. ) ;
#239 = CARTESIAN_POINT ( 'NONE',  ( 0.0000000000000000000, 0.0000000000000000000, 0.0000000000000000000 ) ) ;
#240 = AXIS2_PLACEMENT_3D ( 'NONE', #92, #89, #45 ) ;
#241 = MECHANICAL_DESIGN_GEOMETRIC_PRESENTATION_REPRESENTATION (  '', ( #1 ), #212 ) ;
#242 = CARTESIAN_POINT ( 'NONE',  ( 0.0000000000000000000, 0.0000000000000000000, 3.000000000000000444 ) ) ;
#243 = ADVANCED_FACE ( 'NONE', ( #188 ), #135, .T. ) ;
#244 = ORIENTED_EDGE ( 'NONE', *, *, #113, .T. ) ;
#245 = CARTESIAN_POINT ( 'NONE',  ( 0.0000000000000000000, 0.0000000000000000000, 2.985000000000001208 ) ) ;
#246 = DIRECTION ( 'NONE',  ( -1.000000000000000000, 0.0000000000000000000, 0.0000000000000000000 ) ) ;
#247 = CARTESIAN_POINT ( 'NONE',  ( 0.0000000000000000000, 0.0000000000000000000, 0.0000000000000000000 ) ) ;
#248 = LINE ( 'NONE', #50, #94 ) ;
#249 = DIRECTION ( 'NONE',  ( 0.0000000000000000000, 0.0000000000000000000, -1.000000000000000000 ) ) ;
ENDSEC;
END-ISO-10303-21;
