ISO-10303-21;
HEADER;
FILE_DESCRIPTION (( 'STEP AP214' ),
    '1' );
FILE_NAME ('Micro_BEM-062-02X.STEP',
    '2021-09-03T12:58:22',
    ( '' ),
    ( '' ),
    'SwSTEP 2.0',
    'SolidWorks 2020',
    '' );
FILE_SCHEMA (( 'AUTOMOTIVE_DESIGN' ));
ENDSEC;

DATA;
#1 = UNCERTAINTY_MEASURE_WITH_UNIT (LENGTH_MEASURE( 1.000000000000000082E-05 ), #40, 'distance_accuracy_value', 'NONE');
#2 = EDGE_LOOP ( 'NONE', ( #234, #196, #127, #219 ) ) ;
#3 = DIRECTION ( 'NONE',  ( 1.000000000000000000, 0.0000000000000000000, 0.0000000000000000000 ) ) ;
#4 = CIRCLE ( 'NONE', #320, 0.06250000000000002776 ) ;
#5 = CIRCLE ( 'NONE', #25, 0.03121874999999999997 ) ;
#6 = ORIENTED_EDGE ( 'NONE', *, *, #147, .F. ) ;
#7 = FACE_OUTER_BOUND ( 'NONE', #153, .T. ) ;
#8 = ORIENTED_EDGE ( 'NONE', *, *, #109, .F. ) ;
#9 = DIRECTION ( 'NONE',  ( -1.224646799147353700E-16, -0.0000000000000000000, -1.000000000000000000 ) ) ;
#10 =( LENGTH_UNIT ( ) NAMED_UNIT ( * ) SI_UNIT ( $, .METRE. ) );
#11 = CARTESIAN_POINT ( 'NONE',  ( 3.823194226088145228E-18, 0.0000000000000000000, 0.03121874999999999997 ) ) ;
#12 = SURFACE_SIDE_STYLE ('',( #185 ) ) ;
#13 = AXIS2_PLACEMENT_3D ( 'NONE', #159, #156, #108 ) ;
#14 = CARTESIAN_POINT ( 'NONE',  ( 4.474917996329785777E-17, 0.0000000000000000000, 0.3654047844199156403 ) ) ;
#15 = CIRCLE ( 'NONE', #139, 0.03121874999999999997 ) ;
#16 = DIRECTION ( 'NONE',  ( 0.7071067811865462405, 8.659560562354916834E-17, -0.7071067811865486830 ) ) ;
#17 = CARTESIAN_POINT ( 'NONE',  ( 0.06250000000000006939, 7.654042494670963708E-18, 0.3654047844199156403 ) ) ;
#18 = CLOSED_SHELL ( 'NONE', ( #54, #73, #102, #99, #106, #68, #118, #232, #316, #137, #274 ) ) ;
#19 = AXIS2_PLACEMENT_3D ( 'NONE', #136, #9, #111 ) ;
#20 = CARTESIAN_POINT ( 'NONE',  ( 0.0000000000000000000, 0.0000000000000000000, 1.500000000000000222 ) ) ;
#21 = EDGE_CURVE ( 'NONE', #299, #36, #97, .T. ) ;
#22 = ORIENTED_EDGE ( 'NONE', *, *, #59, .T. ) ;
#23 = EDGE_LOOP ( 'NONE', ( #29, #226, #262, #53 ) ) ;
#24 = DIRECTION ( 'NONE',  ( 0.0000000000000000000, 0.0000000000000000000, 1.000000000000000000 ) ) ;
#25 = AXIS2_PLACEMENT_3D ( 'NONE', #88, #104, #149 ) ;
#26 = VERTEX_POINT ( 'NONE', #87 ) ;
#27 = FACE_OUTER_BOUND ( 'NONE', #110, .T. ) ;
#28 = CARTESIAN_POINT ( 'NONE',  ( 0.0000000000000000000, 0.0000000000000000000, 1.485000000000000764 ) ) ;
#29 = ORIENTED_EDGE ( 'NONE', *, *, #188, .F. ) ;
#30 = DIRECTION ( 'NONE',  ( -0.7071067811865462405, 0.0000000000000000000, -0.7071067811865486830 ) ) ;
#31 = DIRECTION ( 'NONE',  ( 1.000000000000000000, 0.0000000000000000000, 0.0000000000000000000 ) ) ;
#32 = SURFACE_STYLE_FILL_AREA ( #281 ) ;
#33 = CARTESIAN_POINT ( 'NONE',  ( -0.06250000000000002776, 0.0000000000000000000, 1.485000000000000764 ) ) ;
#34 =( GEOMETRIC_REPRESENTATION_CONTEXT ( 3 ) GLOBAL_UNCERTAINTY_ASSIGNED_CONTEXT ( ( #92 ) ) GLOBAL_UNIT_ASSIGNED_CONTEXT ( ( #301, #180, #93 ) ) REPRESENTATION_CONTEXT ( 'NONE', 'WORKASPACE' ) );
#35 = AXIS2_PLACEMENT_3D ( 'NONE', #181, #183, #209 ) ;
#36 = VERTEX_POINT ( 'NONE', #80 ) ;
#37 = DIRECTION ( 'NONE',  ( 1.224646799147353700E-16, 0.0000000000000000000, 1.000000000000000000 ) ) ;
#38 = MANIFOLD_SOLID_BREP ( 'Fillet1', #18 ) ;
#39 = EDGE_CURVE ( 'NONE', #135, #322, #248, .T. ) ;
#40 =( CONVERSION_BASED_UNIT ( 'INCH', #292 ) LENGTH_UNIT ( ) NAMED_UNIT ( #247 ) );
#41 = PRODUCT_CONTEXT ( 'NONE', #311, 'mechanical' ) ;
#42 = CARTESIAN_POINT ( 'NONE',  ( 0.0000000000000000000, 0.0000000000000000000, 1.500000000000000222 ) ) ;
#43 = LINE ( 'NONE', #243, #221 ) ;
#44 = EDGE_CURVE ( 'NONE', #84, #36, #4, .T. ) ;
#45 = CIRCLE ( 'NONE', #142, 0.03121874999999999997 ) ;
#46 = DIRECTION ( 'NONE',  ( -1.224646799147353700E-16, -0.0000000000000000000, -1.000000000000000000 ) ) ;
#47 = ORIENTED_EDGE ( 'NONE', *, *, #244, .T. ) ;
#48 = CARTESIAN_POINT ( 'NONE',  ( 0.0000000000000000000, 0.0000000000000000000, 1.500000000000000222 ) ) ;
#49 = AXIS2_PLACEMENT_3D ( 'NONE', #96, #296, #143 ) ;
#50 = CIRCLE ( 'NONE', #105, 0.06250000000000002776 ) ;
#51 = ORIENTED_EDGE ( 'NONE', *, *, #162, .T. ) ;
#52 = DIRECTION ( 'NONE',  ( 1.000000000000000000, 0.0000000000000000000, 0.0000000000000000000 ) ) ;
#53 = ORIENTED_EDGE ( 'NONE', *, *, #124, .F. ) ;
#54 = ADVANCED_FACE ( 'NONE', ( #242 ), #211, .T. ) ;
#55 = LINE ( 'NONE', #275, #195 ) ;
#56 = FACE_OUTER_BOUND ( 'NONE', #130, .T. ) ;
#57 = ORIENTED_EDGE ( 'NONE', *, *, #147, .T. ) ;
#58 = DIRECTION ( 'NONE',  ( 1.000000000000000000, 0.0000000000000000000, 0.0000000000000000000 ) ) ;
#59 = EDGE_CURVE ( 'NONE', #259, #84, #268, .T. ) ;
#60 = EDGE_CURVE ( 'NONE', #322, #298, #271, .T. ) ;
#61 = STYLED_ITEM ( 'NONE', ( #75 ), #38 ) ;
#62 = LENGTH_MEASURE_WITH_UNIT ( LENGTH_MEASURE( 0.02539999999999999897 ), #236 );
#63 = SURFACE_STYLE_USAGE ( .BOTH. , #12 ) ;
#64 = DIRECTION ( 'NONE',  ( 1.000000000000000000, 0.0000000000000000000, 0.0000000000000000000 ) ) ;
#65 = FILL_AREA_STYLE_COLOUR ( '', #79 ) ;
#66 = COLOUR_RGB ( '',0.7921568627450980005, 0.8196078431372548767, 0.9333333333333333481 ) ;
#67 = FACE_OUTER_BOUND ( 'NONE', #279, .T. ) ;
#68 = ADVANCED_FACE ( 'NONE', ( #67 ), #165, .T. ) ;
#69 = AXIS2_PLACEMENT_3D ( 'NONE', #11, #138, #64 ) ;
#70 = AXIS2_PLACEMENT_3D ( 'NONE', #167, #218, #72 ) ;
#71 = FACE_OUTER_BOUND ( 'NONE', #2, .T. ) ;
#72 = DIRECTION ( 'NONE',  ( -1.000000000000000000, 0.0000000000000000000, 0.0000000000000000000 ) ) ;
#73 = ADVANCED_FACE ( 'NONE', ( #94 ), #119, .T. ) ;
#74 = CIRCLE ( 'NONE', #95, 0.06250000000000002776 ) ;
#75 = PRESENTATION_STYLE_ASSIGNMENT (( #222 ) ) ;
#76 = CARTESIAN_POINT ( 'NONE',  ( 0.0000000000000000000, 0.0000000000000000000, 1.500000000000000222 ) ) ;
#77 = ORIENTED_EDGE ( 'NONE', *, *, #124, .T. ) ;
#78 = DIRECTION ( 'NONE',  ( -1.000000000000000000, 0.0000000000000000000, 1.224646799147353947E-16 ) ) ;
#79 = COLOUR_RGB ( '',0.7921568627450980005, 0.8196078431372548767, 0.9333333333333333481 ) ;
#80 = CARTESIAN_POINT ( 'NONE',  ( -0.06249999999999997918, 0.0000000000000000000, 0.3654047844199156403 ) ) ;
#81 = CARTESIAN_POINT ( 'NONE',  ( -0.03121874999999997916, 5.738618360379552157E-18, 0.1880000000000000282 ) ) ;
#82 = DIMENSIONAL_EXPONENTS ( 1.000000000000000000, 0.0000000000000000000, 0.0000000000000000000, 0.0000000000000000000, 0.0000000000000000000, 0.0000000000000000000, 0.0000000000000000000 ) ;
#83 = EDGE_CURVE ( 'NONE', #100, #204, #43, .T. ) ;
#84 = VERTEX_POINT ( 'NONE', #17 ) ;
#85 = DIRECTION ( 'NONE',  ( 1.000000000000000000, 0.0000000000000000000, 0.0000000000000000000 ) ) ;
#86 = DIRECTION ( 'NONE',  ( -1.224646799147353700E-16, -0.0000000000000000000, -1.000000000000000000 ) ) ;
#87 = CARTESIAN_POINT ( 'NONE',  ( -0.04750000000000064587, 0.0000000000000000000, 1.500000000000000222 ) ) ;
#88 = CARTESIAN_POINT ( 'NONE',  ( 2.302335982397025094E-17, 0.0000000000000000000, 0.1880000000000000282 ) ) ;
#89 = CARTESIAN_POINT ( 'NONE',  ( 3.823194226088145228E-18, 0.0000000000000000000, 0.03121874999999999997 ) ) ;
#90 =( CONVERSION_BASED_UNIT ( 'INCH', #212 ) LENGTH_UNIT ( ) NAMED_UNIT ( #82 ) );
#91 = PRESENTATION_STYLE_ASSIGNMENT (( #63 ) ) ;
#92 = UNCERTAINTY_MEASURE_WITH_UNIT (LENGTH_MEASURE( 1.000000000000000082E-05 ), #301, 'distance_accuracy_value', 'NONE');
#93 =( NAMED_UNIT ( * ) SI_UNIT ( $, .STERADIAN. ) SOLID_ANGLE_UNIT ( ) );
#94 = FACE_OUTER_BOUND ( 'NONE', #284, .T. ) ;
#95 = AXIS2_PLACEMENT_3D ( 'NONE', #28, #129, #31 ) ;
#96 = CARTESIAN_POINT ( 'NONE',  ( 0.0000000000000000000, 0.0000000000000000000, 0.0000000000000000000 ) ) ;
#97 = LINE ( 'NONE', #307, #202 ) ;
#98 = CARTESIAN_POINT ( 'NONE',  ( 0.03121875000000000691, 3.823194226088143687E-18, 0.03121874999999999650 ) ) ;
#99 = ADVANCED_FACE ( 'NONE', ( #192 ), #302, .T. ) ;
#100 = VERTEX_POINT ( 'NONE', #145 ) ;
#101 = DIRECTION ( 'NONE',  ( 1.224646799147353700E-16, 0.0000000000000000000, 1.000000000000000000 ) ) ;
#102 = ADVANCED_FACE ( 'NONE', ( #317 ), #238, .T. ) ;
#103 = ORIENTED_EDGE ( 'NONE', *, *, #44, .F. ) ;
#104 = DIRECTION ( 'NONE',  ( -1.224646799147353700E-16, -0.0000000000000000000, -1.000000000000000000 ) ) ;
#105 = AXIS2_PLACEMENT_3D ( 'NONE', #277, #225, #52 ) ;
#106 = ADVANCED_FACE ( 'NONE', ( #71 ), #270, .T. ) ;
#107 = ORIENTED_EDGE ( 'NONE', *, *, #44, .T. ) ;
#108 = DIRECTION ( 'NONE',  ( -1.000000000000000000, 0.0000000000000000000, 0.0000000000000000000 ) ) ;
#109 = EDGE_CURVE ( 'NONE', #299, #259, #45, .T. ) ;
#110 = EDGE_LOOP ( 'NONE', ( #123, #57, #200, #276 ) ) ;
#111 = DIRECTION ( 'NONE',  ( 1.000000000000000000, 0.0000000000000000000, 0.0000000000000000000 ) ) ;
#112 = CONICAL_SURFACE ( 'NONE', #13, 0.04750000000000064587, 0.7853981633974466137 ) ;
#113 = CARTESIAN_POINT ( 'NONE',  ( 3.823194226088145228E-18, 0.0000000000000000000, 0.03121874999999999997 ) ) ;
#114 = DIRECTION ( 'NONE',  ( 0.0000000000000000000, 0.0000000000000000000, 1.000000000000000000 ) ) ;
#115 = EDGE_CURVE ( 'NONE', #254, #204, #74, .T. ) ;
#116 = AXIS2_PLACEMENT_3D ( 'NONE', #230, #306, #58 ) ;
#117 = SHAPE_DEFINITION_REPRESENTATION ( #264, #216 ) ;
#118 = ADVANCED_FACE ( 'NONE', ( #56 ), #157, .T. ) ;
#119 = CYLINDRICAL_SURFACE ( 'NONE', #49, 0.03121874999999999997 ) ;
#120 = DIRECTION ( 'NONE',  ( -0.0000000000000000000, -0.0000000000000000000, -1.000000000000000000 ) ) ;
#121 = PRESENTATION_LAYER_ASSIGNMENT (  '', '', ( #250 ) ) ;
#122 = DIRECTION ( 'NONE',  ( -0.0000000000000000000, -0.0000000000000000000, -1.000000000000000000 ) ) ;
#123 = ORIENTED_EDGE ( 'NONE', *, *, #244, .F. ) ;
#124 = EDGE_CURVE ( 'NONE', #26, #254, #325, .T. ) ;
#125 = ORIENTED_EDGE ( 'NONE', *, *, #21, .T. ) ;
#126 = CARTESIAN_POINT ( 'NONE',  ( 2.302335982397025094E-17, 0.0000000000000000000, 0.1880000000000000282 ) ) ;
#127 = ORIENTED_EDGE ( 'NONE', *, *, #318, .F. ) ;
#128 = CARTESIAN_POINT ( 'NONE',  ( -0.04750000000000064587, 0.0000000000000000000, 1.500000000000000222 ) ) ;
#129 = DIRECTION ( 'NONE',  ( 0.0000000000000000000, 0.0000000000000000000, -1.000000000000000000 ) ) ;
#130 = EDGE_LOOP ( 'NONE', ( #132, #255 ) ) ;
#131 = DIRECTION ( 'NONE',  ( 1.224646799147353207E-16, 1.000000000000000000, -0.0000000000000000000 ) ) ;
#132 = ORIENTED_EDGE ( 'NONE', *, *, #267, .T. ) ;
#133 = LINE ( 'NONE', #235, #215 ) ;
#134 = CIRCLE ( 'NONE', #203, 0.03121874999999999997 ) ;
#135 = VERTEX_POINT ( 'NONE', #256 ) ;
#136 = CARTESIAN_POINT ( 'NONE',  ( 4.474917996329785777E-17, 0.0000000000000000000, 0.3654047844199156403 ) ) ;
#137 = ADVANCED_FACE ( 'NONE', ( #27 ), #308, .T. ) ;
#138 = DIRECTION ( 'NONE',  ( 0.0000000000000000000, 1.000000000000000000, 0.0000000000000000000 ) ) ;
#139 = AXIS2_PLACEMENT_3D ( 'NONE', #174, #101, #252 ) ;
#140 = APPLICATION_PROTOCOL_DEFINITION ( 'draft international standard', 'automotive_design', 1998, #168 ) ;
#141 = DIRECTION ( 'NONE',  ( 0.0000000000000000000, -1.000000000000000000, 0.0000000000000000000 ) ) ;
#142 = AXIS2_PLACEMENT_3D ( 'NONE', #152, #86, #258 ) ;
#143 = DIRECTION ( 'NONE',  ( -1.000000000000000000, 0.0000000000000000000, 1.224646799147353947E-16 ) ) ;
#144 = EDGE_LOOP ( 'NONE', ( #8, #125, #229, #305 ) ) ;
#145 = CARTESIAN_POINT ( 'NONE',  ( 0.04750000000000064587, 6.735557395310483192E-18, 1.500000000000000222 ) ) ;
#146 = AXIS2_PLACEMENT_3D ( 'NONE', #113, #141, #217 ) ;
#147 = EDGE_CURVE ( 'NONE', #259, #299, #5, .T. ) ;
#148 = SURFACE_SIDE_STYLE ('',( #32 ) ) ;
#149 = DIRECTION ( 'NONE',  ( -1.000000000000000000, 0.0000000000000000000, 0.0000000000000000000 ) ) ;
#150 = ORIENTED_EDGE ( 'NONE', *, *, #162, .F. ) ;
#151 = AXIS2_PLACEMENT_3D ( 'NONE', #76, #24, #3 ) ;
#152 = CARTESIAN_POINT ( 'NONE',  ( 2.302335982397025094E-17, 0.0000000000000000000, 0.1880000000000000282 ) ) ;
#153 = EDGE_LOOP ( 'NONE', ( #324, #315, #77, #150 ) ) ;
#154 = DIRECTION ( 'NONE',  ( -1.000000000000000000, 1.224646799147353454E-16, 0.0000000000000000000 ) ) ;
#155 = ORIENTED_EDGE ( 'NONE', *, *, #190, .F. ) ;
#156 = DIRECTION ( 'NONE',  ( 0.0000000000000000000, 0.0000000000000000000, -1.000000000000000000 ) ) ;
#157 = PLANE ( 'NONE',  #35 ) ;
#158 = ORIENTED_EDGE ( 'NONE', *, *, #39, .F. ) ;
#159 = CARTESIAN_POINT ( 'NONE',  ( 0.0000000000000000000, 0.0000000000000000000, 1.500000000000000222 ) ) ;
#160 = AXIS2_PLACEMENT_3D ( 'NONE', #294, #246, #220 ) ;
#161 = PRODUCT ( 'Micro_BEM-062-02X', 'Micro_BEM-062-02X', '', ( #41 ) ) ;
#162 = EDGE_CURVE ( 'NONE', #204, #254, #50, .T. ) ;
#163 = CIRCLE ( 'NONE', #151, 0.04750000000000064587 ) ;
#164 = UNCERTAINTY_MEASURE_WITH_UNIT (LENGTH_MEASURE( 1.000000000000000082E-05 ), #90, 'distance_accuracy_value', 'NONE');
#165 = CYLINDRICAL_SURFACE ( 'NONE', #182, 0.06250000000000002776 ) ;
#166 = DIRECTION ( 'NONE',  ( -1.224646799147353700E-16, -0.0000000000000000000, -1.000000000000000000 ) ) ;
#167 = CARTESIAN_POINT ( 'NONE',  ( 0.0000000000000000000, 0.0000000000000000000, 1.500000000000000222 ) ) ;
#168 = APPLICATION_CONTEXT ( 'automotive_design' ) ;
#169 = PRESENTATION_LAYER_ASSIGNMENT (  '', '', ( #61 ) ) ;
#170 =( GEOMETRIC_REPRESENTATION_CONTEXT ( 3 ) GLOBAL_UNCERTAINTY_ASSIGNED_CONTEXT ( ( #1 ) ) GLOBAL_UNIT_ASSIGNED_CONTEXT ( ( #40, #309, #310 ) ) REPRESENTATION_CONTEXT ( 'NONE', 'WORKASPACE' ) );
#171 = ORIENTED_EDGE ( 'NONE', *, *, #60, .T. ) ;
#172 = CARTESIAN_POINT ( 'NONE',  ( 3.823194226088145228E-18, 0.0000000000000000000, 0.03121874999999999997 ) ) ;
#173 = ORIENTED_EDGE ( 'NONE', *, *, #233, .T. ) ;
#174 = CARTESIAN_POINT ( 'NONE',  ( 3.823194226088145228E-18, 0.0000000000000000000, 0.03121874999999999997 ) ) ;
#175 = AXIS2_PLACEMENT_3D ( 'NONE', #126, #37, #85 ) ;
#176 = FILL_AREA_STYLE_COLOUR ( '', #66 ) ;
#177 = FACE_OUTER_BOUND ( 'NONE', #269, .T. ) ;
#178 = ORIENTED_EDGE ( 'NONE', *, *, #60, .F. ) ;
#179 = DIRECTION ( 'NONE',  ( -1.224646799147353700E-16, -0.0000000000000000000, -1.000000000000000000 ) ) ;
#180 =( NAMED_UNIT ( * ) PLANE_ANGLE_UNIT ( ) SI_UNIT ( $, .RADIAN. ) );
#181 = CARTESIAN_POINT ( 'NONE',  ( 0.0000000000000000000, 0.0000000000000000000, 1.500000000000000222 ) ) ;
#182 = AXIS2_PLACEMENT_3D ( 'NONE', #20, #122, #194 ) ;
#183 = DIRECTION ( 'NONE',  ( 0.0000000000000000000, 0.0000000000000000000, 1.000000000000000000 ) ) ;
#184 = AXIS2_PLACEMENT_3D ( 'NONE', #239, #114, #214 ) ;
#185 = SURFACE_STYLE_FILL_AREA ( #210 ) ;
#186 = APPLICATION_PROTOCOL_DEFINITION ( 'draft international standard', 'automotive_design', 1998, #311 ) ;
#187 = DIRECTION ( 'NONE',  ( -1.000000000000000000, 0.0000000000000000000, 1.367291288120251888E-16 ) ) ;
#188 = EDGE_CURVE ( 'NONE', #100, #26, #290, .T. ) ;
#189 = PRODUCT_DEFINITION_CONTEXT ( 'detailed design', #168, 'design' ) ;
#190 = EDGE_CURVE ( 'NONE', #299, #298, #133, .T. ) ;
#191 = AXIS2_PLACEMENT_3D ( 'NONE', #89, #291, #187 ) ;
#192 = FACE_OUTER_BOUND ( 'NONE', #23, .T. ) ;
#193 = ORIENTED_EDGE ( 'NONE', *, *, #109, .T. ) ;
#194 = DIRECTION ( 'NONE',  ( -1.000000000000000000, 0.0000000000000000000, 0.0000000000000000000 ) ) ;
#195 = VECTOR ( 'NONE', #205, 39.37007874015748143 ) ;
#196 = ORIENTED_EDGE ( 'NONE', *, *, #319, .T. ) ;
#197 = DIRECTION ( 'NONE',  ( 0.0000000000000000000, 0.0000000000000000000, 1.000000000000000000 ) ) ;
#198 = ORIENTED_EDGE ( 'NONE', *, *, #39, .T. ) ;
#199 = LINE ( 'NONE', #300, #293 ) ;
#200 = ORIENTED_EDGE ( 'NONE', *, *, #190, .T. ) ;
#201 = FACE_OUTER_BOUND ( 'NONE', #273, .T. ) ;
#202 = VECTOR ( 'NONE', #303, 39.37007874015747433 ) ;
#203 = AXIS2_PLACEMENT_3D ( 'NONE', #172, #131, #154 ) ;
#204 = VERTEX_POINT ( 'NONE', #280 ) ;
#205 = DIRECTION ( 'NONE',  ( -1.224646799147353700E-16, -0.0000000000000000000, -1.000000000000000000 ) ) ;
#206 = EDGE_CURVE ( 'NONE', #298, #322, #15, .T. ) ;
#207 = ORIENTED_EDGE ( 'NONE', *, *, #21, .F. ) ;
#208 = LINE ( 'NONE', #223, #312 ) ;
#209 = DIRECTION ( 'NONE',  ( 1.000000000000000000, 0.0000000000000000000, -0.0000000000000000000 ) ) ;
#210 = FILL_AREA_STYLE ('',( #65 ) ) ;
#211 = SPHERICAL_SURFACE ( 'NONE', #69, 0.03121874999999999997 ) ;
#212 = LENGTH_MEASURE_WITH_UNIT ( LENGTH_MEASURE( 0.02539999999999999897 ), #265 );
#213 =( NAMED_UNIT ( * ) SI_UNIT ( $, .STERADIAN. ) SOLID_ANGLE_UNIT ( ) );
#214 = DIRECTION ( 'NONE',  ( 1.000000000000000000, 0.0000000000000000000, 0.0000000000000000000 ) ) ;
#215 = VECTOR ( 'NONE', #179, 39.37007874015748143 ) ;
#216 = ADVANCED_BREP_SHAPE_REPRESENTATION ( 'Micro_BEM-062-02X', ( #38, #184 ), #170 ) ;
#217 = DIRECTION ( 'NONE',  ( 0.0000000000000000000, 0.0000000000000000000, -1.000000000000000000 ) ) ;
#218 = DIRECTION ( 'NONE',  ( 0.0000000000000000000, 0.0000000000000000000, -1.000000000000000000 ) ) ;
#219 = ORIENTED_EDGE ( 'NONE', *, *, #233, .F. ) ;
#220 = DIRECTION ( 'NONE',  ( 1.000000000000000000, 0.0000000000000000000, 0.0000000000000000000 ) ) ;
#221 = VECTOR ( 'NONE', #16, 39.37007874015748854 ) ;
#222 = SURFACE_STYLE_USAGE ( .BOTH. , #148 ) ;
#223 = CARTESIAN_POINT ( 'NONE',  ( 0.06250000000000002776, 7.654042494670959086E-18, 1.500000000000000222 ) ) ;
#224 = ORIENTED_EDGE ( 'NONE', *, *, #206, .F. ) ;
#225 = DIRECTION ( 'NONE',  ( 0.0000000000000000000, 0.0000000000000000000, -1.000000000000000000 ) ) ;
#226 = ORIENTED_EDGE ( 'NONE', *, *, #83, .T. ) ;
#227 = DIRECTION ( 'NONE',  ( -0.0000000000000000000, -0.0000000000000000000, -1.000000000000000000 ) ) ;
#228 = VECTOR ( 'NONE', #240, 39.37007874015748143 ) ;
#229 = ORIENTED_EDGE ( 'NONE', *, *, #318, .T. ) ;
#230 = CARTESIAN_POINT ( 'NONE',  ( 3.823194226088145228E-18, 0.0000000000000000000, 0.03121874999999999997 ) ) ;
#231 = MECHANICAL_DESIGN_GEOMETRIC_PRESENTATION_REPRESENTATION (  '', ( #250 ), #288 ) ;
#232 = ADVANCED_FACE ( 'NONE', ( #7 ), #112, .T. ) ;
#233 = EDGE_CURVE ( 'NONE', #254, #36, #199, .T. ) ;
#234 = ORIENTED_EDGE ( 'NONE', *, *, #115, .T. ) ;
#235 = CARTESIAN_POINT ( 'NONE',  ( -0.03121874999999999997, 0.0000000000000000000, 3.823194226088145228E-18 ) ) ;
#236 =( LENGTH_UNIT ( ) NAMED_UNIT ( * ) SI_UNIT ( $, .METRE. ) );
#237 = CARTESIAN_POINT ( 'NONE',  ( 0.03121875000000002426, 0.0000000000000000000, 0.1880000000000000282 ) ) ;
#238 = CONICAL_SURFACE ( 'NONE', #160, 0.03121874999999999997, 0.1745329251994338915 ) ;
#239 = CARTESIAN_POINT ( 'NONE',  ( 0.0000000000000000000, 0.0000000000000000000, 0.0000000000000000000 ) ) ;
#240 = DIRECTION ( 'NONE',  ( 0.1736481776669313859, 0.0000000000000000000, 0.9848077530122077983 ) ) ;
#241 = CIRCLE ( 'NONE', #19, 0.06250000000000002776 ) ;
#242 = FACE_OUTER_BOUND ( 'NONE', #245, .T. ) ;
#243 = CARTESIAN_POINT ( 'NONE',  ( 0.04750000000000064587, 5.817072295950006528E-18, 1.500000000000000222 ) ) ;
#244 = EDGE_CURVE ( 'NONE', #259, #322, #55, .T. ) ;
#245 = EDGE_LOOP ( 'NONE', ( #158, #287, #178 ) ) ;
#246 = DIRECTION ( 'NONE',  ( 1.224646799147353700E-16, 0.0000000000000000000, 1.000000000000000000 ) ) ;
#247 = DIMENSIONAL_EXPONENTS ( 1.000000000000000000, 0.0000000000000000000, 0.0000000000000000000, 0.0000000000000000000, 0.0000000000000000000, 0.0000000000000000000, 0.0000000000000000000 ) ;
#248 = CIRCLE ( 'NONE', #146, 0.03121874999999999997 ) ;
#249 = MECHANICAL_DESIGN_GEOMETRIC_PRESENTATION_REPRESENTATION (  '', ( #61 ), #34 ) ;
#250 = STYLED_ITEM ( 'NONE', ( #91 ), #216 ) ;
#251 = ORIENTED_EDGE ( 'NONE', *, *, #261, .F. ) ;
#252 = DIRECTION ( 'NONE',  ( -1.000000000000000000, 0.0000000000000000000, 1.367291288120251888E-16 ) ) ;
#253 = AXIS2_PLACEMENT_3D ( 'NONE', #42, #120, #283 ) ;
#254 = VERTEX_POINT ( 'NONE', #33 ) ;
#255 = ORIENTED_EDGE ( 'NONE', *, *, #188, .T. ) ;
#256 = CARTESIAN_POINT ( 'NONE',  ( 5.734791339132217072E-18, 0.0000000000000000000, 0.0000000000000000000 ) ) ;
#257 = DIMENSIONAL_EXPONENTS ( 1.000000000000000000, 0.0000000000000000000, 0.0000000000000000000, 0.0000000000000000000, 0.0000000000000000000, 0.0000000000000000000, 0.0000000000000000000 ) ;
#258 = DIRECTION ( 'NONE',  ( -1.000000000000000000, 0.0000000000000000000, 0.0000000000000000000 ) ) ;
#259 = VERTEX_POINT ( 'NONE', #260 ) ;
#260 = CARTESIAN_POINT ( 'NONE',  ( 0.03121875000000002426, 0.0000000000000000000, 0.1880000000000000282 ) ) ;
#261 = EDGE_CURVE ( 'NONE', #135, #298, #134, .T. ) ;
#262 = ORIENTED_EDGE ( 'NONE', *, *, #115, .F. ) ;
#263 = SPHERICAL_SURFACE ( 'NONE', #116, 0.03121874999999999997 ) ;
#264 = PRODUCT_DEFINITION_SHAPE ( 'NONE', 'NONE',  #314 ) ;
#265 =( LENGTH_UNIT ( ) NAMED_UNIT ( * ) SI_UNIT ( $, .METRE. ) );
#266 = PRODUCT_DEFINITION_FORMATION_WITH_SPECIFIED_SOURCE ( 'ANY', '', #161, .NOT_KNOWN. ) ;
#267 = EDGE_CURVE ( 'NONE', #26, #100, #163, .T. ) ;
#268 = LINE ( 'NONE', #237, #228 ) ;
#269 = EDGE_LOOP ( 'NONE', ( #207, #6, #22, #107 ) ) ;
#270 = CYLINDRICAL_SURFACE ( 'NONE', #253, 0.06250000000000002776 ) ;
#271 = CIRCLE ( 'NONE', #191, 0.03121874999999999997 ) ;
#272 = AXIS2_PLACEMENT_3D ( 'NONE', #282, #46, #78 ) ;
#273 = EDGE_LOOP ( 'NONE', ( #251, #198, #224 ) ) ;
#274 = ADVANCED_FACE ( 'NONE', ( #201 ), #263, .T. ) ;
#275 = CARTESIAN_POINT ( 'NONE',  ( 0.03121874999999999997, 3.823194226088143687E-18, -3.823194226088145228E-18 ) ) ;
#276 = ORIENTED_EDGE ( 'NONE', *, *, #206, .T. ) ;
#277 = CARTESIAN_POINT ( 'NONE',  ( 0.0000000000000000000, 0.0000000000000000000, 1.485000000000000764 ) ) ;
#278 = AXIS2_PLACEMENT_3D ( 'NONE', #48, #197, #285 ) ;
#279 = EDGE_LOOP ( 'NONE', ( #295, #51, #173, #103 ) ) ;
#280 = CARTESIAN_POINT ( 'NONE',  ( 0.06250000000000002776, 7.654042494670959086E-18, 1.485000000000000764 ) ) ;
#281 = FILL_AREA_STYLE ('',( #176 ) ) ;
#282 = CARTESIAN_POINT ( 'NONE',  ( 0.0000000000000000000, 0.0000000000000000000, 0.0000000000000000000 ) ) ;
#283 = DIRECTION ( 'NONE',  ( -1.000000000000000000, 0.0000000000000000000, 0.0000000000000000000 ) ) ;
#284 = EDGE_LOOP ( 'NONE', ( #193, #47, #171, #155 ) ) ;
#285 = DIRECTION ( 'NONE',  ( 1.000000000000000000, 0.0000000000000000000, 0.0000000000000000000 ) ) ;
#286 = PRODUCT_RELATED_PRODUCT_CATEGORY ( 'part', '', ( #161 ) ) ;
#287 = ORIENTED_EDGE ( 'NONE', *, *, #261, .T. ) ;
#288 =( GEOMETRIC_REPRESENTATION_CONTEXT ( 3 ) GLOBAL_UNCERTAINTY_ASSIGNED_CONTEXT ( ( #164 ) ) GLOBAL_UNIT_ASSIGNED_CONTEXT ( ( #90, #289, #213 ) ) REPRESENTATION_CONTEXT ( 'NONE', 'WORKASPACE' ) );
#289 =( NAMED_UNIT ( * ) PLANE_ANGLE_UNIT ( ) SI_UNIT ( $, .RADIAN. ) );
#290 = CIRCLE ( 'NONE', #278, 0.04750000000000064587 ) ;
#291 = DIRECTION ( 'NONE',  ( 1.224646799147353700E-16, 0.0000000000000000000, 1.000000000000000000 ) ) ;
#292 = LENGTH_MEASURE_WITH_UNIT ( LENGTH_MEASURE( 0.02539999999999999897 ), #10 );
#293 = VECTOR ( 'NONE', #227, 39.37007874015748143 ) ;
#294 = CARTESIAN_POINT ( 'NONE',  ( 2.302335982397025094E-17, 0.0000000000000000000, 0.1880000000000000282 ) ) ;
#295 = ORIENTED_EDGE ( 'NONE', *, *, #319, .F. ) ;
#296 = DIRECTION ( 'NONE',  ( -1.224646799147353700E-16, -0.0000000000000000000, -1.000000000000000000 ) ) ;
#297 = CONICAL_SURFACE ( 'NONE', #175, 0.03121874999999999997, 0.1745329251994338915 ) ;
#298 = VERTEX_POINT ( 'NONE', #304 ) ;
#299 = VERTEX_POINT ( 'NONE', #81 ) ;
#300 = CARTESIAN_POINT ( 'NONE',  ( -0.06250000000000002776, 0.0000000000000000000, 1.500000000000000222 ) ) ;
#301 =( CONVERSION_BASED_UNIT ( 'INCH', #62 ) LENGTH_UNIT ( ) NAMED_UNIT ( #257 ) );
#302 = CONICAL_SURFACE ( 'NONE', #70, 0.04750000000000064587, 0.7853981633974466137 ) ;
#303 = DIRECTION ( 'NONE',  ( -0.1736481776669311916, 2.126576849575783316E-17, 0.9848077530122080203 ) ) ;
#304 = CARTESIAN_POINT ( 'NONE',  ( -0.03121874999999999650, 0.0000000000000000000, 0.03121875000000000691 ) ) ;
#305 = ORIENTED_EDGE ( 'NONE', *, *, #59, .F. ) ;
#306 = DIRECTION ( 'NONE',  ( 0.0000000000000000000, 1.000000000000000000, 0.0000000000000000000 ) ) ;
#307 = CARTESIAN_POINT ( 'NONE',  ( -0.03121874999999997916, 3.823194226088143687E-18, 0.1880000000000000282 ) ) ;
#308 = CYLINDRICAL_SURFACE ( 'NONE', #272, 0.03121874999999999997 ) ;
#309 =( NAMED_UNIT ( * ) PLANE_ANGLE_UNIT ( ) SI_UNIT ( $, .RADIAN. ) );
#310 =( NAMED_UNIT ( * ) SI_UNIT ( $, .STERADIAN. ) SOLID_ANGLE_UNIT ( ) );
#311 = APPLICATION_CONTEXT ( 'automotive_design' ) ;
#312 = VECTOR ( 'NONE', #323, 39.37007874015748143 ) ;
#313 = DIRECTION ( 'NONE',  ( 1.000000000000000000, 0.0000000000000000000, 0.0000000000000000000 ) ) ;
#314 = PRODUCT_DEFINITION ( 'UNKNOWN', '', #266, #189 ) ;
#315 = ORIENTED_EDGE ( 'NONE', *, *, #267, .F. ) ;
#316 = ADVANCED_FACE ( 'NONE', ( #177 ), #297, .T. ) ;
#317 = FACE_OUTER_BOUND ( 'NONE', #144, .T. ) ;
#318 = EDGE_CURVE ( 'NONE', #36, #84, #241, .T. ) ;
#319 = EDGE_CURVE ( 'NONE', #204, #84, #208, .T. ) ;
#320 = AXIS2_PLACEMENT_3D ( 'NONE', #14, #166, #313 ) ;
#321 = VECTOR ( 'NONE', #30, 39.37007874015748854 ) ;
#322 = VERTEX_POINT ( 'NONE', #98 ) ;
#323 = DIRECTION ( 'NONE',  ( -0.0000000000000000000, -0.0000000000000000000, -1.000000000000000000 ) ) ;
#324 = ORIENTED_EDGE ( 'NONE', *, *, #83, .F. ) ;
#325 = LINE ( 'NONE', #128, #321 ) ;
ENDSEC;
END-ISO-10303-21;
