ISO-10303-21;
HEADER;
FILE_DESCRIPTION (( 'STEP AP214' ),
    '1' );
FILE_NAME ('84772.STEP',
    '2023-07-05T16:23:30',
    ( '' ),
    ( '' ),
    'SwSTEP 2.0',
    'SolidWorks 2023',
    '' );
FILE_SCHEMA (( 'AUTOMOTIVE_DESIGN' ));
ENDSEC;

DATA;
#1 = LINE ( 'NONE', #98, #175 ) ;
#2 = DIRECTION ( 'NONE',  ( -1.000000000000000000, 5.816148501619839219E-18, 0.000000000000000000 ) ) ;
#3 = EDGE_CURVE ( 'NONE', #172, #194, #181, .T. ) ;
#4 = CARTESIAN_POINT ( 'NONE',  ( 1.574041360807988724E-18, 0.2706329386826362704, 0.000000000000000000 ) ) ;
#5 = CARTESIAN_POINT ( 'NONE',  ( 0.1562500000000000000, 0.2706329386826362149, 1.913510623667737923E-17 ) ) ;
#6 =( GEOMETRIC_REPRESENTATION_CONTEXT ( 3 ) GLOBAL_UNCERTAINTY_ASSIGNED_CONTEXT ( ( #32 ) ) GLOBAL_UNIT_ASSIGNED_CONTEXT ( ( #223, #216, #117 ) ) REPRESENTATION_CONTEXT ( 'NONE', 'WORKASPACE' ) );
#7 = AXIS2_PLACEMENT_3D ( 'NONE', #193, #126, #2 ) ;
#8 = DIRECTION ( 'NONE',  ( -1.000000000000000000, 0.000000000000000000, 0.000000000000000000 ) ) ;
#9 = UNCERTAINTY_MEASURE_WITH_UNIT (LENGTH_MEASURE( 1.000000000000000082E-05 ), #197, 'distance_accuracy_value', 'NONE');
#10 = APPLICATION_PROTOCOL_DEFINITION ( 'draft international standard', 'automotive_design', 1998, #132 ) ;
#11 = VERTEX_POINT ( 'NONE', #16 ) ;
#12 = AXIS2_PLACEMENT_3D ( 'NONE', #234, #209, #8 ) ;
#13 = DIRECTION ( 'NONE',  ( 5.816148501619839219E-18, 1.000000000000000000, 0.000000000000000000 ) ) ;
#14 = VERTEX_POINT ( 'NONE', #262 ) ;
#15 = AXIS2_PLACEMENT_3D ( 'NONE', #48, #179, #140 ) ;
#16 = CARTESIAN_POINT ( 'NONE',  ( 0.1562499999999999722, 0.2706329386826362149, 1.913510623667738847E-17 ) ) ;
#17 = PRESENTATION_LAYER_ASSIGNMENT (  '', '', ( #220 ) ) ;
#18 = CIRCLE ( 'NONE', #229, 0.1562500000000000000 ) ;
#19 = DIRECTION ( 'NONE',  ( -1.237930494036654098E-16, 1.000000000000000000, -0.000000000000000000 ) ) ;
#20 = PRESENTATION_STYLE_ASSIGNMENT (( #206 ) ) ;
#21 =( GEOMETRIC_REPRESENTATION_CONTEXT ( 3 ) GLOBAL_UNCERTAINTY_ASSIGNED_CONTEXT ( ( #109 ) ) GLOBAL_UNIT_ASSIGNED_CONTEXT ( ( #39, #143, #203 ) ) REPRESENTATION_CONTEXT ( 'NONE', 'WORKASPACE' ) );
#22 = LINE ( 'NONE', #103, #100 ) ;
#23 =( LENGTH_UNIT ( ) NAMED_UNIT ( * ) SI_UNIT ( $, .METRE. ) );
#24 = VERTEX_POINT ( 'NONE', #91 ) ;
#25 = ORIENTED_EDGE ( 'NONE', *, *, #231, .F. ) ;
#26 = ORIENTED_EDGE ( 'NONE', *, *, #96, .F. ) ;
#27 = PRODUCT_CONTEXT ( 'NONE', #36, 'mechanical' ) ;
#28 = CARTESIAN_POINT ( 'NONE',  ( 3.372124867179325742E-16, 0.2706329386826362149, 0.000000000000000000 ) ) ;
#29 = MECHANICAL_DESIGN_GEOMETRIC_PRESENTATION_REPRESENTATION (  '', ( #78 ), #182 ) ;
#30 = EDGE_CURVE ( 'NONE', #172, #75, #157, .T. ) ;
#31 = PLANE ( 'NONE',  #50 ) ;
#32 = UNCERTAINTY_MEASURE_WITH_UNIT (LENGTH_MEASURE( 1.000000000000000082E-05 ), #223, 'distance_accuracy_value', 'NONE');
#33 = DIMENSIONAL_EXPONENTS ( 1.000000000000000000, 0.000000000000000000, 0.000000000000000000, 0.000000000000000000, 0.000000000000000000, 0.000000000000000000, 0.000000000000000000 ) ;
#34 = CARTESIAN_POINT ( 'NONE',  ( 2.289822244732220270E-16, 39.37007874015748143, 0.000000000000000000 ) ) ;
#35 = VECTOR ( 'NONE', #207, 39.37007874015748854 ) ;
#36 = APPLICATION_CONTEXT ( 'automotive_design' ) ;
#37 = SURFACE_SIDE_STYLE ('',( #125 ) ) ;
#38 = ADVANCED_FACE ( 'NONE', ( #201 ), #141, .T. ) ;
#39 =( CONVERSION_BASED_UNIT ( 'INCH', #226 ) LENGTH_UNIT ( ) NAMED_UNIT ( #131 ) );
#40 = ADVANCED_FACE ( 'NONE', ( #70 ), #166, .T. ) ;
#41 = SURFACE_STYLE_FILL_AREA ( #86 ) ;
#42 = AXIS2_PLACEMENT_3D ( 'NONE', #169, #124, #230 ) ;
#43 = LENGTH_MEASURE_WITH_UNIT ( LENGTH_MEASURE( 0.02539999999999999897 ), #176 );
#44 =( NAMED_UNIT ( * ) PLANE_ANGLE_UNIT ( ) SI_UNIT ( $, .RADIAN. ) );
#45 = ORIENTED_EDGE ( 'NONE', *, *, #71, .T. ) ;
#46 = ORIENTED_EDGE ( 'NONE', *, *, #30, .T. ) ;
#47 = DIMENSIONAL_EXPONENTS ( 1.000000000000000000, 0.000000000000000000, 0.000000000000000000, 0.000000000000000000, 0.000000000000000000, 0.000000000000000000, 0.000000000000000000 ) ;
#48 = CARTESIAN_POINT ( 'NONE',  ( 0.000000000000000000, 0.000000000000000000, 0.000000000000000000 ) ) ;
#49 = EDGE_LOOP ( 'NONE', ( #108, #241, #183, #199 ) ) ;
#50 = AXIS2_PLACEMENT_3D ( 'NONE', #72, #155, #243 ) ;
#51 = SURFACE_SIDE_STYLE ('',( #184 ) ) ;
#52 = CARTESIAN_POINT ( 'NONE',  ( 6.123233995736772199E-17, 2.500000000000000000, 0.000000000000000000 ) ) ;
#53 = DIRECTION ( 'NONE',  ( -1.237930494036654098E-16, 1.000000000000000000, -0.000000000000000000 ) ) ;
#54 = DIRECTION ( 'NONE',  ( -1.000000000000000000, 0.000000000000000000, 0.000000000000000000 ) ) ;
#55 = CONICAL_SURFACE ( 'NONE', #12, 22.73032555864674720, 0.5235987755983001479 ) ;
#56 = SURFACE_SIDE_STYLE ('',( #79 ) ) ;
#57 = ADVANCED_FACE ( 'NONE', ( #154 ), #180, .T. ) ;
#58 =( CONVERSION_BASED_UNIT ( 'INCH', #202 ) LENGTH_UNIT ( ) NAMED_UNIT ( #158 ) );
#59 =( GEOMETRIC_REPRESENTATION_CONTEXT ( 3 ) GLOBAL_UNCERTAINTY_ASSIGNED_CONTEXT ( ( #9 ) ) GLOBAL_UNIT_ASSIGNED_CONTEXT ( ( #197, #215, #110 ) ) REPRESENTATION_CONTEXT ( 'NONE', 'WORKASPACE' ) );
#60 = CARTESIAN_POINT ( 'NONE',  ( 0.000000000000000000, 0.000000000000000000, 0.000000000000000000 ) ) ;
#61 = DIRECTION ( 'NONE',  ( -5.816148501619839219E-18, -1.000000000000000000, -0.000000000000000000 ) ) ;
#62 = SURFACE_SIDE_STYLE ('',( #41 ) ) ;
#63 = ORIENTED_EDGE ( 'NONE', *, *, #71, .F. ) ;
#64 = COLOUR_RGB ( '',1.000000000000000000, 0.000000000000000000, 0.000000000000000000 ) ;
#65 =( NAMED_UNIT ( * ) SI_UNIT ( $, .STERADIAN. ) SOLID_ANGLE_UNIT ( ) );
#66 = ORIENTED_EDGE ( 'NONE', *, *, #85, .F. ) ;
#67 = CARTESIAN_POINT ( 'NONE',  ( 1.574041360807988724E-18, 0.2706329386826362704, 0.000000000000000000 ) ) ;
#68 = SHAPE_DEFINITION_REPRESENTATION ( #164, #236 ) ;
#69 = CIRCLE ( 'NONE', #237, 0.1562499999999999445 ) ;
#70 = FACE_OUTER_BOUND ( 'NONE', #219, .T. ) ;
#71 = EDGE_CURVE ( 'NONE', #14, #11, #1, .T. ) ;
#72 = CARTESIAN_POINT ( 'NONE',  ( 3.372124867179324756E-16, 0.2706329386826362704, 0.000000000000000000 ) ) ;
#73 = EDGE_LOOP ( 'NONE', ( #26, #45, #135 ) ) ;
#74 = SURFACE_STYLE_USAGE ( .BOTH. , #51 ) ;
#75 = VERTEX_POINT ( 'NONE', #97 ) ;
#76 = ORIENTED_EDGE ( 'NONE', *, *, #107, .F. ) ;
#77 = CLOSED_SHELL ( 'NONE', ( #57, #261, #38, #104 ) ) ;
#78 = STYLED_ITEM ( 'NONE', ( #250 ), #188 ) ;
#79 = SURFACE_STYLE_FILL_AREA ( #187 ) ;
#80 = FILL_AREA_STYLE ('',( #168 ) ) ;
#81 = COLOUR_RGB ( '',1.000000000000000000, 0.000000000000000000, 0.000000000000000000 ) ;
#82 = FILL_AREA_STYLE ('',( #150 ) ) ;
#83 =( CONVERSION_BASED_UNIT ( 'INCH', #149 ) LENGTH_UNIT ( ) NAMED_UNIT ( #116 ) );
#84 = PRESENTATION_LAYER_ASSIGNMENT (  '', '', ( #195 ) ) ;
#85 = EDGE_CURVE ( 'NONE', #89, #75, #69, .T. ) ;
#86 = FILL_AREA_STYLE ('',( #212 ) ) ;
#87 = LENGTH_MEASURE_WITH_UNIT ( LENGTH_MEASURE( 0.02539999999999999897 ), #153 );
#88 = MECHANICAL_DESIGN_GEOMETRIC_PRESENTATION_REPRESENTATION (  '', ( #195 ), #21 ) ;
#89 = VERTEX_POINT ( 'NONE', #101 ) ;
#90 = PRODUCT_DEFINITION_CONTEXT ( 'detailed design', #132, 'design' ) ;
#91 = CARTESIAN_POINT ( 'NONE',  ( -0.1562499999999999722, 0.2706329386826362149, 0.000000000000000000 ) ) ;
#92 = DIRECTION ( 'NONE',  ( -1.237930494036654098E-16, 1.000000000000000000, -0.000000000000000000 ) ) ;
#93 = UNCERTAINTY_MEASURE_WITH_UNIT (LENGTH_MEASURE( 1.000000000000000082E-05 ), #255, 'distance_accuracy_value', 'NONE');
#94 = EDGE_LOOP ( 'NONE', ( #118, #76 ) ) ;
#95 = STYLED_ITEM ( 'NONE', ( #20 ), #121 ) ;
#96 = EDGE_CURVE ( 'NONE', #14, #24, #189, .T. ) ;
#97 = CARTESIAN_POINT ( 'NONE',  ( -0.1562499999999998612, 2.500000000000000000, 0.000000000000000000 ) ) ;
#98 = CARTESIAN_POINT ( 'NONE',  ( 0.000000000000000000, 0.000000000000000000, 0.000000000000000000 ) ) ;
#99 = CARTESIAN_POINT ( 'NONE',  ( 6.123233995736772199E-17, 2.500000000000000000, 0.000000000000000000 ) ) ;
#100 = VECTOR ( 'NONE', #160, 39.37007874015748143 ) ;
#101 = CARTESIAN_POINT ( 'NONE',  ( 0.1562500000000000000, 2.500000000000000000, 1.913510623667737923E-17 ) ) ;
#102 = CLOSED_SHELL ( 'NONE', ( #188, #159, #40 ) ) ;
#103 = CARTESIAN_POINT ( 'NONE',  ( 0.1562499999999998612, 2.500000000000000000, 1.913510623667736998E-17 ) ) ;
#104 = ADVANCED_FACE ( 'NONE', ( #249 ), #146, .F. ) ;
#105 = ORIENTED_EDGE ( 'NONE', *, *, #204, .F. ) ;
#106 = CIRCLE ( 'NONE', #210, 0.1562499999999996669 ) ;
#107 = EDGE_CURVE ( 'NONE', #194, #172, #106, .T. ) ;
#108 = ORIENTED_EDGE ( 'NONE', *, *, #3, .T. ) ;
#109 = UNCERTAINTY_MEASURE_WITH_UNIT (LENGTH_MEASURE( 1.000000000000000082E-05 ), #39, 'distance_accuracy_value', 'NONE');
#110 =( NAMED_UNIT ( * ) SI_UNIT ( $, .STERADIAN. ) SOLID_ANGLE_UNIT ( ) );
#111 = ORIENTED_EDGE ( 'NONE', *, *, #254, .T. ) ;
#112 = DIMENSIONAL_EXPONENTS ( 1.000000000000000000, 0.000000000000000000, 0.000000000000000000, 0.000000000000000000, 0.000000000000000000, 0.000000000000000000, 0.000000000000000000 ) ;
#113 = STYLED_ITEM ( 'NONE', ( #151 ), #217 ) ;
#114 = DIRECTION ( 'NONE',  ( -1.237930494036654098E-16, 1.000000000000000000, -0.000000000000000000 ) ) ;
#115 = UNCERTAINTY_MEASURE_WITH_UNIT (LENGTH_MEASURE( 1.000000000000000082E-05 ), #58, 'distance_accuracy_value', 'NONE');
#116 = DIMENSIONAL_EXPONENTS ( 1.000000000000000000, 0.000000000000000000, 0.000000000000000000, 0.000000000000000000, 0.000000000000000000, 0.000000000000000000, 0.000000000000000000 ) ;
#117 =( NAMED_UNIT ( * ) SI_UNIT ( $, .STERADIAN. ) SOLID_ANGLE_UNIT ( ) );
#118 = ORIENTED_EDGE ( 'NONE', *, *, #3, .F. ) ;
#119 = DIRECTION ( 'NONE',  ( -1.000000000000000000, 0.000000000000000000, 0.000000000000000000 ) ) ;
#120 =( LENGTH_UNIT ( ) NAMED_UNIT ( * ) SI_UNIT ( $, .METRE. ) );
#121 = MANIFOLD_SOLID_BREP ( 'Revolve - Cutting Edge', #102 ) ;
#122 = PRESENTATION_STYLE_ASSIGNMENT (( #247 ) ) ;
#123 =( GEOMETRIC_REPRESENTATION_CONTEXT ( 3 ) GLOBAL_UNCERTAINTY_ASSIGNED_CONTEXT ( ( #115 ) ) GLOBAL_UNIT_ASSIGNED_CONTEXT ( ( #58, #208, #144 ) ) REPRESENTATION_CONTEXT ( 'NONE', 'WORKASPACE' ) );
#124 = DIRECTION ( 'NONE',  ( 1.237930494036654098E-16, -1.000000000000000000, 0.000000000000000000 ) ) ;
#125 = SURFACE_STYLE_FILL_AREA ( #80 ) ;
#126 = DIRECTION ( 'NONE',  ( 5.816148501619839219E-18, 1.000000000000000000, 0.000000000000000000 ) ) ;
#127 =( NAMED_UNIT ( * ) PLANE_ANGLE_UNIT ( ) SI_UNIT ( $, .RADIAN. ) );
#128 = EDGE_LOOP ( 'NONE', ( #111, #156 ) ) ;
#129 = CIRCLE ( 'NONE', #190, 0.1562500000000000000 ) ;
#130 = DIRECTION ( 'NONE',  ( 1.000000000000000000, 0.000000000000000000, 0.000000000000000000 ) ) ;
#131 = DIMENSIONAL_EXPONENTS ( 1.000000000000000000, 0.000000000000000000, 0.000000000000000000, 0.000000000000000000, 0.000000000000000000, 0.000000000000000000, 0.000000000000000000 ) ;
#132 = APPLICATION_CONTEXT ( 'automotive_design' ) ;
#133 = CARTESIAN_POINT ( 'NONE',  ( 6.123233995736772199E-17, 2.500000000000000000, 0.000000000000000000 ) ) ;
#134 = APPLICATION_PROTOCOL_DEFINITION ( 'draft international standard', 'automotive_design', 1998, #36 ) ;
#135 = ORIENTED_EDGE ( 'NONE', *, *, #227, .T. ) ;
#136 = AXIS2_PLACEMENT_3D ( 'NONE', #133, #92, #259 ) ;
#137 = FACE_OUTER_BOUND ( 'NONE', #94, .T. ) ;
#138 = AXIS2_PLACEMENT_3D ( 'NONE', #52, #256, #218 ) ;
#139 = LENGTH_MEASURE_WITH_UNIT ( LENGTH_MEASURE( 0.02539999999999999897 ), #244 );
#140 = DIRECTION ( 'NONE',  ( 1.000000000000000000, 0.000000000000000000, 0.000000000000000000 ) ) ;
#141 = CYLINDRICAL_SURFACE ( 'NONE', #136, 0.1562499999999998057 ) ;
#142 = PRESENTATION_LAYER_ASSIGNMENT (  '', '', ( #95 ) ) ;
#143 =( NAMED_UNIT ( * ) PLANE_ANGLE_UNIT ( ) SI_UNIT ( $, .RADIAN. ) );
#144 =( NAMED_UNIT ( * ) SI_UNIT ( $, .STERADIAN. ) SOLID_ANGLE_UNIT ( ) );
#145 =( LENGTH_UNIT ( ) NAMED_UNIT ( * ) SI_UNIT ( $, .METRE. ) );
#146 = PLANE ( 'NONE',  #42 ) ;
#147 = DIRECTION ( 'NONE',  ( 1.000000000000000000, 0.000000000000000000, 0.000000000000000000 ) ) ;
#148 = VECTOR ( 'NONE', #114, 39.37007874015748143 ) ;
#149 = LENGTH_MEASURE_WITH_UNIT ( LENGTH_MEASURE( 0.02539999999999999897 ), #23 );
#150 = FILL_AREA_STYLE_COLOUR ( '', #221 ) ;
#151 = PRESENTATION_STYLE_ASSIGNMENT (( #252 ) ) ;
#152 = MECHANICAL_DESIGN_GEOMETRIC_PRESENTATION_REPRESENTATION (  '', ( #113 ), #248 ) ;
#153 =( LENGTH_UNIT ( ) NAMED_UNIT ( * ) SI_UNIT ( $, .METRE. ) );
#154 = FACE_OUTER_BOUND ( 'NONE', #49, .T. ) ;
#155 = DIRECTION ( 'NONE',  ( -1.237930494036654098E-16, 1.000000000000000000, 0.000000000000000000 ) ) ;
#156 = ORIENTED_EDGE ( 'NONE', *, *, #85, .T. ) ;
#157 = LINE ( 'NONE', #198, #148 ) ;
#158 = DIMENSIONAL_EXPONENTS ( 1.000000000000000000, 0.000000000000000000, 0.000000000000000000, 0.000000000000000000, 0.000000000000000000, 0.000000000000000000, 0.000000000000000000 ) ;
#159 = ADVANCED_FACE ( 'NONE', ( #265 ), #191, .T. ) ;
#160 = DIRECTION ( 'NONE',  ( -1.237930494036654098E-16, 1.000000000000000000, -0.000000000000000000 ) ) ;
#161 = AXIS2_PLACEMENT_3D ( 'NONE', #34, #13, #119 ) ;
#162 = DIRECTION ( 'NONE',  ( -1.000000000000000000, -2.185478394931415259E-16, 0.000000000000000000 ) ) ;
#163 = ORIENTED_EDGE ( 'NONE', *, *, #96, .T. ) ;
#164 = PRODUCT_DEFINITION_SHAPE ( 'NONE', 'NONE',  #222 ) ;
#165 = DIRECTION ( 'NONE',  ( -1.000000000000000000, -2.185478394931415259E-16, 0.000000000000000000 ) ) ;
#166 = CONICAL_SURFACE ( 'NONE', #161, 22.73032555864674720, 0.5235987755983001479 ) ;
#167 = DIRECTION ( 'NONE',  ( -1.000000000000000000, 0.000000000000000000, 0.000000000000000000 ) ) ;
#168 = FILL_AREA_STYLE_COLOUR ( '', #258 ) ;
#169 = CARTESIAN_POINT ( 'NONE',  ( 0.1562500000000000000, 2.500000000000000000, 0.000000000000000000 ) ) ;
#170 = PRODUCT_DEFINITION_FORMATION_WITH_SPECIFIED_SOURCE ( 'ANY', '', #200, .NOT_KNOWN. ) ;
#171 = SURFACE_SIDE_STYLE ('',( #177 ) ) ;
#172 = VERTEX_POINT ( 'NONE', #211 ) ;
#173 = DIRECTION ( 'NONE',  ( -5.816148501619839219E-18, -1.000000000000000000, -0.000000000000000000 ) ) ;
#174 = MECHANICAL_DESIGN_GEOMETRIC_PRESENTATION_REPRESENTATION (  '', ( #220 ), #6 ) ;
#175 = VECTOR ( 'NONE', #245, 39.37007874015748854 ) ;
#176 =( LENGTH_UNIT ( ) NAMED_UNIT ( * ) SI_UNIT ( $, .METRE. ) );
#177 = SURFACE_STYLE_FILL_AREA ( #82 ) ;
#178 = PRODUCT_RELATED_PRODUCT_CATEGORY ( 'part', '', ( #200 ) ) ;
#179 = DIRECTION ( 'NONE',  ( 0.000000000000000000, 0.000000000000000000, 1.000000000000000000 ) ) ;
#180 = CYLINDRICAL_SURFACE ( 'NONE', #205, 0.1562499999999998057 ) ;
#181 = CIRCLE ( 'NONE', #264, 0.1562499999999996669 ) ;
#182 =( GEOMETRIC_REPRESENTATION_CONTEXT ( 3 ) GLOBAL_UNCERTAINTY_ASSIGNED_CONTEXT ( ( #240 ) ) GLOBAL_UNIT_ASSIGNED_CONTEXT ( ( #83, #44, #232 ) ) REPRESENTATION_CONTEXT ( 'NONE', 'WORKASPACE' ) );
#183 = ORIENTED_EDGE ( 'NONE', *, *, #254, .F. ) ;
#184 = SURFACE_STYLE_FILL_AREA ( #257 ) ;
#185 = FILL_AREA_STYLE_COLOUR ( '', #64 ) ;
#186 = PRESENTATION_LAYER_ASSIGNMENT (  '', '', ( #78 ) ) ;
#187 = FILL_AREA_STYLE ('',( #246 ) ) ;
#188 = ADVANCED_FACE ( 'NONE', ( #192 ), #55, .T. ) ;
#189 = LINE ( 'NONE', #60, #35 ) ;
#190 = AXIS2_PLACEMENT_3D ( 'NONE', #67, #61, #147 ) ;
#191 = PLANE ( 'NONE',  #7 ) ;
#192 = FACE_OUTER_BOUND ( 'NONE', #73, .T. ) ;
#193 = CARTESIAN_POINT ( 'NONE',  ( 1.574041360807988724E-18, 0.2706329386826362704, 0.000000000000000000 ) ) ;
#194 = VERTEX_POINT ( 'NONE', #5 ) ;
#195 = STYLED_ITEM ( 'NONE', ( #122 ), #159 ) ;
#196 = EDGE_LOOP ( 'NONE', ( #25, #235, #46, #66 ) ) ;
#197 =( CONVERSION_BASED_UNIT ( 'INCH', #87 ) LENGTH_UNIT ( ) NAMED_UNIT ( #112 ) );
#198 = CARTESIAN_POINT ( 'NONE',  ( -0.1562499999999997224, 2.500000000000000000, 0.000000000000000000 ) ) ;
#199 = ORIENTED_EDGE ( 'NONE', *, *, #30, .F. ) ;
#200 = PRODUCT ( '84772', '84772', '', ( #27 ) ) ;
#201 = FACE_OUTER_BOUND ( 'NONE', #196, .T. ) ;
#202 = LENGTH_MEASURE_WITH_UNIT ( LENGTH_MEASURE( 0.02539999999999999897 ), #120 );
#203 =( NAMED_UNIT ( * ) SI_UNIT ( $, .STERADIAN. ) SOLID_ANGLE_UNIT ( ) );
#204 = EDGE_CURVE ( 'NONE', #24, #11, #18, .T. ) ;
#205 = AXIS2_PLACEMENT_3D ( 'NONE', #239, #19, #167 ) ;
#206 = SURFACE_STYLE_USAGE ( .BOTH. , #37 ) ;
#207 = DIRECTION ( 'NONE',  ( -0.5000000000000009992, 0.8660254037844379305, 0.000000000000000000 ) ) ;
#208 =( NAMED_UNIT ( * ) PLANE_ANGLE_UNIT ( ) SI_UNIT ( $, .RADIAN. ) );
#209 = DIRECTION ( 'NONE',  ( 5.816148501619839219E-18, 1.000000000000000000, 0.000000000000000000 ) ) ;
#210 = AXIS2_PLACEMENT_3D ( 'NONE', #225, #263, #165 ) ;
#211 = CARTESIAN_POINT ( 'NONE',  ( -0.1562499999999993339, 0.2706329386826361594, 0.000000000000000000 ) ) ;
#212 = FILL_AREA_STYLE_COLOUR ( '', #233 ) ;
#213 = SURFACE_STYLE_USAGE ( .BOTH. , #171 ) ;
#214 = ORIENTED_EDGE ( 'NONE', *, *, #227, .F. ) ;
#215 =( NAMED_UNIT ( * ) PLANE_ANGLE_UNIT ( ) SI_UNIT ( $, .RADIAN. ) );
#216 =( NAMED_UNIT ( * ) PLANE_ANGLE_UNIT ( ) SI_UNIT ( $, .RADIAN. ) );
#217 = MANIFOLD_SOLID_BREP ( 'Revolve - Tool Body (Pointed)', #77 ) ;
#218 = DIRECTION ( 'NONE',  ( -1.000000000000000000, 0.000000000000000000, 0.000000000000000000 ) ) ;
#219 = EDGE_LOOP ( 'NONE', ( #63, #163, #260 ) ) ;
#220 = STYLED_ITEM ( 'NONE', ( #242 ), #40 ) ;
#221 = COLOUR_RGB ( '',1.000000000000000000, 0.000000000000000000, 0.000000000000000000 ) ;
#222 = PRODUCT_DEFINITION ( 'UNKNOWN', '', #170, #90 ) ;
#223 =( CONVERSION_BASED_UNIT ( 'INCH', #139 ) LENGTH_UNIT ( ) NAMED_UNIT ( #33 ) );
#224 = PRESENTATION_LAYER_ASSIGNMENT (  '', '', ( #113 ) ) ;
#225 = CARTESIAN_POINT ( 'NONE',  ( 3.372124867179325742E-16, 0.2706329386826362149, 0.000000000000000000 ) ) ;
#226 = LENGTH_MEASURE_WITH_UNIT ( LENGTH_MEASURE( 0.02539999999999999897 ), #145 );
#227 = EDGE_CURVE ( 'NONE', #11, #24, #129, .T. ) ;
#228 = DIRECTION ( 'NONE',  ( -1.237930494036654098E-16, 1.000000000000000000, -0.000000000000000000 ) ) ;
#229 = AXIS2_PLACEMENT_3D ( 'NONE', #4, #173, #130 ) ;
#230 = DIRECTION ( 'NONE',  ( 1.000000000000000000, 1.237930494036654098E-16, 0.000000000000000000 ) ) ;
#231 = EDGE_CURVE ( 'NONE', #194, #89, #22, .T. ) ;
#232 =( NAMED_UNIT ( * ) SI_UNIT ( $, .STERADIAN. ) SOLID_ANGLE_UNIT ( ) );
#233 = COLOUR_RGB ( '',0.7921568627450980005, 0.8196078431372548767, 0.9333333333333333481 ) ;
#234 = CARTESIAN_POINT ( 'NONE',  ( 2.289822244732220270E-16, 39.37007874015748143, 0.000000000000000000 ) ) ;
#235 = ORIENTED_EDGE ( 'NONE', *, *, #107, .T. ) ;
#236 = ADVANCED_BREP_SHAPE_REPRESENTATION ( '84772', ( #121, #217, #15 ), #59 ) ;
#237 = AXIS2_PLACEMENT_3D ( 'NONE', #99, #228, #54 ) ;
#238 = MECHANICAL_DESIGN_GEOMETRIC_PRESENTATION_REPRESENTATION (  '', ( #95 ), #123 ) ;
#239 = CARTESIAN_POINT ( 'NONE',  ( 6.123233995736772199E-17, 2.500000000000000000, 0.000000000000000000 ) ) ;
#240 = UNCERTAINTY_MEASURE_WITH_UNIT (LENGTH_MEASURE( 1.000000000000000082E-05 ), #83, 'distance_accuracy_value', 'NONE');
#241 = ORIENTED_EDGE ( 'NONE', *, *, #231, .T. ) ;
#242 = PRESENTATION_STYLE_ASSIGNMENT (( #74 ) ) ;
#243 = DIRECTION ( 'NONE',  ( -1.000000000000000000, -1.237930494036654098E-16, 0.000000000000000000 ) ) ;
#244 =( LENGTH_UNIT ( ) NAMED_UNIT ( * ) SI_UNIT ( $, .METRE. ) );
#245 = DIRECTION ( 'NONE',  ( 0.5000000000000009992, 0.8660254037844379305, 6.123233995736778362E-17 ) ) ;
#246 = FILL_AREA_STYLE_COLOUR ( '', #81 ) ;
#247 = SURFACE_STYLE_USAGE ( .BOTH. , #56 ) ;
#248 =( GEOMETRIC_REPRESENTATION_CONTEXT ( 3 ) GLOBAL_UNCERTAINTY_ASSIGNED_CONTEXT ( ( #93 ) ) GLOBAL_UNIT_ASSIGNED_CONTEXT ( ( #255, #127, #65 ) ) REPRESENTATION_CONTEXT ( 'NONE', 'WORKASPACE' ) );
#249 = FACE_OUTER_BOUND ( 'NONE', #128, .T. ) ;
#250 = PRESENTATION_STYLE_ASSIGNMENT (( #213 ) ) ;
#251 = EDGE_LOOP ( 'NONE', ( #105, #214 ) ) ;
#252 = SURFACE_STYLE_USAGE ( .BOTH. , #62 ) ;
#253 = CIRCLE ( 'NONE', #138, 0.1562499999999999445 ) ;
#254 = EDGE_CURVE ( 'NONE', #75, #89, #253, .T. ) ;
#255 =( CONVERSION_BASED_UNIT ( 'INCH', #43 ) LENGTH_UNIT ( ) NAMED_UNIT ( #47 ) );
#256 = DIRECTION ( 'NONE',  ( -1.237930494036654098E-16, 1.000000000000000000, -0.000000000000000000 ) ) ;
#257 = FILL_AREA_STYLE ('',( #185 ) ) ;
#258 = COLOUR_RGB ( '',0.7921568627450980005, 0.8196078431372548767, 0.9333333333333333481 ) ;
#259 = DIRECTION ( 'NONE',  ( -1.000000000000000000, 0.000000000000000000, 0.000000000000000000 ) ) ;
#260 = ORIENTED_EDGE ( 'NONE', *, *, #204, .T. ) ;
#261 = ADVANCED_FACE ( 'NONE', ( #137 ), #31, .F. ) ;
#262 = CARTESIAN_POINT ( 'NONE',  ( 0.000000000000000000, 0.000000000000000000, 0.000000000000000000 ) ) ;
#263 = DIRECTION ( 'NONE',  ( -1.237930494036654098E-16, 1.000000000000000000, -0.000000000000000000 ) ) ;
#264 = AXIS2_PLACEMENT_3D ( 'NONE', #28, #53, #162 ) ;
#265 = FACE_OUTER_BOUND ( 'NONE', #251, .T. ) ;
ENDSEC;
END-ISO-10303-21;
