ISO-10303-21;
HEADER;
FILE_DESCRIPTION (( 'STEP AP214' ),
    '1' );
FILE_NAME ('83826.STEP',
    '2023-07-05T16:13:14',
    ( '' ),
    ( '' ),
    'SwSTEP 2.0',
    'SolidWorks 2023',
    '' );
FILE_SCHEMA (( 'AUTOMOTIVE_DESIGN' ));
ENDSEC;

DATA;
#1 = COLOUR_RGB ( '',1.000000000000000000, 0.000000000000000000, 0.000000000000000000 ) ;
#2 = CARTESIAN_POINT ( 'NONE',  ( -6.123233995736766036E-17, 2.500000000000000000, 0.000000000000000000 ) ) ;
#3 = LINE ( 'NONE', #126, #85 ) ;
#4 = LENGTH_MEASURE_WITH_UNIT ( LENGTH_MEASURE( 0.02539999999999999897 ), #27 );
#5 = CLOSED_SHELL ( 'NONE', ( #52, #128, #243 ) ) ;
#6 = DIRECTION ( 'NONE',  ( -1.090527844053722473E-17, -1.000000000000000000, -0.000000000000000000 ) ) ;
#7 = DIRECTION ( 'NONE',  ( -1.219197302182064860E-16, 1.000000000000000000, -0.000000000000000000 ) ) ;
#8 = SURFACE_SIDE_STYLE ('',( #142 ) ) ;
#9 = ORIENTED_EDGE ( 'NONE', *, *, #261, .F. ) ;
#10 =( NAMED_UNIT ( * ) SI_UNIT ( $, .STERADIAN. ) SOLID_ANGLE_UNIT ( ) );
#11 = VERTEX_POINT ( 'NONE', #177 ) ;
#12 = EDGE_LOOP ( 'NONE', ( #234, #14, #112, #103 ) ) ;
#13 = AXIS2_PLACEMENT_3D ( 'NONE', #82, #183, #241 ) ;
#14 = ORIENTED_EDGE ( 'NONE', *, *, #159, .T. ) ;
#15 = PRESENTATION_LAYER_ASSIGNMENT (  '', '', ( #173 ) ) ;
#16 = ADVANCED_FACE ( 'NONE', ( #140 ), #84, .T. ) ;
#17 = CARTESIAN_POINT ( 'NONE',  ( -0.1249999999999999861, 2.500000000000000000, 0.000000000000000000 ) ) ;
#18 = EDGE_LOOP ( 'NONE', ( #59, #255 ) ) ;
#19 = DIRECTION ( 'NONE',  ( -1.000000000000000000, 0.000000000000000000, 0.000000000000000000 ) ) ;
#20 = FILL_AREA_STYLE_COLOUR ( '', #1 ) ;
#21 = SURFACE_STYLE_FILL_AREA ( #157 ) ;
#22 = SURFACE_STYLE_USAGE ( .BOTH. , #83 ) ;
#23 = COLOUR_RGB ( '',1.000000000000000000, 0.000000000000000000, 0.000000000000000000 ) ;
#24 = CARTESIAN_POINT ( 'NONE',  ( 4.293416708872923422E-16, 39.37007874015748143, 0.000000000000000000 ) ) ;
#25 = AXIS2_PLACEMENT_3D ( 'NONE', #136, #225, #201 ) ;
#26 =( NAMED_UNIT ( * ) PLANE_ANGLE_UNIT ( ) SI_UNIT ( $, .RADIAN. ) );
#27 =( LENGTH_UNIT ( ) NAMED_UNIT ( * ) SI_UNIT ( $, .METRE. ) );
#28 = EDGE_CURVE ( 'NONE', #96, #54, #208, .T. ) ;
#29 = SURFACE_STYLE_USAGE ( .BOTH. , #78 ) ;
#30 = UNCERTAINTY_MEASURE_WITH_UNIT (LENGTH_MEASURE( 1.000000000000000082E-05 ), #233, 'distance_accuracy_value', 'NONE');
#31 = AXIS2_PLACEMENT_3D ( 'NONE', #121, #7, #161 ) ;
#32 =( NAMED_UNIT ( * ) PLANE_ANGLE_UNIT ( ) SI_UNIT ( $, .RADIAN. ) );
#33 = UNCERTAINTY_MEASURE_WITH_UNIT (LENGTH_MEASURE( 1.000000000000000082E-05 ), #114, 'distance_accuracy_value', 'NONE');
#34 =( GEOMETRIC_REPRESENTATION_CONTEXT ( 3 ) GLOBAL_UNCERTAINTY_ASSIGNED_CONTEXT ( ( #33 ) ) GLOBAL_UNIT_ASSIGNED_CONTEXT ( ( #114, #251, #187 ) ) REPRESENTATION_CONTEXT ( 'NONE', 'WORKASPACE' ) );
#35 = ORIENTED_EDGE ( 'NONE', *, *, #172, .T. ) ;
#36 =( CONVERSION_BASED_UNIT ( 'INCH', #81 ) LENGTH_UNIT ( ) NAMED_UNIT ( #198 ) );
#37 = ADVANCED_BREP_SHAPE_REPRESENTATION ( '83826', ( #264, #164, #13 ), #120 ) ;
#38 = CARTESIAN_POINT ( 'NONE',  ( 4.293416708872923422E-16, 39.37007874015748143, 0.000000000000000000 ) ) ;
#39 = DIRECTION ( 'NONE',  ( -1.000000000000000000, 0.000000000000000000, 0.000000000000000000 ) ) ;
#40 = PRODUCT_DEFINITION_CONTEXT ( 'detailed design', #210, 'design' ) ;
#41 = APPLICATION_PROTOCOL_DEFINITION ( 'draft international standard', 'automotive_design', 1998, #229 ) ;
#42 = STYLED_ITEM ( 'NONE', ( #50 ), #243 ) ;
#43 = CARTESIAN_POINT ( 'NONE',  ( 0.000000000000000000, 0.000000000000000000, 0.000000000000000000 ) ) ;
#44 = CARTESIAN_POINT ( 'NONE',  ( 2.347681869555226296E-16, 0.07216878364870282780, 0.000000000000000000 ) ) ;
#45 = STYLED_ITEM ( 'NONE', ( #108 ), #128 ) ;
#46 = DIRECTION ( 'NONE',  ( 1.090527844053722473E-17, 1.000000000000000000, 0.000000000000000000 ) ) ;
#47 =( NAMED_UNIT ( * ) SI_UNIT ( $, .STERADIAN. ) SOLID_ANGLE_UNIT ( ) );
#48 = DIRECTION ( 'NONE',  ( -1.219197302182064860E-16, 1.000000000000000000, 0.000000000000000000 ) ) ;
#49 = DIRECTION ( 'NONE',  ( -1.090527844053722473E-17, -1.000000000000000000, -0.000000000000000000 ) ) ;
#50 = PRESENTATION_STYLE_ASSIGNMENT (( #29 ) ) ;
#51 = LENGTH_MEASURE_WITH_UNIT ( LENGTH_MEASURE( 0.02539999999999999897 ), #127 );
#52 = ADVANCED_FACE ( 'NONE', ( #155 ), #232, .T. ) ;
#53 =( NAMED_UNIT ( * ) SI_UNIT ( $, .STERADIAN. ) SOLID_ANGLE_UNIT ( ) );
#54 = VERTEX_POINT ( 'NONE', #260 ) ;
#55 = COLOUR_RGB ( '',1.000000000000000000, 0.000000000000000000, 0.000000000000000000 ) ;
#56 = EDGE_LOOP ( 'NONE', ( #100, #196, #171, #9 ) ) ;
#57 = MECHANICAL_DESIGN_GEOMETRIC_PRESENTATION_REPRESENTATION (  '', ( #70 ), #235 ) ;
#58 = VECTOR ( 'NONE', #73, 39.37007874015748854 ) ;
#59 = ORIENTED_EDGE ( 'NONE', *, *, #123, .F. ) ;
#60 = APPLICATION_PROTOCOL_DEFINITION ( 'draft international standard', 'automotive_design', 1998, #210 ) ;
#61 =( NAMED_UNIT ( * ) SI_UNIT ( $, .STERADIAN. ) SOLID_ANGLE_UNIT ( ) );
#62 = PRESENTATION_LAYER_ASSIGNMENT (  '', '', ( #70 ) ) ;
#63 = AXIS2_PLACEMENT_3D ( 'NONE', #24, #194, #238 ) ;
#64 =( NAMED_UNIT ( * ) PLANE_ANGLE_UNIT ( ) SI_UNIT ( $, .RADIAN. ) );
#65 = UNCERTAINTY_MEASURE_WITH_UNIT (LENGTH_MEASURE( 1.000000000000000082E-05 ), #102, 'distance_accuracy_value', 'NONE');
#66 = PRESENTATION_LAYER_ASSIGNMENT (  '', '', ( #42 ) ) ;
#67 = FACE_OUTER_BOUND ( 'NONE', #113, .T. ) ;
#68 = STYLED_ITEM ( 'NONE', ( #76 ), #264 ) ;
#69 = CARTESIAN_POINT ( 'NONE',  ( -6.123233995736766036E-17, 2.500000000000000000, 0.000000000000000000 ) ) ;
#70 = STYLED_ITEM ( 'NONE', ( #88 ), #164 ) ;
#71 = PLANE ( 'NONE',  #116 ) ;
#72 = LINE ( 'NONE', #17, #111 ) ;
#73 = DIRECTION ( 'NONE',  ( 0.8660254037844397068, 0.4999999999999979461, 1.060575238724908024E-16 ) ) ;
#74 = EDGE_CURVE ( 'NONE', #193, #175, #105, .T. ) ;
#75 = CIRCLE ( 'NONE', #149, 0.1249999999999997780 ) ;
#76 = PRESENTATION_STYLE_ASSIGNMENT (( #191 ) ) ;
#77 = ORIENTED_EDGE ( 'NONE', *, *, #74, .F. ) ;
#78 = SURFACE_SIDE_STYLE ('',( #176 ) ) ;
#79 = ORIENTED_EDGE ( 'NONE', *, *, #248, .T. ) ;
#80 = AXIS2_PLACEMENT_3D ( 'NONE', #91, #46, #188 ) ;
#81 = LENGTH_MEASURE_WITH_UNIT ( LENGTH_MEASURE( 0.02539999999999999897 ), #220 );
#82 = CARTESIAN_POINT ( 'NONE',  ( 0.000000000000000000, 0.000000000000000000, 0.000000000000000000 ) ) ;
#83 = SURFACE_SIDE_STYLE ('',( #202 ) ) ;
#84 = CYLINDRICAL_SURFACE ( 'NONE', #25, 0.1249999999999999167 ) ;
#85 = VECTOR ( 'NONE', #231, 39.37007874015748143 ) ;
#86 = FILL_AREA_STYLE_COLOUR ( '', #23 ) ;
#87 = ADVANCED_FACE ( 'NONE', ( #138 ), #244, .F. ) ;
#88 = PRESENTATION_STYLE_ASSIGNMENT (( #163 ) ) ;
#89 = CARTESIAN_POINT ( 'NONE',  ( 7.870206804039943619E-19, 0.07216878364870282780, 0.000000000000000000 ) ) ;
#90 = AXIS2_PLACEMENT_3D ( 'NONE', #180, #263, #119 ) ;
#91 = CARTESIAN_POINT ( 'NONE',  ( 7.870206804039943619E-19, 0.07216878364870282780, 0.000000000000000000 ) ) ;
#92 = PRODUCT_DEFINITION ( 'UNKNOWN', '', #125, #40 ) ;
#93 = CARTESIAN_POINT ( 'NONE',  ( -0.1250000000000000000, 0.07216878364870282780, 0.000000000000000000 ) ) ;
#94 = MECHANICAL_DESIGN_GEOMETRIC_PRESENTATION_REPRESENTATION (  '', ( #68 ), #192 ) ;
#95 =( NAMED_UNIT ( * ) PLANE_ANGLE_UNIT ( ) SI_UNIT ( $, .RADIAN. ) );
#96 = VERTEX_POINT ( 'NONE', #154 ) ;
#97 = EDGE_LOOP ( 'NONE', ( #237, #252 ) ) ;
#98 = PRODUCT ( '83826', '83826', '', ( #135 ) ) ;
#99 = AXIS2_PLACEMENT_3D ( 'NONE', #89, #6, #228 ) ;
#100 = ORIENTED_EDGE ( 'NONE', *, *, #123, .T. ) ;
#101 = AXIS2_PLACEMENT_3D ( 'NONE', #38, #226, #19 ) ;
#102 =( CONVERSION_BASED_UNIT ( 'INCH', #174 ) LENGTH_UNIT ( ) NAMED_UNIT ( #115 ) );
#103 = ORIENTED_EDGE ( 'NONE', *, *, #151, .F. ) ;
#104 = PLANE ( 'NONE',  #80 ) ;
#105 = LINE ( 'NONE', #43, #143 ) ;
#106 = AXIS2_PLACEMENT_3D ( 'NONE', #2, #118, #39 ) ;
#107 = FILL_AREA_STYLE ('',( #20 ) ) ;
#108 = PRESENTATION_STYLE_ASSIGNMENT (( #22 ) ) ;
#109 = CARTESIAN_POINT ( 'NONE',  ( 2.347681869555226296E-16, 0.07216878364870271678, 0.000000000000000000 ) ) ;
#110 = CARTESIAN_POINT ( 'NONE',  ( 0.1250000000000000000, 0.07216878364870282780, 1.530808498934191509E-17 ) ) ;
#111 = VECTOR ( 'NONE', #257, 39.37007874015748143 ) ;
#112 = ORIENTED_EDGE ( 'NONE', *, *, #261, .T. ) ;
#113 = EDGE_LOOP ( 'NONE', ( #197, #240 ) ) ;
#114 =( CONVERSION_BASED_UNIT ( 'INCH', #141 ) LENGTH_UNIT ( ) NAMED_UNIT ( #219 ) );
#115 = DIMENSIONAL_EXPONENTS ( 1.000000000000000000, 0.000000000000000000, 0.000000000000000000, 0.000000000000000000, 0.000000000000000000, 0.000000000000000000, 0.000000000000000000 ) ;
#116 = AXIS2_PLACEMENT_3D ( 'NONE', #44, #48, #124 ) ;
#117 = DIRECTION ( 'NONE',  ( -1.000000000000000000, -1.365923996832134074E-16, 0.000000000000000000 ) ) ;
#118 = DIRECTION ( 'NONE',  ( -1.219197302182064860E-16, 1.000000000000000000, -0.000000000000000000 ) ) ;
#119 = DIRECTION ( 'NONE',  ( 1.000000000000000000, 1.219197302182064860E-16, 0.000000000000000000 ) ) ;
#120 =( GEOMETRIC_REPRESENTATION_CONTEXT ( 3 ) GLOBAL_UNCERTAINTY_ASSIGNED_CONTEXT ( ( #221 ) ) GLOBAL_UNIT_ASSIGNED_CONTEXT ( ( #254, #214, #53 ) ) REPRESENTATION_CONTEXT ( 'NONE', 'WORKASPACE' ) );
#121 = CARTESIAN_POINT ( 'NONE',  ( -6.123233995736766036E-17, 2.500000000000000000, 0.000000000000000000 ) ) ;
#122 = DIRECTION ( 'NONE',  ( -1.000000000000000000, 0.000000000000000000, 0.000000000000000000 ) ) ;
#123 = EDGE_CURVE ( 'NONE', #153, #11, #75, .T. ) ;
#124 = DIRECTION ( 'NONE',  ( -1.000000000000000000, -1.219197302182064860E-16, 0.000000000000000000 ) ) ;
#125 = PRODUCT_DEFINITION_FORMATION_WITH_SPECIFIED_SOURCE ( 'ANY', '', #98, .NOT_KNOWN. ) ;
#126 = CARTESIAN_POINT ( 'NONE',  ( 0.1249999999999998473, 2.500000000000000000, 1.530808498934190276E-17 ) ) ;
#127 =( LENGTH_UNIT ( ) NAMED_UNIT ( * ) SI_UNIT ( $, .METRE. ) );
#128 = ADVANCED_FACE ( 'NONE', ( #67 ), #104, .T. ) ;
#129 =( NAMED_UNIT ( * ) SI_UNIT ( $, .STERADIAN. ) SOLID_ANGLE_UNIT ( ) );
#130 = LINE ( 'NONE', #195, #58 ) ;
#131 = EDGE_CURVE ( 'NONE', #11, #54, #3, .T. ) ;
#132 = ORIENTED_EDGE ( 'NONE', *, *, #248, .F. ) ;
#133 = CLOSED_SHELL ( 'NONE', ( #224, #230, #16, #87 ) ) ;
#134 = DIMENSIONAL_EXPONENTS ( 1.000000000000000000, 0.000000000000000000, 0.000000000000000000, 0.000000000000000000, 0.000000000000000000, 0.000000000000000000, 0.000000000000000000 ) ;
#135 = PRODUCT_CONTEXT ( 'NONE', #229, 'mechanical' ) ;
#136 = CARTESIAN_POINT ( 'NONE',  ( -6.123233995736766036E-17, 2.500000000000000000, 0.000000000000000000 ) ) ;
#137 = DIMENSIONAL_EXPONENTS ( 1.000000000000000000, 0.000000000000000000, 0.000000000000000000, 0.000000000000000000, 0.000000000000000000, 0.000000000000000000, 0.000000000000000000 ) ;
#138 = FACE_OUTER_BOUND ( 'NONE', #97, .T. ) ;
#139 = CIRCLE ( 'NONE', #246, 0.1250000000000000555 ) ;
#140 = FACE_OUTER_BOUND ( 'NONE', #12, .T. ) ;
#141 = LENGTH_MEASURE_WITH_UNIT ( LENGTH_MEASURE( 0.02539999999999999897 ), #184 );
#142 = SURFACE_STYLE_FILL_AREA ( #227 ) ;
#143 = VECTOR ( 'NONE', #262, 39.37007874015748854 ) ;
#144 = EDGE_CURVE ( 'NONE', #175, #216, #179, .T. ) ;
#145 = CARTESIAN_POINT ( 'NONE',  ( -0.1249999999999995420, 0.07216878364870270290, 0.000000000000000000 ) ) ;
#146 = AXIS2_PLACEMENT_3D ( 'NONE', #109, #207, #205 ) ;
#147 = DIRECTION ( 'NONE',  ( -1.219197302182064860E-16, 1.000000000000000000, -0.000000000000000000 ) ) ;
#148 = EDGE_LOOP ( 'NONE', ( #77, #79, #35 ) ) ;
#149 = AXIS2_PLACEMENT_3D ( 'NONE', #178, #242, #117 ) ;
#150 = PRODUCT_DEFINITION_SHAPE ( 'NONE', 'NONE',  #92 ) ;
#151 = EDGE_CURVE ( 'NONE', #54, #96, #139, .T. ) ;
#152 =( LENGTH_UNIT ( ) NAMED_UNIT ( * ) SI_UNIT ( $, .METRE. ) );
#153 = VERTEX_POINT ( 'NONE', #145 ) ;
#154 = CARTESIAN_POINT ( 'NONE',  ( -0.1250000000000001388, 2.500000000000000000, 0.000000000000000000 ) ) ;
#155 = FACE_OUTER_BOUND ( 'NONE', #148, .T. ) ;
#156 = SHAPE_DEFINITION_REPRESENTATION ( #150, #37 ) ;
#157 = FILL_AREA_STYLE ('',( #86 ) ) ;
#158 = UNCERTAINTY_MEASURE_WITH_UNIT (LENGTH_MEASURE( 1.000000000000000082E-05 ), #162, 'distance_accuracy_value', 'NONE');
#159 = EDGE_CURVE ( 'NONE', #11, #153, #213, .T. ) ;
#160 = FILL_AREA_STYLE_COLOUR ( '', #55 ) ;
#161 = DIRECTION ( 'NONE',  ( -1.000000000000000000, 0.000000000000000000, 0.000000000000000000 ) ) ;
#162 =( CONVERSION_BASED_UNIT ( 'INCH', #4 ) LENGTH_UNIT ( ) NAMED_UNIT ( #181 ) );
#163 = SURFACE_STYLE_USAGE ( .BOTH. , #8 ) ;
#164 = MANIFOLD_SOLID_BREP ( 'Revolve - Tool Body (Pointed)', #133 ) ;
#165 = FACE_OUTER_BOUND ( 'NONE', #56, .T. ) ;
#166 =( GEOMETRIC_REPRESENTATION_CONTEXT ( 3 ) GLOBAL_UNCERTAINTY_ASSIGNED_CONTEXT ( ( #65 ) ) GLOBAL_UNIT_ASSIGNED_CONTEXT ( ( #102, #95, #129 ) ) REPRESENTATION_CONTEXT ( 'NONE', 'WORKASPACE' ) );
#167 = ORIENTED_EDGE ( 'NONE', *, *, #74, .T. ) ;
#168 = SURFACE_SIDE_STYLE ('',( #211 ) ) ;
#169 = CIRCLE ( 'NONE', #99, 0.1249999999999999861 ) ;
#170 = FILL_AREA_STYLE ('',( #236 ) ) ;
#171 = ORIENTED_EDGE ( 'NONE', *, *, #28, .F. ) ;
#172 = EDGE_CURVE ( 'NONE', #216, #175, #169, .T. ) ;
#173 = STYLED_ITEM ( 'NONE', ( #182 ), #52 ) ;
#174 = LENGTH_MEASURE_WITH_UNIT ( LENGTH_MEASURE( 0.02539999999999999897 ), #258 );
#175 = VERTEX_POINT ( 'NONE', #93 ) ;
#176 = SURFACE_STYLE_FILL_AREA ( #253 ) ;
#177 = CARTESIAN_POINT ( 'NONE',  ( 0.1250000000000000278, 0.07216878364870273066, 1.530808498934191201E-17 ) ) ;
#178 = CARTESIAN_POINT ( 'NONE',  ( 2.347681869555226296E-16, 0.07216878364870271678, 0.000000000000000000 ) ) ;
#179 = CIRCLE ( 'NONE', #256, 0.1249999999999999861 ) ;
#180 = CARTESIAN_POINT ( 'NONE',  ( 0.1250000000000000000, 2.500000000000000000, 0.000000000000000000 ) ) ;
#181 = DIMENSIONAL_EXPONENTS ( 1.000000000000000000, 0.000000000000000000, 0.000000000000000000, 0.000000000000000000, 0.000000000000000000, 0.000000000000000000, 0.000000000000000000 ) ;
#182 = PRESENTATION_STYLE_ASSIGNMENT (( #265 ) ) ;
#183 = DIRECTION ( 'NONE',  ( 0.000000000000000000, 0.000000000000000000, 1.000000000000000000 ) ) ;
#184 =( LENGTH_UNIT ( ) NAMED_UNIT ( * ) SI_UNIT ( $, .METRE. ) );
#185 = COLOUR_RGB ( '',0.7921568627450980005, 0.8196078431372548767, 0.9333333333333333481 ) ;
#186 = CARTESIAN_POINT ( 'NONE',  ( 0.000000000000000000, 0.000000000000000000, 0.000000000000000000 ) ) ;
#187 =( NAMED_UNIT ( * ) SI_UNIT ( $, .STERADIAN. ) SOLID_ANGLE_UNIT ( ) );
#188 = DIRECTION ( 'NONE',  ( -1.000000000000000000, 1.090527844053722473E-17, 0.000000000000000000 ) ) ;
#189 = PRESENTATION_LAYER_ASSIGNMENT (  '', '', ( #45 ) ) ;
#190 = CYLINDRICAL_SURFACE ( 'NONE', #31, 0.1249999999999999167 ) ;
#191 = SURFACE_STYLE_USAGE ( .BOTH. , #168 ) ;
#192 =( GEOMETRIC_REPRESENTATION_CONTEXT ( 3 ) GLOBAL_UNCERTAINTY_ASSIGNED_CONTEXT ( ( #30 ) ) GLOBAL_UNIT_ASSIGNED_CONTEXT ( ( #233, #32, #10 ) ) REPRESENTATION_CONTEXT ( 'NONE', 'WORKASPACE' ) );
#193 = VERTEX_POINT ( 'NONE', #186 ) ;
#194 = DIRECTION ( 'NONE',  ( 1.090527844053722473E-17, 1.000000000000000000, 0.000000000000000000 ) ) ;
#195 = CARTESIAN_POINT ( 'NONE',  ( 0.000000000000000000, 0.000000000000000000, 0.000000000000000000 ) ) ;
#196 = ORIENTED_EDGE ( 'NONE', *, *, #131, .T. ) ;
#197 = ORIENTED_EDGE ( 'NONE', *, *, #144, .F. ) ;
#198 = DIMENSIONAL_EXPONENTS ( 1.000000000000000000, 0.000000000000000000, 0.000000000000000000, 0.000000000000000000, 0.000000000000000000, 0.000000000000000000, 0.000000000000000000 ) ;
#199 = PRODUCT_RELATED_PRODUCT_CATEGORY ( 'part', '', ( #98 ) ) ;
#200 = MECHANICAL_DESIGN_GEOMETRIC_PRESENTATION_REPRESENTATION (  '', ( #42 ), #166 ) ;
#201 = DIRECTION ( 'NONE',  ( -1.000000000000000000, 0.000000000000000000, 0.000000000000000000 ) ) ;
#202 = SURFACE_STYLE_FILL_AREA ( #107 ) ;
#203 = MECHANICAL_DESIGN_GEOMETRIC_PRESENTATION_REPRESENTATION (  '', ( #173 ), #217 ) ;
#204 = FACE_OUTER_BOUND ( 'NONE', #218, .T. ) ;
#205 = DIRECTION ( 'NONE',  ( -1.000000000000000000, -1.365923996832134074E-16, 0.000000000000000000 ) ) ;
#206 = FACE_OUTER_BOUND ( 'NONE', #18, .T. ) ;
#207 = DIRECTION ( 'NONE',  ( -1.219197302182064860E-16, 1.000000000000000000, -0.000000000000000000 ) ) ;
#208 = CIRCLE ( 'NONE', #106, 0.1250000000000000555 ) ;
#209 = FILL_AREA_STYLE_COLOUR ( '', #185 ) ;
#210 = APPLICATION_CONTEXT ( 'automotive_design' ) ;
#211 = SURFACE_STYLE_FILL_AREA ( #170 ) ;
#212 = CONICAL_SURFACE ( 'NONE', #63, 68.19097667594041923, 1.047197551196600074 ) ;
#213 = CIRCLE ( 'NONE', #146, 0.1249999999999997780 ) ;
#214 =( NAMED_UNIT ( * ) PLANE_ANGLE_UNIT ( ) SI_UNIT ( $, .RADIAN. ) );
#215 = LENGTH_MEASURE_WITH_UNIT ( LENGTH_MEASURE( 0.02539999999999999897 ), #152 );
#216 = VERTEX_POINT ( 'NONE', #110 ) ;
#217 =( GEOMETRIC_REPRESENTATION_CONTEXT ( 3 ) GLOBAL_UNCERTAINTY_ASSIGNED_CONTEXT ( ( #259 ) ) GLOBAL_UNIT_ASSIGNED_CONTEXT ( ( #36, #64, #61 ) ) REPRESENTATION_CONTEXT ( 'NONE', 'WORKASPACE' ) );
#218 = EDGE_LOOP ( 'NONE', ( #132, #167, #239 ) ) ;
#219 = DIMENSIONAL_EXPONENTS ( 1.000000000000000000, 0.000000000000000000, 0.000000000000000000, 0.000000000000000000, 0.000000000000000000, 0.000000000000000000, 0.000000000000000000 ) ;
#220 =( LENGTH_UNIT ( ) NAMED_UNIT ( * ) SI_UNIT ( $, .METRE. ) );
#221 = UNCERTAINTY_MEASURE_WITH_UNIT (LENGTH_MEASURE( 1.000000000000000082E-05 ), #254, 'distance_accuracy_value', 'NONE');
#222 = PRESENTATION_LAYER_ASSIGNMENT (  '', '', ( #68 ) ) ;
#223 = MECHANICAL_DESIGN_GEOMETRIC_PRESENTATION_REPRESENTATION (  '', ( #45 ), #34 ) ;
#224 = ADVANCED_FACE ( 'NONE', ( #165 ), #190, .T. ) ;
#225 = DIRECTION ( 'NONE',  ( -1.219197302182064860E-16, 1.000000000000000000, -0.000000000000000000 ) ) ;
#226 = DIRECTION ( 'NONE',  ( 1.090527844053722473E-17, 1.000000000000000000, 0.000000000000000000 ) ) ;
#227 = FILL_AREA_STYLE ('',( #209 ) ) ;
#228 = DIRECTION ( 'NONE',  ( 1.000000000000000000, 0.000000000000000000, 0.000000000000000000 ) ) ;
#229 = APPLICATION_CONTEXT ( 'automotive_design' ) ;
#230 = ADVANCED_FACE ( 'NONE', ( #206 ), #71, .F. ) ;
#231 = DIRECTION ( 'NONE',  ( -1.219197302182064860E-16, 1.000000000000000000, -0.000000000000000000 ) ) ;
#232 = CONICAL_SURFACE ( 'NONE', #101, 68.19097667594041923, 1.047197551196600074 ) ;
#233 =( CONVERSION_BASED_UNIT ( 'INCH', #215 ) LENGTH_UNIT ( ) NAMED_UNIT ( #134 ) );
#234 = ORIENTED_EDGE ( 'NONE', *, *, #131, .F. ) ;
#235 =( GEOMETRIC_REPRESENTATION_CONTEXT ( 3 ) GLOBAL_UNCERTAINTY_ASSIGNED_CONTEXT ( ( #158 ) ) GLOBAL_UNIT_ASSIGNED_CONTEXT ( ( #162, #26, #47 ) ) REPRESENTATION_CONTEXT ( 'NONE', 'WORKASPACE' ) );
#236 = FILL_AREA_STYLE_COLOUR ( '', #245 ) ;
#237 = ORIENTED_EDGE ( 'NONE', *, *, #28, .T. ) ;
#238 = DIRECTION ( 'NONE',  ( -1.000000000000000000, 0.000000000000000000, 0.000000000000000000 ) ) ;
#239 = ORIENTED_EDGE ( 'NONE', *, *, #144, .T. ) ;
#240 = ORIENTED_EDGE ( 'NONE', *, *, #172, .F. ) ;
#241 = DIRECTION ( 'NONE',  ( 1.000000000000000000, 0.000000000000000000, 0.000000000000000000 ) ) ;
#242 = DIRECTION ( 'NONE',  ( -1.219197302182064860E-16, 1.000000000000000000, -0.000000000000000000 ) ) ;
#243 = ADVANCED_FACE ( 'NONE', ( #204 ), #212, .T. ) ;
#244 = PLANE ( 'NONE',  #90 ) ;
#245 = COLOUR_RGB ( '',0.7921568627450980005, 0.8196078431372548767, 0.9333333333333333481 ) ;
#246 = AXIS2_PLACEMENT_3D ( 'NONE', #69, #147, #122 ) ;
#247 = SURFACE_SIDE_STYLE ('',( #21 ) ) ;
#248 = EDGE_CURVE ( 'NONE', #193, #216, #130, .T. ) ;
#249 = CARTESIAN_POINT ( 'NONE',  ( 7.870206804039943619E-19, 0.07216878364870282780, 0.000000000000000000 ) ) ;
#250 = DIRECTION ( 'NONE',  ( 1.000000000000000000, 0.000000000000000000, 0.000000000000000000 ) ) ;
#251 =( NAMED_UNIT ( * ) PLANE_ANGLE_UNIT ( ) SI_UNIT ( $, .RADIAN. ) );
#252 = ORIENTED_EDGE ( 'NONE', *, *, #151, .T. ) ;
#253 = FILL_AREA_STYLE ('',( #160 ) ) ;
#254 =( CONVERSION_BASED_UNIT ( 'INCH', #51 ) LENGTH_UNIT ( ) NAMED_UNIT ( #137 ) );
#255 = ORIENTED_EDGE ( 'NONE', *, *, #159, .F. ) ;
#256 = AXIS2_PLACEMENT_3D ( 'NONE', #249, #49, #250 ) ;
#257 = DIRECTION ( 'NONE',  ( -1.219197302182064860E-16, 1.000000000000000000, -0.000000000000000000 ) ) ;
#258 =( LENGTH_UNIT ( ) NAMED_UNIT ( * ) SI_UNIT ( $, .METRE. ) );
#259 = UNCERTAINTY_MEASURE_WITH_UNIT (LENGTH_MEASURE( 1.000000000000000082E-05 ), #36, 'distance_accuracy_value', 'NONE');
#260 = CARTESIAN_POINT ( 'NONE',  ( 0.1249999999999999861, 2.500000000000000000, 1.530808498934191201E-17 ) ) ;
#261 = EDGE_CURVE ( 'NONE', #153, #96, #72, .T. ) ;
#262 = DIRECTION ( 'NONE',  ( -0.8660254037844397068, 0.4999999999999979461, 0.000000000000000000 ) ) ;
#263 = DIRECTION ( 'NONE',  ( 1.219197302182064860E-16, -1.000000000000000000, 0.000000000000000000 ) ) ;
#264 = MANIFOLD_SOLID_BREP ( 'Revolve - Cutting Edge', #5 ) ;
#265 = SURFACE_STYLE_USAGE ( .BOTH. , #247 ) ;
ENDSEC;
END-ISO-10303-21;
