ISO-10303-21;
HEADER;
FILE_DESCRIPTION (( 'STEP AP214' ),
    '1' );
FILE_NAME ('Micro_RME-014-2.STEP',
    '2021-09-01T22:30:15',
    ( '' ),
    ( '' ),
    'SwSTEP 2.0',
    'SolidWorks 2020',
    '' );
FILE_SCHEMA (( 'AUTOMOTIVE_DESIGN' ));
ENDSEC;

DATA;
#1 = AXIS2_PLACEMENT_3D ( 'NONE', #216, #261, #79 ) ;
#2 = APPLICATION_PROTOCOL_DEFINITION ( 'draft international standard', 'automotive_design', 1998, #236 ) ;
#3 = EDGE_CURVE ( 'NONE', #76, #26, #60, .T. ) ;
#4 = SURFACE_STYLE_FILL_AREA ( #238 ) ;
#5 = ORIENTED_EDGE ( 'NONE', *, *, #17, .F. ) ;
#6 = VECTOR ( 'NONE', #271, 39.37007874015747433 ) ;
#7 = DIRECTION ( 'NONE',  ( -1.000000000000000000, 0.0000000000000000000, 1.224646799147353454E-16 ) ) ;
#8 = CARTESIAN_POINT ( 'NONE',  ( 5.143516556418885177E-18, 0.0000000000000000000, 0.04200000000000000955 ) ) ;
#9 = DIRECTION ( 'NONE',  ( 1.000000000000000000, 0.0000000000000000000, 0.0000000000000000000 ) ) ;
#10 = DIRECTION ( 'NONE',  ( 1.224646799147353454E-16, 0.0000000000000000000, 1.000000000000000000 ) ) ;
#11 = LINE ( 'NONE', #243, #94 ) ;
#12 = EDGE_CURVE ( 'NONE', #126, #123, #23, .T. ) ;
#13 = ORIENTED_EDGE ( 'NONE', *, *, #32, .F. ) ;
#14 = CARTESIAN_POINT ( 'NONE',  ( 0.0000000000000000000, 0.0000000000000000000, 0.0000000000000000000 ) ) ;
#15 = DIRECTION ( 'NONE',  ( 1.000000000000000000, 0.0000000000000000000, 0.0000000000000000000 ) ) ;
#16 = CIRCLE ( 'NONE', #231, 0.006992999999999998349 ) ;
#17 = EDGE_CURVE ( 'NONE', #76, #246, #285, .T. ) ;
#18 = CARTESIAN_POINT ( 'NONE',  ( -0.06249999999999997918, 0.0000000000000000000, 0.3567958399615186460 ) ) ;
#19 = DIRECTION ( 'NONE',  ( 0.0000000000000000000, 0.0000000000000000000, -1.000000000000000000 ) ) ;
#20 = DIRECTION ( 'NONE',  ( 1.000000000000000000, 0.0000000000000000000, 0.0000000000000000000 ) ) ;
#21 = FACE_OUTER_BOUND ( 'NONE', #141, .T. ) ;
#22 = AXIS2_PLACEMENT_3D ( 'NONE', #109, #267, #110 ) ;
#23 = CIRCLE ( 'NONE', #78, 0.006993000000000001819 ) ;
#24 =( GEOMETRIC_REPRESENTATION_CONTEXT ( 3 ) GLOBAL_UNCERTAINTY_ASSIGNED_CONTEXT ( ( #142 ) ) GLOBAL_UNIT_ASSIGNED_CONTEXT ( ( #205, #136, #162 ) ) REPRESENTATION_CONTEXT ( 'NONE', 'WORKASPACE' ) );
#25 =( CONVERSION_BASED_UNIT ( 'INCH', #191 ) LENGTH_UNIT ( ) NAMED_UNIT ( #204 ) );
#26 = VERTEX_POINT ( 'NONE', #187 ) ;
#27 =( NAMED_UNIT ( * ) PLANE_ANGLE_UNIT ( ) SI_UNIT ( $, .RADIAN. ) );
#28 = CARTESIAN_POINT ( 'NONE',  ( 5.143516556418885177E-18, 0.0000000000000000000, 0.04200000000000000955 ) ) ;
#29 = SURFACE_STYLE_USAGE ( .BOTH. , #104 ) ;
#30 = DIRECTION ( 'NONE',  ( 0.1736481776669313581, 0.0000000000000000000, 0.9848077530122077983 ) ) ;
#31 = LINE ( 'NONE', #232, #137 ) ;
#32 = EDGE_CURVE ( 'NONE', #275, #290, #247, .T. ) ;
#33 = DIRECTION ( 'NONE',  ( -1.000000000000000000, 0.0000000000000000000, 0.0000000000000000000 ) ) ;
#34 = VECTOR ( 'NONE', #273, 39.37007874015748854 ) ;
#35 = AXIS2_PLACEMENT_3D ( 'NONE', #130, #250, #292 ) ;
#36 = CYLINDRICAL_SURFACE ( 'NONE', #22, 0.06250000000000002776 ) ;
#37 = DIRECTION ( 'NONE',  ( 1.000000000000000000, 0.0000000000000000000, -0.0000000000000000000 ) ) ;
#38 = EDGE_CURVE ( 'NONE', #246, #193, #63, .T. ) ;
#39 = DIRECTION ( 'NONE',  ( 0.0000000000000000000, 0.0000000000000000000, 1.000000000000000000 ) ) ;
#40 = CARTESIAN_POINT ( 'NONE',  ( -0.04750000000000064587, 0.0000000000000000000, 1.500000000000000222 ) ) ;
#41 = AXIS2_PLACEMENT_3D ( 'NONE', #134, #39, #156 ) ;
#42 = ORIENTED_EDGE ( 'NONE', *, *, #293, .T. ) ;
#43 = DIRECTION ( 'NONE',  ( -1.000000000000000000, 0.0000000000000000000, 1.224646799147353454E-16 ) ) ;
#44 = EDGE_CURVE ( 'NONE', #193, #290, #31, .T. ) ;
#45 = CARTESIAN_POINT ( 'NONE',  ( 0.0000000000000000000, 0.0000000000000000000, 0.0000000000000000000 ) ) ;
#46 = EDGE_LOOP ( 'NONE', ( #135, #287, #74, #84 ) ) ;
#47 = ADVANCED_FACE ( 'NONE', ( #21 ), #159, .T. ) ;
#48 = ORIENTED_EDGE ( 'NONE', *, *, #298, .F. ) ;
#49 = CIRCLE ( 'NONE', #237, 0.06250000000000002776 ) ;
#50 = EDGE_LOOP ( 'NONE', ( #208, #241, #103, #131 ) ) ;
#51 = SURFACE_SIDE_STYLE ('',( #4 ) ) ;
#52 = ORIENTED_EDGE ( 'NONE', *, *, #12, .T. ) ;
#53 = AXIS2_PLACEMENT_3D ( 'NONE', #14, #58, #37 ) ;
#54 = DIRECTION ( 'NONE',  ( 1.000000000000000000, 0.0000000000000000000, 0.0000000000000000000 ) ) ;
#55 = AXIS2_PLACEMENT_3D ( 'NONE', #297, #66, #64 ) ;
#56 = FACE_OUTER_BOUND ( 'NONE', #98, .T. ) ;
#57 = ORIENTED_EDGE ( 'NONE', *, *, #217, .F. ) ;
#58 = DIRECTION ( 'NONE',  ( 0.0000000000000000000, 0.0000000000000000000, 1.000000000000000000 ) ) ;
#59 = AXIS2_PLACEMENT_3D ( 'NONE', #221, #198, #182 ) ;
#60 = LINE ( 'NONE', #152, #196 ) ;
#61 = DIRECTION ( 'NONE',  ( -1.224646799147353454E-16, -0.0000000000000000000, -1.000000000000000000 ) ) ;
#62 = PLANE ( 'NONE',  #41 ) ;
#63 = LINE ( 'NONE', #40, #34 ) ;
#64 = DIRECTION ( 'NONE',  ( 1.000000000000000000, 0.0000000000000000000, 0.0000000000000000000 ) ) ;
#65 = AXIS2_PLACEMENT_3D ( 'NONE', #125, #61, #86 ) ;
#66 = DIRECTION ( 'NONE',  ( 0.0000000000000000000, 0.0000000000000000000, 1.000000000000000000 ) ) ;
#67 = CARTESIAN_POINT ( 'NONE',  ( 0.006993000000000000951, 8.563955066437441783E-19, -8.563955066437444671E-19 ) ) ;
#68 = CARTESIAN_POINT ( 'NONE',  ( 0.006992999999999998349, 8.563955066437440820E-19, 1.184750211852384294E-34 ) ) ;
#69 = PRESENTATION_LAYER_ASSIGNMENT (  '', '', ( #200 ) ) ;
#70 = PRODUCT_CONTEXT ( 'NONE', #236, 'mechanical' ) ;
#71 = STYLED_ITEM ( 'NONE', ( #249 ), #173 ) ;
#72 = EDGE_LOOP ( 'NONE', ( #48, #52, #286, #138 ) ) ;
#73 = PRESENTATION_STYLE_ASSIGNMENT (( #102 ) ) ;
#74 = ORIENTED_EDGE ( 'NONE', *, *, #279, .F. ) ;
#75 = CARTESIAN_POINT ( 'NONE',  ( 0.04750000000000064587, 6.735557395310483192E-18, 1.500000000000000222 ) ) ;
#76 = VERTEX_POINT ( 'NONE', #75 ) ;
#77 = DIRECTION ( 'NONE',  ( 0.7071067811865462405, 8.659560562354916834E-17, -0.7071067811865486830 ) ) ;
#78 = AXIS2_PLACEMENT_3D ( 'NONE', #28, #121, #215 ) ;
#79 = DIRECTION ( 'NONE',  ( 1.000000000000000000, 0.0000000000000000000, 0.0000000000000000000 ) ) ;
#80 = AXIS2_PLACEMENT_3D ( 'NONE', #229, #269, #92 ) ;
#81 = ADVANCED_FACE ( 'NONE', ( #56 ), #213, .F. ) ;
#82 =( NAMED_UNIT ( * ) SI_UNIT ( $, .STERADIAN. ) SOLID_ANGLE_UNIT ( ) );
#83 =( NAMED_UNIT ( * ) PLANE_ANGLE_UNIT ( ) SI_UNIT ( $, .RADIAN. ) );
#84 = ORIENTED_EDGE ( 'NONE', *, *, #85, .F. ) ;
#85 = EDGE_CURVE ( 'NONE', #123, #244, #147, .T. ) ;
#86 = DIRECTION ( 'NONE',  ( -1.000000000000000000, 0.0000000000000000000, 0.0000000000000000000 ) ) ;
#87 = MECHANICAL_DESIGN_GEOMETRIC_PRESENTATION_REPRESENTATION (  '', ( #71 ), #258 ) ;
#88 = LENGTH_MEASURE_WITH_UNIT ( LENGTH_MEASURE( 0.02539999999999999897 ), #294 );
#89 = CARTESIAN_POINT ( 'NONE',  ( 4.369488833579652901E-17, 0.0000000000000000000, 0.3567958399615186460 ) ) ;
#90 = ADVANCED_FACE ( 'NONE', ( #149 ), #211, .T. ) ;
#91 = COLOUR_RGB ( '',0.7921568627450980005, 0.8196078431372548767, 0.9333333333333333481 ) ;
#92 = DIRECTION ( 'NONE',  ( -1.000000000000000000, 0.0000000000000000000, 1.224646799147353454E-16 ) ) ;
#93 = ADVANCED_FACE ( 'NONE', ( #107 ), #151, .T. ) ;
#94 = VECTOR ( 'NONE', #30, 39.37007874015748143 ) ;
#95 = CONICAL_SURFACE ( 'NONE', #145, 0.04750000000000064587, 0.7853981633974466137 ) ;
#96 = UNCERTAINTY_MEASURE_WITH_UNIT (LENGTH_MEASURE( 1.000000000000000082E-05 ), #25, 'distance_accuracy_value', 'NONE');
#97 = PRODUCT_DEFINITION ( 'UNKNOWN', '', #212, #169 ) ;
#98 = EDGE_LOOP ( 'NONE', ( #276, #260 ) ) ;
#99 = DIRECTION ( 'NONE',  ( 1.000000000000000000, 0.0000000000000000000, 0.0000000000000000000 ) ) ;
#100 = PRODUCT ( 'Micro_RME-014-2', 'Micro_RME-014-2', '', ( #70 ) ) ;
#101 = EDGE_LOOP ( 'NONE', ( #257, #42, #266, #214 ) ) ;
#102 = SURFACE_STYLE_USAGE ( .BOTH. , #51 ) ;
#103 = ORIENTED_EDGE ( 'NONE', *, *, #38, .T. ) ;
#104 = SURFACE_SIDE_STYLE ('',( #197 ) ) ;
#105 = ORIENTED_EDGE ( 'NONE', *, *, #106, .T. ) ;
#106 = EDGE_CURVE ( 'NONE', #126, #275, #11, .T. ) ;
#107 = FACE_OUTER_BOUND ( 'NONE', #46, .T. ) ;
#108 = AXIS2_PLACEMENT_3D ( 'NONE', #89, #295, #20 ) ;
#109 = CARTESIAN_POINT ( 'NONE',  ( 0.0000000000000000000, 0.0000000000000000000, 1.500000000000000222 ) ) ;
#110 = DIRECTION ( 'NONE',  ( -1.000000000000000000, 0.0000000000000000000, 0.0000000000000000000 ) ) ;
#111 = DIRECTION ( 'NONE',  ( 1.000000000000000000, 0.0000000000000000000, 0.0000000000000000000 ) ) ;
#112 = LINE ( 'NONE', #67, #280 ) ;
#113 = LINE ( 'NONE', #203, #6 ) ;
#114 = ORIENTED_EDGE ( 'NONE', *, *, #44, .T. ) ;
#115 = DIRECTION ( 'NONE',  ( -0.0000000000000000000, -0.0000000000000000000, -1.000000000000000000 ) ) ;
#116 = CARTESIAN_POINT ( 'NONE',  ( 1.048782016015437310E-34, 0.0000000000000000000, 8.563955066437440820E-19 ) ) ;
#117 = EDGE_CURVE ( 'NONE', #123, #126, #195, .T. ) ;
#118 = CARTESIAN_POINT ( 'NONE',  ( 0.0000000000000000000, 0.0000000000000000000, 1.500000000000000222 ) ) ;
#119 = EDGE_LOOP ( 'NONE', ( #157, #281, #248, #263 ) ) ;
#120 =( NAMED_UNIT ( * ) SI_UNIT ( $, .STERADIAN. ) SOLID_ANGLE_UNIT ( ) );
#121 = DIRECTION ( 'NONE',  ( -1.224646799147353454E-16, -0.0000000000000000000, -1.000000000000000000 ) ) ;
#122 = DIRECTION ( 'NONE',  ( -1.224646799147353454E-16, -0.0000000000000000000, -1.000000000000000000 ) ) ;
#123 = VERTEX_POINT ( 'NONE', #176 ) ;
#124 = PRODUCT_RELATED_PRODUCT_CATEGORY ( 'part', '', ( #100 ) ) ;
#125 = CARTESIAN_POINT ( 'NONE',  ( 5.143516556418885177E-18, 0.0000000000000000000, 0.04200000000000000955 ) ) ;
#126 = VERTEX_POINT ( 'NONE', #153 ) ;
#127 = FILL_AREA_STYLE_COLOUR ( '', #91 ) ;
#128 = VECTOR ( 'NONE', #115, 39.37007874015748143 ) ;
#129 = FACE_OUTER_BOUND ( 'NONE', #50, .T. ) ;
#130 = CARTESIAN_POINT ( 'NONE',  ( 0.0000000000000000000, 0.0000000000000000000, 1.500000000000000222 ) ) ;
#131 = ORIENTED_EDGE ( 'NONE', *, *, #259, .F. ) ;
#132 = ORIENTED_EDGE ( 'NONE', *, *, #3, .T. ) ;
#133 = FACE_OUTER_BOUND ( 'NONE', #72, .T. ) ;
#134 = CARTESIAN_POINT ( 'NONE',  ( 0.0000000000000000000, 0.0000000000000000000, 1.500000000000000222 ) ) ;
#135 = ORIENTED_EDGE ( 'NONE', *, *, #117, .T. ) ;
#136 =( NAMED_UNIT ( * ) PLANE_ANGLE_UNIT ( ) SI_UNIT ( $, .RADIAN. ) );
#137 = VECTOR ( 'NONE', #181, 39.37007874015748143 ) ;
#138 = ORIENTED_EDGE ( 'NONE', *, *, #222, .F. ) ;
#139 = AXIS2_PLACEMENT_3D ( 'NONE', #45, #235, #140 ) ;
#140 = DIRECTION ( 'NONE',  ( 1.000000000000000000, 0.0000000000000000000, 0.0000000000000000000 ) ) ;
#141 = EDGE_LOOP ( 'NONE', ( #170, #186, #105, #283 ) ) ;
#142 = UNCERTAINTY_MEASURE_WITH_UNIT (LENGTH_MEASURE( 1.000000000000000082E-05 ), #205, 'distance_accuracy_value', 'NONE');
#143 = EDGE_CURVE ( 'NONE', #290, #275, #262, .T. ) ;
#144 = AXIS2_PLACEMENT_3D ( 'NONE', #118, #210, #99 ) ;
#145 = AXIS2_PLACEMENT_3D ( 'NONE', #218, #268, #33 ) ;
#146 = DIRECTION ( 'NONE',  ( -1.224646799147353454E-16, -0.0000000000000000000, -1.000000000000000000 ) ) ;
#147 = LINE ( 'NONE', #265, #289 ) ;
#148 = ORIENTED_EDGE ( 'NONE', *, *, #38, .F. ) ;
#149 = FACE_OUTER_BOUND ( 'NONE', #101, .T. ) ;
#150 = ADVANCED_FACE ( 'NONE', ( #245 ), #95, .T. ) ;
#151 = CYLINDRICAL_SURFACE ( 'NONE', #224, 0.006993000000000000951 ) ;
#152 = CARTESIAN_POINT ( 'NONE',  ( 0.04750000000000064587, 5.817072295950006528E-18, 1.500000000000000222 ) ) ;
#153 = CARTESIAN_POINT ( 'NONE',  ( 0.006993000000000007023, 0.0000000000000000000, 0.04200000000000000955 ) ) ;
#154 = ORIENTED_EDGE ( 'NONE', *, *, #282, .T. ) ;
#155 = DIMENSIONAL_EXPONENTS ( 1.000000000000000000, 0.0000000000000000000, 0.0000000000000000000, 0.0000000000000000000, 0.0000000000000000000, 0.0000000000000000000, 0.0000000000000000000 ) ;
#156 = DIRECTION ( 'NONE',  ( 1.000000000000000000, 0.0000000000000000000, -0.0000000000000000000 ) ) ;
#157 = ORIENTED_EDGE ( 'NONE', *, *, #217, .T. ) ;
#158 = CARTESIAN_POINT ( 'NONE',  ( -0.006992999999999998349, 0.0000000000000000000, 1.712791013287488164E-18 ) ) ;
#159 = CONICAL_SURFACE ( 'NONE', #251, 0.006993000000000001819, 0.1745329251994338637 ) ;
#160 = CONICAL_SURFACE ( 'NONE', #59, 0.04750000000000064587, 0.7853981633974466137 ) ;
#161 = CLOSED_SHELL ( 'NONE', ( #93, #90, #150, #288, #180, #242, #190, #47, #234, #81 ) ) ;
#162 =( NAMED_UNIT ( * ) SI_UNIT ( $, .STERADIAN. ) SOLID_ANGLE_UNIT ( ) );
#163 = CARTESIAN_POINT ( 'NONE',  ( 5.143516556418885177E-18, 0.0000000000000000000, 0.04200000000000000955 ) ) ;
#164 = EDGE_LOOP ( 'NONE', ( #5, #132, #57, #148 ) ) ;
#165 = DIRECTION ( 'NONE',  ( -1.224646799147353454E-16, -0.0000000000000000000, -1.000000000000000000 ) ) ;
#166 = AXIS2_PLACEMENT_3D ( 'NONE', #8, #174, #9 ) ;
#167 = SHAPE_DEFINITION_REPRESENTATION ( #278, #202 ) ;
#168 = CIRCLE ( 'NONE', #55, 0.04750000000000064587 ) ;
#169 = PRODUCT_DEFINITION_CONTEXT ( 'detailed design', #272, 'design' ) ;
#170 = ORIENTED_EDGE ( 'NONE', *, *, #293, .F. ) ;
#171 = EDGE_LOOP ( 'NONE', ( #227, #178, #114, #13 ) ) ;
#172 = LENGTH_MEASURE_WITH_UNIT ( LENGTH_MEASURE( 0.02539999999999999897 ), #194 );
#173 = MANIFOLD_SOLID_BREP ( 'Cut-Revolve1', #161 ) ;
#174 = DIRECTION ( 'NONE',  ( 1.224646799147353454E-16, 0.0000000000000000000, 1.000000000000000000 ) ) ;
#175 = FACE_OUTER_BOUND ( 'NONE', #171, .T. ) ;
#176 = CARTESIAN_POINT ( 'NONE',  ( -0.006992999999999996615, 4.255219000657352499E-18, 0.04200000000000000955 ) ) ;
#177 = PRESENTATION_LAYER_ASSIGNMENT (  '', '', ( #71 ) ) ;
#178 = ORIENTED_EDGE ( 'NONE', *, *, #259, .T. ) ;
#179 = DIRECTION ( 'NONE',  ( -1.000000000000000000, 0.0000000000000000000, 1.224646799147353454E-16 ) ) ;
#180 = ADVANCED_FACE ( 'NONE', ( #175 ), #36, .T. ) ;
#181 = DIRECTION ( 'NONE',  ( -0.0000000000000000000, -0.0000000000000000000, -1.000000000000000000 ) ) ;
#182 = DIRECTION ( 'NONE',  ( -1.000000000000000000, 0.0000000000000000000, 0.0000000000000000000 ) ) ;
#183 = MECHANICAL_DESIGN_GEOMETRIC_PRESENTATION_REPRESENTATION (  '', ( #200 ), #225 ) ;
#184 = DIRECTION ( 'NONE',  ( -1.224646799147353454E-16, -0.0000000000000000000, -1.000000000000000000 ) ) ;
#185 = CARTESIAN_POINT ( 'NONE',  ( -0.06250000000000002776, 0.0000000000000000000, 1.485000000000000764 ) ) ;
#186 = ORIENTED_EDGE ( 'NONE', *, *, #12, .F. ) ;
#187 = CARTESIAN_POINT ( 'NONE',  ( 0.06250000000000002776, 7.654042494670959086E-18, 1.485000000000000764 ) ) ;
#188 = FILL_AREA_STYLE_COLOUR ( '', #252 ) ;
#189 = AXIS2_PLACEMENT_3D ( 'NONE', #291, #270, #15 ) ;
#190 = ADVANCED_FACE ( 'NONE', ( #129 ), #160, .T. ) ;
#191 = LENGTH_MEASURE_WITH_UNIT ( LENGTH_MEASURE( 0.02539999999999999897 ), #192 );
#192 =( LENGTH_UNIT ( ) NAMED_UNIT ( * ) SI_UNIT ( $, .METRE. ) );
#193 = VERTEX_POINT ( 'NONE', #185 ) ;
#194 =( LENGTH_UNIT ( ) NAMED_UNIT ( * ) SI_UNIT ( $, .METRE. ) );
#195 = CIRCLE ( 'NONE', #65, 0.006993000000000001819 ) ;
#196 = VECTOR ( 'NONE', #77, 39.37007874015748854 ) ;
#197 = SURFACE_STYLE_FILL_AREA ( #240 ) ;
#198 = DIRECTION ( 'NONE',  ( 0.0000000000000000000, 0.0000000000000000000, -1.000000000000000000 ) ) ;
#199 = DIMENSIONAL_EXPONENTS ( 1.000000000000000000, 0.0000000000000000000, 0.0000000000000000000, 0.0000000000000000000, 0.0000000000000000000, 0.0000000000000000000, 0.0000000000000000000 ) ;
#200 = STYLED_ITEM ( 'NONE', ( #73 ), #202 ) ;
#201 = DIRECTION ( 'NONE',  ( -1.224646799147353454E-16, -0.0000000000000000000, -1.000000000000000000 ) ) ;
#202 = ADVANCED_BREP_SHAPE_REPRESENTATION ( 'Micro_RME-014-2', ( #173, #139 ), #24 ) ;
#203 = CARTESIAN_POINT ( 'NONE',  ( -0.006992999999999996615, 8.563955066437442745E-19, 0.04200000000000000955 ) ) ;
#204 = DIMENSIONAL_EXPONENTS ( 1.000000000000000000, 0.0000000000000000000, 0.0000000000000000000, 0.0000000000000000000, 0.0000000000000000000, 0.0000000000000000000, 0.0000000000000000000 ) ;
#205 =( CONVERSION_BASED_UNIT ( 'INCH', #88 ) LENGTH_UNIT ( ) NAMED_UNIT ( #155 ) );
#206 = CARTESIAN_POINT ( 'NONE',  ( 0.06250000000000006939, 7.654042494670963708E-18, 0.3567958399615186460 ) ) ;
#207 = EDGE_CURVE ( 'NONE', #26, #275, #274, .T. ) ;
#208 = ORIENTED_EDGE ( 'NONE', *, *, #3, .F. ) ;
#209 = APPLICATION_PROTOCOL_DEFINITION ( 'draft international standard', 'automotive_design', 1998, #272 ) ;
#210 = DIRECTION ( 'NONE',  ( 0.0000000000000000000, 0.0000000000000000000, 1.000000000000000000 ) ) ;
#211 = CONICAL_SURFACE ( 'NONE', #166, 0.006993000000000001819, 0.1745329251994338637 ) ;
#212 = PRODUCT_DEFINITION_FORMATION_WITH_SPECIFIED_SOURCE ( 'ANY', '', #100, .NOT_KNOWN. ) ;
#213 = PLANE ( 'NONE',  #53 ) ;
#214 = ORIENTED_EDGE ( 'NONE', *, *, #106, .F. ) ;
#215 = DIRECTION ( 'NONE',  ( -1.000000000000000000, 0.0000000000000000000, 0.0000000000000000000 ) ) ;
#216 = CARTESIAN_POINT ( 'NONE',  ( 4.369488833579652901E-17, 0.0000000000000000000, 0.3567958399615186460 ) ) ;
#217 = EDGE_CURVE ( 'NONE', #193, #26, #264, .T. ) ;
#218 = CARTESIAN_POINT ( 'NONE',  ( 0.0000000000000000000, 0.0000000000000000000, 1.500000000000000222 ) ) ;
#219 = CARTESIAN_POINT ( 'NONE',  ( 0.0000000000000000000, 0.0000000000000000000, 0.0000000000000000000 ) ) ;
#220 = EDGE_LOOP ( 'NONE', ( #154, #233 ) ) ;
#221 = CARTESIAN_POINT ( 'NONE',  ( 0.0000000000000000000, 0.0000000000000000000, 1.500000000000000222 ) ) ;
#222 = EDGE_CURVE ( 'NONE', #239, #244, #256, .T. ) ;
#223 = CYLINDRICAL_SURFACE ( 'NONE', #35, 0.06250000000000002776 ) ;
#224 = AXIS2_PLACEMENT_3D ( 'NONE', #219, #122, #7 ) ;
#225 =( GEOMETRIC_REPRESENTATION_CONTEXT ( 3 ) GLOBAL_UNCERTAINTY_ASSIGNED_CONTEXT ( ( #96 ) ) GLOBAL_UNIT_ASSIGNED_CONTEXT ( ( #25, #27, #120 ) ) REPRESENTATION_CONTEXT ( 'NONE', 'WORKASPACE' ) );
#226 = CARTESIAN_POINT ( 'NONE',  ( -0.04750000000000064587, 0.0000000000000000000, 1.500000000000000222 ) ) ;
#227 = ORIENTED_EDGE ( 'NONE', *, *, #207, .F. ) ;
#228 = CYLINDRICAL_SURFACE ( 'NONE', #80, 0.006993000000000000951 ) ;
#229 = CARTESIAN_POINT ( 'NONE',  ( 0.0000000000000000000, 0.0000000000000000000, 0.0000000000000000000 ) ) ;
#230 = CARTESIAN_POINT ( 'NONE',  ( 0.06250000000000002776, 7.654042494670959086E-18, 1.500000000000000222 ) ) ;
#231 = AXIS2_PLACEMENT_3D ( 'NONE', #255, #184, #43 ) ;
#232 = CARTESIAN_POINT ( 'NONE',  ( -0.06250000000000002776, 0.0000000000000000000, 1.500000000000000222 ) ) ;
#233 = ORIENTED_EDGE ( 'NONE', *, *, #17, .T. ) ;
#234 = ADVANCED_FACE ( 'NONE', ( #133 ), #228, .T. ) ;
#235 = DIRECTION ( 'NONE',  ( 0.0000000000000000000, 0.0000000000000000000, 1.000000000000000000 ) ) ;
#236 = APPLICATION_CONTEXT ( 'automotive_design' ) ;
#237 = AXIS2_PLACEMENT_3D ( 'NONE', #299, #19, #111 ) ;
#238 = FILL_AREA_STYLE ('',( #188 ) ) ;
#239 = VERTEX_POINT ( 'NONE', #68 ) ;
#240 = FILL_AREA_STYLE ('',( #127 ) ) ;
#241 = ORIENTED_EDGE ( 'NONE', *, *, #282, .F. ) ;
#242 = ADVANCED_FACE ( 'NONE', ( #254 ), #62, .T. ) ;
#243 = CARTESIAN_POINT ( 'NONE',  ( 0.006993000000000007023, 0.0000000000000000000, 0.04200000000000000955 ) ) ;
#244 = VERTEX_POINT ( 'NONE', #158 ) ;
#245 = FACE_OUTER_BOUND ( 'NONE', #164, .T. ) ;
#246 = VERTEX_POINT ( 'NONE', #226 ) ;
#247 = CIRCLE ( 'NONE', #108, 0.06250000000000002776 ) ;
#248 = ORIENTED_EDGE ( 'NONE', *, *, #143, .F. ) ;
#249 = PRESENTATION_STYLE_ASSIGNMENT (( #29 ) ) ;
#250 = DIRECTION ( 'NONE',  ( -0.0000000000000000000, -0.0000000000000000000, -1.000000000000000000 ) ) ;
#251 = AXIS2_PLACEMENT_3D ( 'NONE', #163, #10, #54 ) ;
#252 = COLOUR_RGB ( '',0.7921568627450980005, 0.8196078431372548767, 0.9333333333333333481 ) ;
#253 = FACE_OUTER_BOUND ( 'NONE', #119, .T. ) ;
#254 = FACE_OUTER_BOUND ( 'NONE', #220, .T. ) ;
#255 = CARTESIAN_POINT ( 'NONE',  ( 1.048782016015437310E-34, 0.0000000000000000000, 8.563955066437440820E-19 ) ) ;
#256 = CIRCLE ( 'NONE', #296, 0.006992999999999998349 ) ;
#257 = ORIENTED_EDGE ( 'NONE', *, *, #117, .F. ) ;
#258 =( GEOMETRIC_REPRESENTATION_CONTEXT ( 3 ) GLOBAL_UNCERTAINTY_ASSIGNED_CONTEXT ( ( #277 ) ) GLOBAL_UNIT_ASSIGNED_CONTEXT ( ( #284, #83, #82 ) ) REPRESENTATION_CONTEXT ( 'NONE', 'WORKASPACE' ) );
#259 = EDGE_CURVE ( 'NONE', #26, #193, #49, .T. ) ;
#260 = ORIENTED_EDGE ( 'NONE', *, *, #222, .T. ) ;
#261 = DIRECTION ( 'NONE',  ( -1.224646799147353454E-16, -0.0000000000000000000, -1.000000000000000000 ) ) ;
#262 = CIRCLE ( 'NONE', #1, 0.06250000000000002776 ) ;
#263 = ORIENTED_EDGE ( 'NONE', *, *, #44, .F. ) ;
#264 = CIRCLE ( 'NONE', #189, 0.06250000000000002776 ) ;
#265 = CARTESIAN_POINT ( 'NONE',  ( -0.006993000000000000951, 0.0000000000000000000, 8.563955066437444671E-19 ) ) ;
#266 = ORIENTED_EDGE ( 'NONE', *, *, #143, .T. ) ;
#267 = DIRECTION ( 'NONE',  ( -0.0000000000000000000, -0.0000000000000000000, -1.000000000000000000 ) ) ;
#268 = DIRECTION ( 'NONE',  ( 0.0000000000000000000, 0.0000000000000000000, -1.000000000000000000 ) ) ;
#269 = DIRECTION ( 'NONE',  ( -1.224646799147353454E-16, -0.0000000000000000000, -1.000000000000000000 ) ) ;
#270 = DIRECTION ( 'NONE',  ( 0.0000000000000000000, 0.0000000000000000000, -1.000000000000000000 ) ) ;
#271 = DIRECTION ( 'NONE',  ( -0.1736481776669311639, 2.126576849575783008E-17, 0.9848077530122080203 ) ) ;
#272 = APPLICATION_CONTEXT ( 'automotive_design' ) ;
#273 = DIRECTION ( 'NONE',  ( -0.7071067811865462405, 0.0000000000000000000, -0.7071067811865486830 ) ) ;
#274 = LINE ( 'NONE', #230, #128 ) ;
#275 = VERTEX_POINT ( 'NONE', #206 ) ;
#276 = ORIENTED_EDGE ( 'NONE', *, *, #279, .T. ) ;
#277 = UNCERTAINTY_MEASURE_WITH_UNIT (LENGTH_MEASURE( 1.000000000000000082E-05 ), #284, 'distance_accuracy_value', 'NONE');
#278 = PRODUCT_DEFINITION_SHAPE ( 'NONE', 'NONE',  #97 ) ;
#279 = EDGE_CURVE ( 'NONE', #244, #239, #16, .T. ) ;
#280 = VECTOR ( 'NONE', #201, 39.37007874015748143 ) ;
#281 = ORIENTED_EDGE ( 'NONE', *, *, #207, .T. ) ;
#282 = EDGE_CURVE ( 'NONE', #246, #76, #168, .T. ) ;
#283 = ORIENTED_EDGE ( 'NONE', *, *, #32, .T. ) ;
#284 =( CONVERSION_BASED_UNIT ( 'INCH', #172 ) LENGTH_UNIT ( ) NAMED_UNIT ( #199 ) );
#285 = CIRCLE ( 'NONE', #144, 0.04750000000000064587 ) ;
#286 = ORIENTED_EDGE ( 'NONE', *, *, #85, .T. ) ;
#287 = ORIENTED_EDGE ( 'NONE', *, *, #298, .T. ) ;
#288 = ADVANCED_FACE ( 'NONE', ( #253 ), #223, .T. ) ;
#289 = VECTOR ( 'NONE', #146, 39.37007874015748143 ) ;
#290 = VERTEX_POINT ( 'NONE', #18 ) ;
#291 = CARTESIAN_POINT ( 'NONE',  ( 0.0000000000000000000, 0.0000000000000000000, 1.485000000000000764 ) ) ;
#292 = DIRECTION ( 'NONE',  ( -1.000000000000000000, 0.0000000000000000000, 0.0000000000000000000 ) ) ;
#293 = EDGE_CURVE ( 'NONE', #123, #290, #113, .T. ) ;
#294 =( LENGTH_UNIT ( ) NAMED_UNIT ( * ) SI_UNIT ( $, .METRE. ) );
#295 = DIRECTION ( 'NONE',  ( -1.224646799147353454E-16, -0.0000000000000000000, -1.000000000000000000 ) ) ;
#296 = AXIS2_PLACEMENT_3D ( 'NONE', #116, #165, #179 ) ;
#297 = CARTESIAN_POINT ( 'NONE',  ( 0.0000000000000000000, 0.0000000000000000000, 1.500000000000000222 ) ) ;
#298 = EDGE_CURVE ( 'NONE', #126, #239, #112, .T. ) ;
#299 = CARTESIAN_POINT ( 'NONE',  ( 0.0000000000000000000, 0.0000000000000000000, 1.485000000000000764 ) ) ;
ENDSEC;
END-ISO-10303-21;
