ISO-10303-21;
HEADER;
FILE_DESCRIPTION (( 'STEP AP214' ),
    '1' );
FILE_NAME ('Micro_GELM-060-3.STEP',
    '2021-09-01T18:24:34',
    ( '' ),
    ( '' ),
    'SwSTEP 2.0',
    'SolidWorks 2020',
    '' );
FILE_SCHEMA (( 'AUTOMOTIVE_DESIGN' ));
ENDSEC;

DATA;
#1 = EDGE_CURVE ( 'NONE', #117, #10, #289, .T. ) ;
#2 = CIRCLE ( 'NONE', #7, 0.1179918899999999882 ) ;
#3 = MECHANICAL_DESIGN_GEOMETRIC_PRESENTATION_REPRESENTATION (  '', ( #103 ), #167 ) ;
#4 = ORIENTED_EDGE ( 'NONE', *, *, #114, .F. ) ;
#5 = EDGE_LOOP ( 'NONE', ( #73, #291 ) ) ;
#6 =( LENGTH_UNIT ( ) NAMED_UNIT ( * ) SI_UNIT ( $, .METRE. ) );
#7 = AXIS2_PLACEMENT_3D ( 'NONE', #45, #138, #178 ) ;
#8 = EDGE_LOOP ( 'NONE', ( #210, #56, #119, #34 ) ) ;
#9 = SURFACE_STYLE_FILL_AREA ( #74 ) ;
#10 = VERTEX_POINT ( 'NONE', #39 ) ;
#11 = ORIENTED_EDGE ( 'NONE', *, *, #25, .T. ) ;
#12 = DIRECTION ( 'NONE',  ( 1.000000000000000000, 0.0000000000000000000, 0.0000000000000000000 ) ) ;
#13 = DIRECTION ( 'NONE',  ( -0.7071067811865486830, 0.0000000000000000000, -0.7071067811865462405 ) ) ;
#14 = ORIENTED_EDGE ( 'NONE', *, *, #16, .F. ) ;
#15 =( NAMED_UNIT ( * ) SI_UNIT ( $, .STERADIAN. ) SOLID_ANGLE_UNIT ( ) );
#16 = EDGE_CURVE ( 'NONE', #75, #148, #198, .T. ) ;
#17 = DIRECTION ( 'NONE',  ( -1.000000000000000000, 0.0000000000000000000, 1.224646799147353454E-16 ) ) ;
#18 = VECTOR ( 'NONE', #248, 39.37007874015748854 ) ;
#19 = PRESENTATION_STYLE_ASSIGNMENT (( #151 ) ) ;
#20 = CARTESIAN_POINT ( 'NONE',  ( 0.0000000000000000000, 0.0000000000000000000, 0.0000000000000000000 ) ) ;
#21 = CARTESIAN_POINT ( 'NONE',  ( 0.0000000000000000000, 0.0000000000000000000, 2.952755999999999936 ) ) ;
#22 = MECHANICAL_DESIGN_GEOMETRIC_PRESENTATION_REPRESENTATION (  '', ( #137 ), #237 ) ;
#23 = CARTESIAN_POINT ( 'NONE',  ( 0.0000000000000000000, 0.0000000000000000000, 2.937755999999999368 ) ) ;
#24 = DIRECTION ( 'NONE',  ( -1.224646799147353207E-16, -0.0000000000000000000, -1.000000000000000000 ) ) ;
#25 = EDGE_CURVE ( 'NONE', #128, #189, #263, .T. ) ;
#26 = DIRECTION ( 'NONE',  ( 0.0000000000000000000, 0.0000000000000000000, -1.000000000000000000 ) ) ;
#27 = ORIENTED_EDGE ( 'NONE', *, *, #203, .F. ) ;
#28 = AXIS2_PLACEMENT_3D ( 'NONE', #277, #112, #70 ) ;
#29 = CARTESIAN_POINT ( 'NONE',  ( 1.205361061354380629E-16, 0.0000000000000000000, 0.9842519999999999047 ) ) ;
#30 = ORIENTED_EDGE ( 'NONE', *, *, #173, .F. ) ;
#31 = EDGE_LOOP ( 'NONE', ( #97, #11, #27, #165 ) ) ;
#32 = ORIENTED_EDGE ( 'NONE', *, *, #295, .F. ) ;
#33 = AXIS2_PLACEMENT_3D ( 'NONE', #116, #51, #204 ) ;
#34 = ORIENTED_EDGE ( 'NONE', *, *, #249, .F. ) ;
#35 = DIRECTION ( 'NONE',  ( 0.0000000000000000000, 0.0000000000000000000, 1.000000000000000000 ) ) ;
#36 = EDGE_CURVE ( 'NONE', #95, #57, #101, .T. ) ;
#37 = EDGE_LOOP ( 'NONE', ( #82, #104, #234, #4 ) ) ;
#38 = PLANE ( 'NONE',  #47 ) ;
#39 = CARTESIAN_POINT ( 'NONE',  ( 0.1181100000000001454, 1.446430334472940625E-17, 0.9849218350957150703 ) ) ;
#40 = CARTESIAN_POINT ( 'NONE',  ( 0.0000000000000000000, 0.0000000000000000000, 0.0000000000000000000 ) ) ;
#41 = MANIFOLD_SOLID_BREP ( 'Cut-Revolve1', #61 ) ;
#42 = AXIS2_PLACEMENT_3D ( 'NONE', #54, #181, #139 ) ;
#43 = CARTESIAN_POINT ( 'NONE',  ( -0.1179918899999998771, 1.444983904138465938E-17, 0.9842519999999999047 ) ) ;
#44 = ADVANCED_FACE ( 'NONE', ( #105 ), #240, .T. ) ;
#45 = CARTESIAN_POINT ( 'NONE',  ( 1.769594913022618037E-33, 0.0000000000000000000, 1.444983904138465938E-17 ) ) ;
#46 = DIMENSIONAL_EXPONENTS ( 1.000000000000000000, 0.0000000000000000000, 0.0000000000000000000, 0.0000000000000000000, 0.0000000000000000000, 0.0000000000000000000, 0.0000000000000000000 ) ;
#47 = AXIS2_PLACEMENT_3D ( 'NONE', #40, #129, #176 ) ;
#48 = FACE_OUTER_BOUND ( 'NONE', #212, .T. ) ;
#49 = PRODUCT_RELATED_PRODUCT_CATEGORY ( 'part', '', ( #81 ) ) ;
#50 = DIRECTION ( 'NONE',  ( 1.000000000000000000, 0.0000000000000000000, -0.0000000000000000000 ) ) ;
#51 = DIRECTION ( 'NONE',  ( -1.224646799147353207E-16, -0.0000000000000000000, -1.000000000000000000 ) ) ;
#52 = ORIENTED_EDGE ( 'NONE', *, *, #65, .T. ) ;
#53 = AXIS2_PLACEMENT_3D ( 'NONE', #80, #134, #196 ) ;
#54 = CARTESIAN_POINT ( 'NONE',  ( 0.0000000000000000000, 0.0000000000000000000, 2.952755999999999936 ) ) ;
#55 = SURFACE_STYLE_USAGE ( .BOTH. , #122 ) ;
#56 = ORIENTED_EDGE ( 'NONE', *, *, #168, .T. ) ;
#57 = VERTEX_POINT ( 'NONE', #250 ) ;
#58 = CARTESIAN_POINT ( 'NONE',  ( 1.205361061354380629E-16, 0.0000000000000000000, 0.9842519999999999047 ) ) ;
#59 = ORIENTED_EDGE ( 'NONE', *, *, #16, .T. ) ;
#60 = CARTESIAN_POINT ( 'NONE',  ( -0.1181100000000000066, 0.0000000000000000000, 2.952755999999999936 ) ) ;
#61 = CLOSED_SHELL ( 'NONE', ( #221, #67, #232, #280, #180, #177, #245, #288, #44, #127 ) ) ;
#62 = LINE ( 'NONE', #84, #253 ) ;
#63 =( CONVERSION_BASED_UNIT ( 'INCH', #271 ) LENGTH_UNIT ( ) NAMED_UNIT ( #135 ) );
#64 = CARTESIAN_POINT ( 'NONE',  ( 0.0000000000000000000, 0.0000000000000000000, 0.0000000000000000000 ) ) ;
#65 = EDGE_CURVE ( 'NONE', #95, #188, #193, .T. ) ;
#66 = LENGTH_MEASURE_WITH_UNIT ( LENGTH_MEASURE( 0.02539999999999999897 ), #256 );
#67 = ADVANCED_FACE ( 'NONE', ( #171 ), #102, .T. ) ;
#68 = DIRECTION ( 'NONE',  ( 0.0000000000000000000, 0.0000000000000000000, -1.000000000000000000 ) ) ;
#69 = PRESENTATION_LAYER_ASSIGNMENT (  '', '', ( #137 ) ) ;
#70 = DIRECTION ( 'NONE',  ( 1.000000000000000000, 0.0000000000000000000, 0.0000000000000000000 ) ) ;
#71 = DIRECTION ( 'NONE',  ( -1.000000000000000000, 0.0000000000000000000, 1.224646799147353454E-16 ) ) ;
#72 = DIRECTION ( 'NONE',  ( -0.0000000000000000000, -0.0000000000000000000, -1.000000000000000000 ) ) ;
#73 = ORIENTED_EDGE ( 'NONE', *, *, #203, .T. ) ;
#74 = FILL_AREA_STYLE ('',( #99 ) ) ;
#75 = VERTEX_POINT ( 'NONE', #130 ) ;
#76 = EDGE_CURVE ( 'NONE', #188, #10, #272, .T. ) ;
#77 = CIRCLE ( 'NONE', #28, 0.1181100000000000066 ) ;
#78 = CONICAL_SURFACE ( 'NONE', #120, 0.1031099999999991607, 0.7853981633974500554 ) ;
#79 = CARTESIAN_POINT ( 'NONE',  ( -0.1179918899999999882, 0.0000000000000000000, 1.444983904138465938E-17 ) ) ;
#80 = CARTESIAN_POINT ( 'NONE',  ( 1.205361061354380629E-16, 0.0000000000000000000, 0.9842519999999999047 ) ) ;
#81 = PRODUCT ( 'Micro_GELM-060-3', 'Micro_GELM-060-3', '', ( #199 ) ) ;
#82 = ORIENTED_EDGE ( 'NONE', *, *, #295, .T. ) ;
#83 = DIRECTION ( 'NONE',  ( -1.224646799147353207E-16, -0.0000000000000000000, -1.000000000000000000 ) ) ;
#84 = CARTESIAN_POINT ( 'NONE',  ( -0.1031099999999991607, 0.0000000000000000000, 2.952755999999999936 ) ) ;
#85 = VECTOR ( 'NONE', #242, 39.37007874015748143 ) ;
#86 = DIRECTION ( 'NONE',  ( -1.224646799147353207E-16, -0.0000000000000000000, -1.000000000000000000 ) ) ;
#87 = DIMENSIONAL_EXPONENTS ( 1.000000000000000000, 0.0000000000000000000, 0.0000000000000000000, 0.0000000000000000000, 0.0000000000000000000, 0.0000000000000000000, 0.0000000000000000000 ) ;
#88 = FACE_OUTER_BOUND ( 'NONE', #285, .T. ) ;
#89 = FACE_OUTER_BOUND ( 'NONE', #216, .T. ) ;
#90 = DIRECTION ( 'NONE',  ( 1.000000000000000000, 0.0000000000000000000, 0.0000000000000000000 ) ) ;
#91 = AXIS2_PLACEMENT_3D ( 'NONE', #281, #227, #50 ) ;
#92 = ORIENTED_EDGE ( 'NONE', *, *, #76, .T. ) ;
#93 = DIRECTION ( 'NONE',  ( 1.224646799147353207E-16, 0.0000000000000000000, 1.000000000000000000 ) ) ;
#94 = EDGE_CURVE ( 'NONE', #75, #194, #62, .T. ) ;
#95 = VERTEX_POINT ( 'NONE', #197 ) ;
#96 = PRESENTATION_STYLE_ASSIGNMENT (( #55 ) ) ;
#97 = ORIENTED_EDGE ( 'NONE', *, *, #173, .T. ) ;
#98 = AXIS2_PLACEMENT_3D ( 'NONE', #264, #86, #126 ) ;
#99 = FILL_AREA_STYLE_COLOUR ( '', #276 ) ;
#100 = ORIENTED_EDGE ( 'NONE', *, *, #1, .F. ) ;
#101 = LINE ( 'NONE', #79, #147 ) ;
#102 = CONICAL_SURFACE ( 'NONE', #53, 0.1179918899999999882, 0.1745329251994339192 ) ;
#103 = STYLED_ITEM ( 'NONE', ( #96 ), #226 ) ;
#104 = ORIENTED_EDGE ( 'NONE', *, *, #1, .T. ) ;
#105 = FACE_OUTER_BOUND ( 'NONE', #8, .T. ) ;
#106 = ORIENTED_EDGE ( 'NONE', *, *, #154, .F. ) ;
#107 =( NAMED_UNIT ( * ) PLANE_ANGLE_UNIT ( ) SI_UNIT ( $, .RADIAN. ) );
#108 = DIRECTION ( 'NONE',  ( -0.1736481776669312194, 2.126576849575783625E-17, 0.9848077530122080203 ) ) ;
#109 = CARTESIAN_POINT ( 'NONE',  ( 1.206181372760304730E-16, 0.0000000000000000000, 0.9849218350957150703 ) ) ;
#110 = DIRECTION ( 'NONE',  ( 1.000000000000000000, 0.0000000000000000000, 0.0000000000000000000 ) ) ;
#111 = CARTESIAN_POINT ( 'NONE',  ( 0.0000000000000000000, 0.0000000000000000000, 2.952755999999999936 ) ) ;
#112 = DIRECTION ( 'NONE',  ( 0.0000000000000000000, 0.0000000000000000000, -1.000000000000000000 ) ) ;
#113 = ORIENTED_EDGE ( 'NONE', *, *, #114, .T. ) ;
#114 = EDGE_CURVE ( 'NONE', #194, #188, #172, .T. ) ;
#115 = PRODUCT_DEFINITION_CONTEXT ( 'detailed design', #287, 'design' ) ;
#116 = CARTESIAN_POINT ( 'NONE',  ( 1.769594913022618037E-33, 0.0000000000000000000, 1.444983904138465938E-17 ) ) ;
#117 = VERTEX_POINT ( 'NONE', #269 ) ;
#118 = ORIENTED_EDGE ( 'NONE', *, *, #225, .F. ) ;
#119 = ORIENTED_EDGE ( 'NONE', *, *, #36, .T. ) ;
#120 = AXIS2_PLACEMENT_3D ( 'NONE', #111, #26, #299 ) ;
#121 = AXIS2_PLACEMENT_3D ( 'NONE', #20, #267, #155 ) ;
#122 = SURFACE_SIDE_STYLE ('',( #9 ) ) ;
#123 = ORIENTED_EDGE ( 'NONE', *, *, #149, .F. ) ;
#124 = ORIENTED_EDGE ( 'NONE', *, *, #154, .T. ) ;
#125 = ORIENTED_EDGE ( 'NONE', *, *, #187, .F. ) ;
#126 = DIRECTION ( 'NONE',  ( -1.000000000000000000, 0.0000000000000000000, 0.0000000000000000000 ) ) ;
#127 = ADVANCED_FACE ( 'NONE', ( #220 ), #38, .F. ) ;
#128 = VERTEX_POINT ( 'NONE', #175 ) ;
#129 = DIRECTION ( 'NONE',  ( 0.0000000000000000000, 0.0000000000000000000, 1.000000000000000000 ) ) ;
#130 = CARTESIAN_POINT ( 'NONE',  ( -0.1031099999999991607, 0.0000000000000000000, 2.952755999999999936 ) ) ;
#131 = SURFACE_STYLE_FILL_AREA ( #156 ) ;
#132 = CIRCLE ( 'NONE', #141, 0.1181100000000000066 ) ;
#133 = APPLICATION_CONTEXT ( 'automotive_design' ) ;
#134 = DIRECTION ( 'NONE',  ( 1.224646799147353207E-16, 0.0000000000000000000, 1.000000000000000000 ) ) ;
#135 = DIMENSIONAL_EXPONENTS ( 1.000000000000000000, 0.0000000000000000000, 0.0000000000000000000, 0.0000000000000000000, 0.0000000000000000000, 0.0000000000000000000, 0.0000000000000000000 ) ;
#136 = FACE_OUTER_BOUND ( 'NONE', #31, .T. ) ;
#137 = STYLED_ITEM ( 'NONE', ( #19 ), #41 ) ;
#138 = DIRECTION ( 'NONE',  ( -1.224646799147353207E-16, -0.0000000000000000000, -1.000000000000000000 ) ) ;
#139 = DIRECTION ( 'NONE',  ( 1.000000000000000000, 0.0000000000000000000, 0.0000000000000000000 ) ) ;
#140 = CYLINDRICAL_SURFACE ( 'NONE', #252, 0.1181100000000000066 ) ;
#141 = AXIS2_PLACEMENT_3D ( 'NONE', #23, #68, #90 ) ;
#142 = EDGE_LOOP ( 'NONE', ( #106, #14, #238, #125 ) ) ;
#143 =( CONVERSION_BASED_UNIT ( 'INCH', #190 ) LENGTH_UNIT ( ) NAMED_UNIT ( #87 ) );
#144 = ORIENTED_EDGE ( 'NONE', *, *, #225, .T. ) ;
#145 = ORIENTED_EDGE ( 'NONE', *, *, #168, .F. ) ;
#146 =( NAMED_UNIT ( * ) PLANE_ANGLE_UNIT ( ) SI_UNIT ( $, .RADIAN. ) );
#147 = VECTOR ( 'NONE', #169, 39.37007874015748143 ) ;
#148 = VERTEX_POINT ( 'NONE', #153 ) ;
#149 = EDGE_CURVE ( 'NONE', #128, #10, #246, .T. ) ;
#150 = CARTESIAN_POINT ( 'NONE',  ( 0.0000000000000000000, 0.0000000000000000000, 2.952755999999999936 ) ) ;
#151 = SURFACE_STYLE_USAGE ( .BOTH. , #294 ) ;
#152 = VECTOR ( 'NONE', #239, 39.37007874015748143 ) ;
#153 = CARTESIAN_POINT ( 'NONE',  ( 0.1031099999999991607, 1.354581824536882251E-17, 2.952755999999999936 ) ) ;
#154 = EDGE_CURVE ( 'NONE', #148, #117, #270, .T. ) ;
#155 = DIRECTION ( 'NONE',  ( 1.000000000000000000, 0.0000000000000000000, 0.0000000000000000000 ) ) ;
#156 = FILL_AREA_STYLE ('',( #218 ) ) ;
#157 = AXIS2_PLACEMENT_3D ( 'NONE', #29, #93, #201 ) ;
#158 =( CONVERSION_BASED_UNIT ( 'INCH', #66 ) LENGTH_UNIT ( ) NAMED_UNIT ( #46 ) );
#159 = CARTESIAN_POINT ( 'NONE',  ( 0.0000000000000000000, 0.0000000000000000000, 0.0000000000000000000 ) ) ;
#160 = CIRCLE ( 'NONE', #33, 0.1179918899999999882 ) ;
#161 = DIRECTION ( 'NONE',  ( -1.000000000000000000, 0.0000000000000000000, 0.0000000000000000000 ) ) ;
#162 = DIRECTION ( 'NONE',  ( 0.0000000000000000000, 0.0000000000000000000, -1.000000000000000000 ) ) ;
#163 = CARTESIAN_POINT ( 'NONE',  ( 0.1179918899999999882, 1.444983904138465938E-17, 0.0000000000000000000 ) ) ;
#164 = CIRCLE ( 'NONE', #42, 0.1031099999999991607 ) ;
#165 = ORIENTED_EDGE ( 'NONE', *, *, #36, .F. ) ;
#166 = CONICAL_SURFACE ( 'NONE', #200, 0.1031099999999991607, 0.7853981633974500554 ) ;
#167 =( GEOMETRIC_REPRESENTATION_CONTEXT ( 3 ) GLOBAL_UNCERTAINTY_ASSIGNED_CONTEXT ( ( #278 ) ) GLOBAL_UNIT_ASSIGNED_CONTEXT ( ( #143, #146, #233 ) ) REPRESENTATION_CONTEXT ( 'NONE', 'WORKASPACE' ) );
#168 = EDGE_CURVE ( 'NONE', #128, #95, #275, .T. ) ;
#169 = DIRECTION ( 'NONE',  ( -1.224646799147353207E-16, -0.0000000000000000000, -1.000000000000000000 ) ) ;
#170 = CARTESIAN_POINT ( 'NONE',  ( 0.1179918899999999882, 1.444983904138465938E-17, -1.444983904138465938E-17 ) ) ;
#171 = FACE_OUTER_BOUND ( 'NONE', #283, .T. ) ;
#172 = LINE ( 'NONE', #60, #243 ) ;
#173 = EDGE_CURVE ( 'NONE', #95, #128, #182, .T. ) ;
#174 = AXIS2_PLACEMENT_3D ( 'NONE', #150, #35, #12 ) ;
#175 = CARTESIAN_POINT ( 'NONE',  ( 0.1179918900000001131, 0.0000000000000000000, 0.9842519999999999047 ) ) ;
#176 = DIRECTION ( 'NONE',  ( 1.000000000000000000, 0.0000000000000000000, -0.0000000000000000000 ) ) ;
#177 = ADVANCED_FACE ( 'NONE', ( #228 ), #179, .T. ) ;
#178 = DIRECTION ( 'NONE',  ( -1.000000000000000000, 0.0000000000000000000, 1.224646799147353454E-16 ) ) ;
#179 = PLANE ( 'NONE',  #91 ) ;
#180 = ADVANCED_FACE ( 'NONE', ( #48 ), #202, .T. ) ;
#181 = DIRECTION ( 'NONE',  ( 0.0000000000000000000, 0.0000000000000000000, 1.000000000000000000 ) ) ;
#182 = CIRCLE ( 'NONE', #208, 0.1179918899999999882 ) ;
#183 = CARTESIAN_POINT ( 'NONE',  ( -0.1181100000000000066, 0.0000000000000000000, 2.937755999999999368 ) ) ;
#184 = UNCERTAINTY_MEASURE_WITH_UNIT (LENGTH_MEASURE( 1.000000000000000082E-05 ), #158, 'distance_accuracy_value', 'NONE');
#185 = CARTESIAN_POINT ( 'NONE',  ( 0.0000000000000000000, 0.0000000000000000000, 2.952755999999999936 ) ) ;
#186 =( NAMED_UNIT ( * ) SI_UNIT ( $, .STERADIAN. ) SOLID_ANGLE_UNIT ( ) );
#187 = EDGE_CURVE ( 'NONE', #117, #194, #132, .T. ) ;
#188 = VERTEX_POINT ( 'NONE', #279 ) ;
#189 = VERTEX_POINT ( 'NONE', #163 ) ;
#190 = LENGTH_MEASURE_WITH_UNIT ( LENGTH_MEASURE( 0.02539999999999999897 ), #6 );
#191 = CARTESIAN_POINT ( 'NONE',  ( 0.1181100000000000066, 1.446430334472939084E-17, 2.952755999999999936 ) ) ;
#192 = AXIS2_PLACEMENT_3D ( 'NONE', #109, #224, #110 ) ;
#193 = LINE ( 'NONE', #43, #229 ) ;
#194 = VERTEX_POINT ( 'NONE', #183 ) ;
#195 = ORIENTED_EDGE ( 'NONE', *, *, #258, .F. ) ;
#196 = DIRECTION ( 'NONE',  ( 1.000000000000000000, 0.0000000000000000000, 0.0000000000000000000 ) ) ;
#197 = CARTESIAN_POINT ( 'NONE',  ( -0.1179918899999998771, 1.445707119305702357E-17, 0.9842519999999999047 ) ) ;
#198 = CIRCLE ( 'NONE', #174, 0.1031099999999991607 ) ;
#199 = PRODUCT_CONTEXT ( 'NONE', #133, 'mechanical' ) ;
#200 = AXIS2_PLACEMENT_3D ( 'NONE', #185, #162, #259 ) ;
#201 = DIRECTION ( 'NONE',  ( 1.000000000000000000, 0.0000000000000000000, 0.0000000000000000000 ) ) ;
#202 = CYLINDRICAL_SURFACE ( 'NONE', #268, 0.1181100000000000066 ) ;
#203 = EDGE_CURVE ( 'NONE', #57, #189, #2, .T. ) ;
#204 = DIRECTION ( 'NONE',  ( -1.000000000000000000, 0.0000000000000000000, 1.224646799147353454E-16 ) ) ;
#205 = COLOUR_RGB ( '',0.7921568627450980005, 0.8196078431372548767, 0.9333333333333333481 ) ;
#206 = ORIENTED_EDGE ( 'NONE', *, *, #149, .T. ) ;
#207 = CYLINDRICAL_SURFACE ( 'NONE', #293, 0.1179918899999999882 ) ;
#208 = AXIS2_PLACEMENT_3D ( 'NONE', #58, #215, #254 ) ;
#209 = ORIENTED_EDGE ( 'NONE', *, *, #187, .T. ) ;
#210 = ORIENTED_EDGE ( 'NONE', *, *, #25, .F. ) ;
#211 = PRODUCT_DEFINITION_SHAPE ( 'NONE', 'NONE',  #260 ) ;
#212 = EDGE_LOOP ( 'NONE', ( #100, #209, #113, #118 ) ) ;
#213 = ORIENTED_EDGE ( 'NONE', *, *, #65, .F. ) ;
#214 =( GEOMETRIC_REPRESENTATION_CONTEXT ( 3 ) GLOBAL_UNCERTAINTY_ASSIGNED_CONTEXT ( ( #184 ) ) GLOBAL_UNIT_ASSIGNED_CONTEXT ( ( #158, #235, #186 ) ) REPRESENTATION_CONTEXT ( 'NONE', 'WORKASPACE' ) );
#215 = DIRECTION ( 'NONE',  ( -1.224646799147353207E-16, -0.0000000000000000000, -1.000000000000000000 ) ) ;
#216 = EDGE_LOOP ( 'NONE', ( #213, #145, #206, #144 ) ) ;
#217 = CARTESIAN_POINT ( 'NONE',  ( 0.1031099999999991607, 1.262733314600825571E-17, 2.952755999999999936 ) ) ;
#218 = FILL_AREA_STYLE_COLOUR ( '', #205 ) ;
#219 = SHAPE_DEFINITION_REPRESENTATION ( #211, #226 ) ;
#220 = FACE_OUTER_BOUND ( 'NONE', #5, .T. ) ;
#221 = ADVANCED_FACE ( 'NONE', ( #136 ), #207, .T. ) ;
#222 = FACE_OUTER_BOUND ( 'NONE', #37, .T. ) ;
#223 = AXIS2_PLACEMENT_3D ( 'NONE', #266, #296, #290 ) ;
#224 = DIRECTION ( 'NONE',  ( -1.224646799147353207E-16, -0.0000000000000000000, -1.000000000000000000 ) ) ;
#225 = EDGE_CURVE ( 'NONE', #10, #188, #282, .T. ) ;
#226 = ADVANCED_BREP_SHAPE_REPRESENTATION ( 'Micro_GELM-060-3', ( #41, #121 ), #214 ) ;
#227 = DIRECTION ( 'NONE',  ( 0.0000000000000000000, 0.0000000000000000000, 1.000000000000000000 ) ) ;
#228 = FACE_OUTER_BOUND ( 'NONE', #236, .T. ) ;
#229 = VECTOR ( 'NONE', #108, 39.37007874015747433 ) ;
#230 = CARTESIAN_POINT ( 'NONE',  ( 0.0000000000000000000, 0.0000000000000000000, 2.952755999999999936 ) ) ;
#231 = PRESENTATION_LAYER_ASSIGNMENT (  '', '', ( #103 ) ) ;
#232 = ADVANCED_FACE ( 'NONE', ( #88 ), #166, .T. ) ;
#233 =( NAMED_UNIT ( * ) SI_UNIT ( $, .STERADIAN. ) SOLID_ANGLE_UNIT ( ) );
#234 = ORIENTED_EDGE ( 'NONE', *, *, #76, .F. ) ;
#235 =( NAMED_UNIT ( * ) PLANE_ANGLE_UNIT ( ) SI_UNIT ( $, .RADIAN. ) );
#236 = EDGE_LOOP ( 'NONE', ( #59, #284 ) ) ;
#237 =( GEOMETRIC_REPRESENTATION_CONTEXT ( 3 ) GLOBAL_UNCERTAINTY_ASSIGNED_CONTEXT ( ( #255 ) ) GLOBAL_UNIT_ASSIGNED_CONTEXT ( ( #63, #107, #15 ) ) REPRESENTATION_CONTEXT ( 'NONE', 'WORKASPACE' ) );
#238 = ORIENTED_EDGE ( 'NONE', *, *, #94, .T. ) ;
#239 = DIRECTION ( 'NONE',  ( -0.0000000000000000000, -0.0000000000000000000, -1.000000000000000000 ) ) ;
#240 = CYLINDRICAL_SURFACE ( 'NONE', #262, 0.1179918899999999882 ) ;
#241 = CARTESIAN_POINT ( 'NONE',  ( 0.1179918900000001131, 0.0000000000000000000, 0.9842519999999999047 ) ) ;
#242 = DIRECTION ( 'NONE',  ( -1.224646799147353207E-16, -0.0000000000000000000, -1.000000000000000000 ) ) ;
#243 = VECTOR ( 'NONE', #244, 39.37007874015748143 ) ;
#244 = DIRECTION ( 'NONE',  ( -0.0000000000000000000, -0.0000000000000000000, -1.000000000000000000 ) ) ;
#245 = ADVANCED_FACE ( 'NONE', ( #257 ), #78, .T. ) ;
#246 = LINE ( 'NONE', #241, #297 ) ;
#247 = APPLICATION_PROTOCOL_DEFINITION ( 'draft international standard', 'automotive_design', 1998, #287 ) ;
#248 = DIRECTION ( 'NONE',  ( 0.7071067811865486830, 8.659560562354947649E-17, -0.7071067811865462405 ) ) ;
#249 = EDGE_CURVE ( 'NONE', #189, #57, #160, .T. ) ;
#250 = CARTESIAN_POINT ( 'NONE',  ( -0.1179918899999999882, 0.0000000000000000000, 2.889967808276931875E-17 ) ) ;
#251 = CONICAL_SURFACE ( 'NONE', #157, 0.1179918899999999882, 0.1745329251994339192 ) ;
#252 = AXIS2_PLACEMENT_3D ( 'NONE', #230, #274, #161 ) ;
#253 = VECTOR ( 'NONE', #13, 39.37007874015748854 ) ;
#254 = DIRECTION ( 'NONE',  ( -1.000000000000000000, 0.0000000000000000000, 0.0000000000000000000 ) ) ;
#255 = UNCERTAINTY_MEASURE_WITH_UNIT (LENGTH_MEASURE( 1.000000000000000082E-05 ), #63, 'distance_accuracy_value', 'NONE');
#256 =( LENGTH_UNIT ( ) NAMED_UNIT ( * ) SI_UNIT ( $, .METRE. ) );
#257 = FACE_OUTER_BOUND ( 'NONE', #142, .T. ) ;
#258 = EDGE_CURVE ( 'NONE', #148, #75, #164, .T. ) ;
#259 = DIRECTION ( 'NONE',  ( -1.000000000000000000, 0.0000000000000000000, 0.0000000000000000000 ) ) ;
#260 = PRODUCT_DEFINITION ( 'UNKNOWN', '', #273, #115 ) ;
#261 = APPLICATION_PROTOCOL_DEFINITION ( 'draft international standard', 'automotive_design', 1998, #133 ) ;
#262 = AXIS2_PLACEMENT_3D ( 'NONE', #64, #83, #17 ) ;
#263 = LINE ( 'NONE', #170, #85 ) ;
#264 = CARTESIAN_POINT ( 'NONE',  ( 1.205361061354380629E-16, 0.0000000000000000000, 0.9842519999999999047 ) ) ;
#265 = ORIENTED_EDGE ( 'NONE', *, *, #94, .F. ) ;
#266 = CARTESIAN_POINT ( 'NONE',  ( 1.206181372760304730E-16, 0.0000000000000000000, 0.9849218350957150703 ) ) ;
#267 = DIRECTION ( 'NONE',  ( 0.0000000000000000000, 0.0000000000000000000, 1.000000000000000000 ) ) ;
#268 = AXIS2_PLACEMENT_3D ( 'NONE', #21, #72, #298 ) ;
#269 = CARTESIAN_POINT ( 'NONE',  ( 0.1181100000000000066, 1.446430334472939084E-17, 2.937755999999999368 ) ) ;
#270 = LINE ( 'NONE', #217, #18 ) ;
#271 = LENGTH_MEASURE_WITH_UNIT ( LENGTH_MEASURE( 0.02539999999999999897 ), #292 );
#272 = CIRCLE ( 'NONE', #223, 0.1181100000000000066 ) ;
#273 = PRODUCT_DEFINITION_FORMATION_WITH_SPECIFIED_SOURCE ( 'ANY', '', #81, .NOT_KNOWN. ) ;
#274 = DIRECTION ( 'NONE',  ( -0.0000000000000000000, -0.0000000000000000000, -1.000000000000000000 ) ) ;
#275 = CIRCLE ( 'NONE', #98, 0.1179918899999999882 ) ;
#276 = COLOUR_RGB ( '',0.7921568627450980005, 0.8196078431372548767, 0.9333333333333333481 ) ;
#277 = CARTESIAN_POINT ( 'NONE',  ( 0.0000000000000000000, 0.0000000000000000000, 2.937755999999999368 ) ) ;
#278 = UNCERTAINTY_MEASURE_WITH_UNIT (LENGTH_MEASURE( 1.000000000000000082E-05 ), #143, 'distance_accuracy_value', 'NONE');
#279 = CARTESIAN_POINT ( 'NONE',  ( -0.1181099999999998956, 0.0000000000000000000, 0.9849218350957150703 ) ) ;
#280 = ADVANCED_FACE ( 'NONE', ( #222 ), #140, .T. ) ;
#281 = CARTESIAN_POINT ( 'NONE',  ( 0.0000000000000000000, 0.0000000000000000000, 2.952755999999999936 ) ) ;
#282 = CIRCLE ( 'NONE', #192, 0.1181100000000000066 ) ;
#283 = EDGE_LOOP ( 'NONE', ( #30, #52, #92, #123 ) ) ;
#284 = ORIENTED_EDGE ( 'NONE', *, *, #258, .T. ) ;
#285 = EDGE_LOOP ( 'NONE', ( #195, #124, #32, #265 ) ) ;
#286 = DIRECTION ( 'NONE',  ( 0.1736481776669314137, 0.0000000000000000000, 0.9848077530122077983 ) ) ;
#287 = APPLICATION_CONTEXT ( 'automotive_design' ) ;
#288 = ADVANCED_FACE ( 'NONE', ( #89 ), #251, .T. ) ;
#289 = LINE ( 'NONE', #191, #152 ) ;
#290 = DIRECTION ( 'NONE',  ( 1.000000000000000000, 0.0000000000000000000, 0.0000000000000000000 ) ) ;
#291 = ORIENTED_EDGE ( 'NONE', *, *, #249, .T. ) ;
#292 =( LENGTH_UNIT ( ) NAMED_UNIT ( * ) SI_UNIT ( $, .METRE. ) );
#293 = AXIS2_PLACEMENT_3D ( 'NONE', #159, #24, #71 ) ;
#294 = SURFACE_SIDE_STYLE ('',( #131 ) ) ;
#295 = EDGE_CURVE ( 'NONE', #194, #117, #77, .T. ) ;
#296 = DIRECTION ( 'NONE',  ( -1.224646799147353207E-16, -0.0000000000000000000, -1.000000000000000000 ) ) ;
#297 = VECTOR ( 'NONE', #286, 39.37007874015748143 ) ;
#298 = DIRECTION ( 'NONE',  ( -1.000000000000000000, 0.0000000000000000000, 0.0000000000000000000 ) ) ;
#299 = DIRECTION ( 'NONE',  ( -1.000000000000000000, 0.0000000000000000000, 0.0000000000000000000 ) ) ;
ENDSEC;
END-ISO-10303-21;
