ISO-10303-21;
HEADER;
FILE_DESCRIPTION (( 'STEP AP214' ),
    '1' );
FILE_NAME ('83838.STEP',
    '2023-07-05T16:16:03',
    ( '' ),
    ( '' ),
    'SwSTEP 2.0',
    'SolidWorks 2023',
    '' );
FILE_SCHEMA (( 'AUTOMOTIVE_DESIGN' ));
ENDSEC;

DATA;
#1 =( CONVERSION_BASED_UNIT ( 'INCH', #181 ) LENGTH_UNIT ( ) NAMED_UNIT ( #29 ) );
#2 =( LENGTH_UNIT ( ) NAMED_UNIT ( * ) SI_UNIT ( $, .METRE. ) );
#3 = CARTESIAN_POINT ( 'NONE',  ( -0.09375000000000001388, 2.000000000000000000, 0.000000000000000000 ) ) ;
#4 = COLOUR_RGB ( '',0.7921568627450980005, 0.8196078431372548767, 0.9333333333333333481 ) ;
#5 = EDGE_CURVE ( 'NONE', #192, #60, #132, .T. ) ;
#6 = ORIENTED_EDGE ( 'NONE', *, *, #13, .T. ) ;
#7 = PRODUCT_RELATED_PRODUCT_CATEGORY ( 'part', '', ( #103 ) ) ;
#8 = CARTESIAN_POINT ( 'NONE',  ( 0.09374999999999987510, 2.000000000000000000, 1.148106374200642938E-17 ) ) ;
#9 = DIRECTION ( 'NONE',  ( 1.215897659961753384E-16, -1.000000000000000000, 0.000000000000000000 ) ) ;
#10 = AXIS2_PLACEMENT_3D ( 'NONE', #156, #236, #213 ) ;
#11 = MECHANICAL_DESIGN_GEOMETRIC_PRESENTATION_REPRESENTATION (  '', ( #118 ), #218 ) ;
#12 = EDGE_LOOP ( 'NONE', ( #253, #178, #158, #97 ) ) ;
#13 = EDGE_CURVE ( 'NONE', #100, #215, #17, .T. ) ;
#14 = VERTEX_POINT ( 'NONE', #78 ) ;
#15 =( NAMED_UNIT ( * ) PLANE_ANGLE_UNIT ( ) SI_UNIT ( $, .RADIAN. ) );
#16 = DIRECTION ( 'NONE',  ( -1.000000000000000000, 0.000000000000000000, 0.000000000000000000 ) ) ;
#17 = CIRCLE ( 'NONE', #217, 0.09375000000000005551 ) ;
#18 = FACE_OUTER_BOUND ( 'NONE', #92, .T. ) ;
#19 =( NAMED_UNIT ( * ) SI_UNIT ( $, .STERADIAN. ) SOLID_ANGLE_UNIT ( ) );
#20 = ORIENTED_EDGE ( 'NONE', *, *, #126, .T. ) ;
#21 = CARTESIAN_POINT ( 'NONE',  ( -6.123233995736763571E-17, 2.000000000000000000, 0.000000000000000000 ) ) ;
#22 = PRESENTATION_STYLE_ASSIGNMENT (( #127 ) ) ;
#23 = FILL_AREA_STYLE_COLOUR ( '', #4 ) ;
#24 = SURFACE_STYLE_USAGE ( .BOTH. , #163 ) ;
#25 = VECTOR ( 'NONE', #251, 39.37007874015748143 ) ;
#26 = LENGTH_MEASURE_WITH_UNIT ( LENGTH_MEASURE( 0.02539999999999999897 ), #67 );
#27 = ADVANCED_FACE ( 'NONE', ( #153 ), #196, .T. ) ;
#28 = CARTESIAN_POINT ( 'NONE',  ( -0.09374999999999968081, 0.1623797632095817234, 0.000000000000000000 ) ) ;
#29 = DIMENSIONAL_EXPONENTS ( 1.000000000000000000, 0.000000000000000000, 0.000000000000000000, 0.000000000000000000, 0.000000000000000000, 0.000000000000000000, 0.000000000000000000 ) ;
#30 = CLOSED_SHELL ( 'NONE', ( #81, #58, #27, #254 ) ) ;
#31 = FILL_AREA_STYLE_COLOUR ( '', #205 ) ;
#32 = SURFACE_SIDE_STYLE ('',( #228 ) ) ;
#33 = AXIS2_PLACEMENT_3D ( 'NONE', #114, #255, #209 ) ;
#34 = PRODUCT_DEFINITION_FORMATION_WITH_SPECIFIED_SOURCE ( 'ANY', '', #103, .NOT_KNOWN. ) ;
#35 = CARTESIAN_POINT ( 'NONE',  ( -6.123233995736763571E-17, 2.000000000000000000, 0.000000000000000000 ) ) ;
#36 =( NAMED_UNIT ( * ) SI_UNIT ( $, .STERADIAN. ) SOLID_ANGLE_UNIT ( ) );
#37 = DIRECTION ( 'NONE',  ( -1.000000000000000000, 0.000000000000000000, 0.000000000000000000 ) ) ;
#38 = ORIENTED_EDGE ( 'NONE', *, *, #50, .F. ) ;
#39 = APPLICATION_PROTOCOL_DEFINITION ( 'draft international standard', 'automotive_design', 1998, #210 ) ;
#40 = PRESENTATION_STYLE_ASSIGNMENT (( #177 ) ) ;
#41 = ORIENTED_EDGE ( 'NONE', *, *, #52, .T. ) ;
#42 = COLOUR_RGB ( '',0.7921568627450980005, 0.8196078431372548767, 0.9333333333333333481 ) ;
#43 = SHAPE_DEFINITION_REPRESENTATION ( #214, #56 ) ;
#44 = DIRECTION ( 'NONE',  ( 1.000000000000000000, 0.000000000000000000, 0.000000000000000000 ) ) ;
#45 =( NAMED_UNIT ( * ) SI_UNIT ( $, .STERADIAN. ) SOLID_ANGLE_UNIT ( ) );
#46 = VECTOR ( 'NONE', #49, 39.37007874015748143 ) ;
#47 = SURFACE_STYLE_FILL_AREA ( #202 ) ;
#48 = EDGE_CURVE ( 'NONE', #136, #14, #61, .T. ) ;
#49 = DIRECTION ( 'NONE',  ( -1.215897659961753384E-16, 1.000000000000000000, -0.000000000000000000 ) ) ;
#50 = EDGE_CURVE ( 'NONE', #60, #192, #65, .T. ) ;
#51 = SURFACE_SIDE_STYLE ('',( #47 ) ) ;
#52 = EDGE_CURVE ( 'NONE', #105, #14, #240, .T. ) ;
#53 = DIRECTION ( 'NONE',  ( 1.000000000000000000, 0.000000000000000000, 0.000000000000000000 ) ) ;
#54 = UNCERTAINTY_MEASURE_WITH_UNIT (LENGTH_MEASURE( 1.000000000000000082E-05 ), #62, 'distance_accuracy_value', 'NONE');
#55 = VECTOR ( 'NONE', #125, 39.37007874015748143 ) ;
#56 = ADVANCED_BREP_SHAPE_REPRESENTATION ( '83838', ( #179, #183, #207 ), #146 ) ;
#57 = DIRECTION ( 'NONE',  ( -4.846790418016532169E-18, -1.000000000000000000, -0.000000000000000000 ) ) ;
#58 = ADVANCED_FACE ( 'NONE', ( #101 ), #260, .F. ) ;
#59 = CARTESIAN_POINT ( 'NONE',  ( 7.870206804039944582E-19, 0.1623797632095817789, 0.000000000000000000 ) ) ;
#60 = VERTEX_POINT ( 'NONE', #116 ) ;
#61 = CIRCLE ( 'NONE', #168, 0.09374999999999998612 ) ;
#62 =( CONVERSION_BASED_UNIT ( 'INCH', #200 ) LENGTH_UNIT ( ) NAMED_UNIT ( #87 ) );
#63 = DIRECTION ( 'NONE',  ( 4.846790418016532169E-18, 1.000000000000000000, 0.000000000000000000 ) ) ;
#64 = APPLICATION_PROTOCOL_DEFINITION ( 'draft international standard', 'automotive_design', 1998, #244 ) ;
#65 = CIRCLE ( 'NONE', #161, 0.09374999999999984734 ) ;
#66 = AXIS2_PLACEMENT_3D ( 'NONE', #230, #9, #111 ) ;
#67 =( LENGTH_UNIT ( ) NAMED_UNIT ( * ) SI_UNIT ( $, .METRE. ) );
#68 = ADVANCED_FACE ( 'NONE', ( #18 ), #73, .T. ) ;
#69 = STYLED_ITEM ( 'NONE', ( #95 ), #263 ) ;
#70 =( LENGTH_UNIT ( ) NAMED_UNIT ( * ) SI_UNIT ( $, .METRE. ) );
#71 = FILL_AREA_STYLE ('',( #245 ) ) ;
#72 = LENGTH_MEASURE_WITH_UNIT ( LENGTH_MEASURE( 0.02539999999999999897 ), #2 );
#73 = CONICAL_SURFACE ( 'NONE', #234, 22.73032555864674364, 0.5235987755983000369 ) ;
#74 = LINE ( 'NONE', #8, #25 ) ;
#75 = PLANE ( 'NONE',  #86 ) ;
#76 = ORIENTED_EDGE ( 'NONE', *, *, #246, .T. ) ;
#77 = ORIENTED_EDGE ( 'NONE', *, *, #48, .F. ) ;
#78 = CARTESIAN_POINT ( 'NONE',  ( -0.09374999999999998612, 0.1623797632095817789, 0.000000000000000000 ) ) ;
#79 = MECHANICAL_DESIGN_GEOMETRIC_PRESENTATION_REPRESENTATION (  '', ( #188 ), #193 ) ;
#80 =( GEOMETRIC_REPRESENTATION_CONTEXT ( 3 ) GLOBAL_UNCERTAINTY_ASSIGNED_CONTEXT ( ( #225 ) ) GLOBAL_UNIT_ASSIGNED_CONTEXT ( ( #107, #122, #160 ) ) REPRESENTATION_CONTEXT ( 'NONE', 'WORKASPACE' ) );
#81 = ADVANCED_FACE ( 'NONE', ( #195 ), #155, .T. ) ;
#82 = DIRECTION ( 'NONE',  ( -1.000000000000000000, 0.000000000000000000, 0.000000000000000000 ) ) ;
#83 = ORIENTED_EDGE ( 'NONE', *, *, #246, .F. ) ;
#84 = FACE_OUTER_BOUND ( 'NONE', #199, .T. ) ;
#85 = DIRECTION ( 'NONE',  ( 4.846790418016532169E-18, 1.000000000000000000, 0.000000000000000000 ) ) ;
#86 = AXIS2_PLACEMENT_3D ( 'NONE', #264, #85, #137 ) ;
#87 = DIMENSIONAL_EXPONENTS ( 1.000000000000000000, 0.000000000000000000, 0.000000000000000000, 0.000000000000000000, 0.000000000000000000, 0.000000000000000000, 0.000000000000000000 ) ;
#88 = SURFACE_STYLE_FILL_AREA ( #141 ) ;
#89 = COLOUR_RGB ( '',1.000000000000000000, 0.000000000000000000, 0.000000000000000000 ) ;
#90 = DIRECTION ( 'NONE',  ( 4.846790418016532169E-18, 1.000000000000000000, 0.000000000000000000 ) ) ;
#91 = DIMENSIONAL_EXPONENTS ( 1.000000000000000000, 0.000000000000000000, 0.000000000000000000, 0.000000000000000000, 0.000000000000000000, 0.000000000000000000, 0.000000000000000000 ) ;
#92 = EDGE_LOOP ( 'NONE', ( #131, #41, #76 ) ) ;
#93 = COLOUR_RGB ( '',1.000000000000000000, 0.000000000000000000, 0.000000000000000000 ) ;
#94 = MECHANICAL_DESIGN_GEOMETRIC_PRESENTATION_REPRESENTATION (  '', ( #162 ), #250 ) ;
#95 = PRESENTATION_STYLE_ASSIGNMENT (( #191 ) ) ;
#96 = PRESENTATION_LAYER_ASSIGNMENT (  '', '', ( #69 ) ) ;
#97 = ORIENTED_EDGE ( 'NONE', *, *, #139, .F. ) ;
#98 = DIRECTION ( 'NONE',  ( -1.215897659961753384E-16, 1.000000000000000000, -0.000000000000000000 ) ) ;
#99 = CARTESIAN_POINT ( 'NONE',  ( 0.09374999999999998612, 0.1623797632095817789, 1.148106374200643401E-17 ) ) ;
#100 = VERTEX_POINT ( 'NONE', #102 ) ;
#101 = FACE_OUTER_BOUND ( 'NONE', #189, .T. ) ;
#102 = CARTESIAN_POINT ( 'NONE',  ( 0.09374999999999998612, 2.000000000000000000, 1.148106374200643555E-17 ) ) ;
#103 = PRODUCT ( '83838', '83838', '', ( #237 ) ) ;
#104 =( LENGTH_UNIT ( ) NAMED_UNIT ( * ) SI_UNIT ( $, .METRE. ) );
#105 = VERTEX_POINT ( 'NONE', #262 ) ;
#106 = FILL_AREA_STYLE_COLOUR ( '', #93 ) ;
#107 =( CONVERSION_BASED_UNIT ( 'INCH', #219 ) LENGTH_UNIT ( ) NAMED_UNIT ( #91 ) );
#108 = DIMENSIONAL_EXPONENTS ( 1.000000000000000000, 0.000000000000000000, 0.000000000000000000, 0.000000000000000000, 0.000000000000000000, 0.000000000000000000, 0.000000000000000000 ) ;
#109 = CIRCLE ( 'NONE', #252, 0.09375000000000005551 ) ;
#110 = ORIENTED_EDGE ( 'NONE', *, *, #220, .F. ) ;
#111 = DIRECTION ( 'NONE',  ( 1.000000000000000000, 1.215897659961753384E-16, 0.000000000000000000 ) ) ;
#112 = ORIENTED_EDGE ( 'NONE', *, *, #5, .F. ) ;
#113 =( CONVERSION_BASED_UNIT ( 'INCH', #239 ) LENGTH_UNIT ( ) NAMED_UNIT ( #108 ) );
#114 = CARTESIAN_POINT ( 'NONE',  ( 1.622034746238156224E-16, 0.1623797632095817234, 0.000000000000000000 ) ) ;
#115 = ORIENTED_EDGE ( 'NONE', *, *, #50, .T. ) ;
#116 = CARTESIAN_POINT ( 'NONE',  ( 0.09374999999999998612, 0.1623797632095817234, 1.148106374200643863E-17 ) ) ;
#117 = FILL_AREA_STYLE ('',( #238 ) ) ;
#118 = STYLED_ITEM ( 'NONE', ( #248 ), #179 ) ;
#119 = ORIENTED_EDGE ( 'NONE', *, *, #52, .F. ) ;
#120 =( NAMED_UNIT ( * ) PLANE_ANGLE_UNIT ( ) SI_UNIT ( $, .RADIAN. ) );
#121 = CARTESIAN_POINT ( 'NONE',  ( 0.000000000000000000, 0.000000000000000000, 0.000000000000000000 ) ) ;
#122 =( NAMED_UNIT ( * ) PLANE_ANGLE_UNIT ( ) SI_UNIT ( $, .RADIAN. ) );
#123 = SURFACE_SIDE_STYLE ('',( #143 ) ) ;
#124 = PRESENTATION_LAYER_ASSIGNMENT (  '', '', ( #162 ) ) ;
#125 = DIRECTION ( 'NONE',  ( -0.5000000000000009992, 0.8660254037844380415, 0.000000000000000000 ) ) ;
#126 = EDGE_CURVE ( 'NONE', #105, #136, #221, .T. ) ;
#127 = SURFACE_STYLE_USAGE ( .BOTH. , #123 ) ;
#128 =( NAMED_UNIT ( * ) SI_UNIT ( $, .STERADIAN. ) SOLID_ANGLE_UNIT ( ) );
#129 = FACE_OUTER_BOUND ( 'NONE', #231, .T. ) ;
#130 = ORIENTED_EDGE ( 'NONE', *, *, #185, .T. ) ;
#131 = ORIENTED_EDGE ( 'NONE', *, *, #126, .F. ) ;
#132 = CIRCLE ( 'NONE', #33, 0.09374999999999984734 ) ;
#133 = UNCERTAINTY_MEASURE_WITH_UNIT (LENGTH_MEASURE( 1.000000000000000082E-05 ), #148, 'distance_accuracy_value', 'NONE');
#134 =( GEOMETRIC_REPRESENTATION_CONTEXT ( 3 ) GLOBAL_UNCERTAINTY_ASSIGNED_CONTEXT ( ( #54 ) ) GLOBAL_UNIT_ASSIGNED_CONTEXT ( ( #62, #120, #36 ) ) REPRESENTATION_CONTEXT ( 'NONE', 'WORKASPACE' ) );
#135 = CARTESIAN_POINT ( 'NONE',  ( -6.123233995736763571E-17, 2.000000000000000000, 0.000000000000000000 ) ) ;
#136 = VERTEX_POINT ( 'NONE', #99 ) ;
#137 = DIRECTION ( 'NONE',  ( -1.000000000000000000, 4.846790418016532169E-18, 0.000000000000000000 ) ) ;
#138 = ADVANCED_FACE ( 'NONE', ( #84 ), #203, .T. ) ;
#139 = EDGE_CURVE ( 'NONE', #192, #215, #247, .T. ) ;
#140 = PRESENTATION_LAYER_ASSIGNMENT (  '', '', ( #184 ) ) ;
#141 = FILL_AREA_STYLE ('',( #23 ) ) ;
#142 = DIRECTION ( 'NONE',  ( -1.215897659961753384E-16, 1.000000000000000000, -0.000000000000000000 ) ) ;
#143 = SURFACE_STYLE_FILL_AREA ( #71 ) ;
#144 =( CONVERSION_BASED_UNIT ( 'INCH', #72 ) LENGTH_UNIT ( ) NAMED_UNIT ( #164 ) );
#145 = EDGE_LOOP ( 'NONE', ( #110, #115, #186, #233 ) ) ;
#146 =( GEOMETRIC_REPRESENTATION_CONTEXT ( 3 ) GLOBAL_UNCERTAINTY_ASSIGNED_CONTEXT ( ( #167 ) ) GLOBAL_UNIT_ASSIGNED_CONTEXT ( ( #113, #15, #19 ) ) REPRESENTATION_CONTEXT ( 'NONE', 'WORKASPACE' ) );
#147 = PRODUCT_DEFINITION ( 'UNKNOWN', '', #34, #152 ) ;
#148 =( CONVERSION_BASED_UNIT ( 'INCH', #26 ) LENGTH_UNIT ( ) NAMED_UNIT ( #249 ) );
#149 =( NAMED_UNIT ( * ) PLANE_ANGLE_UNIT ( ) SI_UNIT ( $, .RADIAN. ) );
#150 = FILL_AREA_STYLE ('',( #31 ) ) ;
#151 = PLANE ( 'NONE',  #66 ) ;
#152 = PRODUCT_DEFINITION_CONTEXT ( 'detailed design', #244, 'design' ) ;
#153 = FACE_OUTER_BOUND ( 'NONE', #145, .T. ) ;
#154 = VECTOR ( 'NONE', #265, 39.37007874015748143 ) ;
#155 = CYLINDRICAL_SURFACE ( 'NONE', #259, 0.09374999999999994449 ) ;
#156 = CARTESIAN_POINT ( 'NONE',  ( 1.622034746238156224E-16, 0.1623797632095817789, 0.000000000000000000 ) ) ;
#157 = DIRECTION ( 'NONE',  ( -1.215897659961753384E-16, 1.000000000000000000, -0.000000000000000000 ) ) ;
#158 = ORIENTED_EDGE ( 'NONE', *, *, #185, .F. ) ;
#159 = CARTESIAN_POINT ( 'NONE',  ( 0.000000000000000000, 0.000000000000000000, 0.000000000000000000 ) ) ;
#160 =( NAMED_UNIT ( * ) SI_UNIT ( $, .STERADIAN. ) SOLID_ANGLE_UNIT ( ) );
#161 = AXIS2_PLACEMENT_3D ( 'NONE', #243, #222, #180 ) ;
#162 = STYLED_ITEM ( 'NONE', ( #22 ), #183 ) ;
#163 = SURFACE_SIDE_STYLE ('',( #88 ) ) ;
#164 = DIMENSIONAL_EXPONENTS ( 1.000000000000000000, 0.000000000000000000, 0.000000000000000000, 0.000000000000000000, 0.000000000000000000, 0.000000000000000000, 0.000000000000000000 ) ;
#165 = DIRECTION ( 'NONE',  ( -4.846790418016532169E-18, -1.000000000000000000, -0.000000000000000000 ) ) ;
#166 = CLOSED_SHELL ( 'NONE', ( #138, #263, #68 ) ) ;
#167 = UNCERTAINTY_MEASURE_WITH_UNIT (LENGTH_MEASURE( 1.000000000000000082E-05 ), #113, 'distance_accuracy_value', 'NONE');
#168 = AXIS2_PLACEMENT_3D ( 'NONE', #59, #57, #44 ) ;
#169 = AXIS2_PLACEMENT_3D ( 'NONE', #175, #90, #224 ) ;
#170 = CIRCLE ( 'NONE', #227, 0.09374999999999998612 ) ;
#171 = DIRECTION ( 'NONE',  ( -1.000000000000000000, 0.000000000000000000, 0.000000000000000000 ) ) ;
#172 = CARTESIAN_POINT ( 'NONE',  ( 0.000000000000000000, 0.000000000000000000, 0.000000000000000000 ) ) ;
#173 = SURFACE_STYLE_FILL_AREA ( #117 ) ;
#174 = CARTESIAN_POINT ( 'NONE',  ( -6.123233995736763571E-17, 2.000000000000000000, 0.000000000000000000 ) ) ;
#175 = CARTESIAN_POINT ( 'NONE',  ( 1.908185203943516727E-16, 39.37007874015748143, 0.000000000000000000 ) ) ;
#176 =( LENGTH_UNIT ( ) NAMED_UNIT ( * ) SI_UNIT ( $, .METRE. ) );
#177 = SURFACE_STYLE_USAGE ( .BOTH. , #235 ) ;
#178 = ORIENTED_EDGE ( 'NONE', *, *, #220, .T. ) ;
#179 = MANIFOLD_SOLID_BREP ( 'Revolve - Cutting Edge', #166 ) ;
#180 = DIRECTION ( 'NONE',  ( -1.000000000000000000, 0.000000000000000000, 0.000000000000000000 ) ) ;
#181 = LENGTH_MEASURE_WITH_UNIT ( LENGTH_MEASURE( 0.02539999999999999897 ), #70 );
#182 = PRESENTATION_STYLE_ASSIGNMENT (( #204 ) ) ;
#183 = MANIFOLD_SOLID_BREP ( 'Revolve - Tool Body (Pointed)', #30 ) ;
#184 = STYLED_ITEM ( 'NONE', ( #40 ), #138 ) ;
#185 = EDGE_CURVE ( 'NONE', #215, #100, #109, .T. ) ;
#186 = ORIENTED_EDGE ( 'NONE', *, *, #139, .T. ) ;
#187 = CARTESIAN_POINT ( 'NONE',  ( 7.870206804039944582E-19, 0.1623797632095817789, 0.000000000000000000 ) ) ;
#188 = STYLED_ITEM ( 'NONE', ( #182 ), #68 ) ;
#189 = EDGE_LOOP ( 'NONE', ( #112, #38 ) ) ;
#190 = CARTESIAN_POINT ( 'NONE',  ( -0.09375000000000012490, 2.000000000000000000, 0.000000000000000000 ) ) ;
#191 = SURFACE_STYLE_USAGE ( .BOTH. , #32 ) ;
#192 = VERTEX_POINT ( 'NONE', #28 ) ;
#193 =( GEOMETRIC_REPRESENTATION_CONTEXT ( 3 ) GLOBAL_UNCERTAINTY_ASSIGNED_CONTEXT ( ( #212 ) ) GLOBAL_UNIT_ASSIGNED_CONTEXT ( ( #144, #149, #201 ) ) REPRESENTATION_CONTEXT ( 'NONE', 'WORKASPACE' ) );
#194 = MECHANICAL_DESIGN_GEOMETRIC_PRESENTATION_REPRESENTATION (  '', ( #184 ), #80 ) ;
#195 = FACE_OUTER_BOUND ( 'NONE', #12, .T. ) ;
#196 = CYLINDRICAL_SURFACE ( 'NONE', #198, 0.09374999999999994449 ) ;
#197 = DIRECTION ( 'NONE',  ( 1.000000000000000000, 0.000000000000000000, 0.000000000000000000 ) ) ;
#198 = AXIS2_PLACEMENT_3D ( 'NONE', #174, #258, #82 ) ;
#199 = EDGE_LOOP ( 'NONE', ( #119, #20, #211 ) ) ;
#200 = LENGTH_MEASURE_WITH_UNIT ( LENGTH_MEASURE( 0.02539999999999999897 ), #232 );
#201 =( NAMED_UNIT ( * ) SI_UNIT ( $, .STERADIAN. ) SOLID_ANGLE_UNIT ( ) );
#202 = FILL_AREA_STYLE ('',( #106 ) ) ;
#203 = CONICAL_SURFACE ( 'NONE', #169, 22.73032555864674364, 0.5235987755983000369 ) ;
#204 = SURFACE_STYLE_USAGE ( .BOTH. , #51 ) ;
#205 = COLOUR_RGB ( '',1.000000000000000000, 0.000000000000000000, 0.000000000000000000 ) ;
#206 = DIRECTION ( 'NONE',  ( -1.000000000000000000, 0.000000000000000000, 0.000000000000000000 ) ) ;
#207 = AXIS2_PLACEMENT_3D ( 'NONE', #172, #256, #197 ) ;
#208 = FACE_OUTER_BOUND ( 'NONE', #229, .T. ) ;
#209 = DIRECTION ( 'NONE',  ( -1.000000000000000000, 0.000000000000000000, 0.000000000000000000 ) ) ;
#210 = APPLICATION_CONTEXT ( 'automotive_design' ) ;
#211 = ORIENTED_EDGE ( 'NONE', *, *, #48, .T. ) ;
#212 = UNCERTAINTY_MEASURE_WITH_UNIT (LENGTH_MEASURE( 1.000000000000000082E-05 ), #144, 'distance_accuracy_value', 'NONE');
#213 = DIRECTION ( 'NONE',  ( -1.000000000000000000, -1.215897659961753384E-16, 0.000000000000000000 ) ) ;
#214 = PRODUCT_DEFINITION_SHAPE ( 'NONE', 'NONE',  #147 ) ;
#215 = VERTEX_POINT ( 'NONE', #190 ) ;
#216 = CARTESIAN_POINT ( 'NONE',  ( 1.908185203943516727E-16, 39.37007874015748143, 0.000000000000000000 ) ) ;
#217 = AXIS2_PLACEMENT_3D ( 'NONE', #35, #98, #171 ) ;
#218 =( GEOMETRIC_REPRESENTATION_CONTEXT ( 3 ) GLOBAL_UNCERTAINTY_ASSIGNED_CONTEXT ( ( #257 ) ) GLOBAL_UNIT_ASSIGNED_CONTEXT ( ( #1, #223, #45 ) ) REPRESENTATION_CONTEXT ( 'NONE', 'WORKASPACE' ) );
#219 = LENGTH_MEASURE_WITH_UNIT ( LENGTH_MEASURE( 0.02539999999999999897 ), #104 );
#220 = EDGE_CURVE ( 'NONE', #60, #100, #74, .T. ) ;
#221 = LINE ( 'NONE', #121, #154 ) ;
#222 = DIRECTION ( 'NONE',  ( -1.215897659961753384E-16, 1.000000000000000000, -0.000000000000000000 ) ) ;
#223 =( NAMED_UNIT ( * ) PLANE_ANGLE_UNIT ( ) SI_UNIT ( $, .RADIAN. ) );
#224 = DIRECTION ( 'NONE',  ( -1.000000000000000000, 0.000000000000000000, 0.000000000000000000 ) ) ;
#225 = UNCERTAINTY_MEASURE_WITH_UNIT (LENGTH_MEASURE( 1.000000000000000082E-05 ), #107, 'distance_accuracy_value', 'NONE');
#226 =( NAMED_UNIT ( * ) PLANE_ANGLE_UNIT ( ) SI_UNIT ( $, .RADIAN. ) );
#227 = AXIS2_PLACEMENT_3D ( 'NONE', #187, #165, #53 ) ;
#228 = SURFACE_STYLE_FILL_AREA ( #150 ) ;
#229 = EDGE_LOOP ( 'NONE', ( #83, #77 ) ) ;
#230 = CARTESIAN_POINT ( 'NONE',  ( 0.09374999999999998612, 2.000000000000000000, 0.000000000000000000 ) ) ;
#231 = EDGE_LOOP ( 'NONE', ( #130, #6 ) ) ;
#232 =( LENGTH_UNIT ( ) NAMED_UNIT ( * ) SI_UNIT ( $, .METRE. ) );
#233 = ORIENTED_EDGE ( 'NONE', *, *, #13, .F. ) ;
#234 = AXIS2_PLACEMENT_3D ( 'NONE', #216, #63, #37 ) ;
#235 = SURFACE_SIDE_STYLE ('',( #173 ) ) ;
#236 = DIRECTION ( 'NONE',  ( -1.215897659961753384E-16, 1.000000000000000000, 0.000000000000000000 ) ) ;
#237 = PRODUCT_CONTEXT ( 'NONE', #210, 'mechanical' ) ;
#238 = FILL_AREA_STYLE_COLOUR ( '', #89 ) ;
#239 = LENGTH_MEASURE_WITH_UNIT ( LENGTH_MEASURE( 0.02539999999999999897 ), #176 );
#240 = LINE ( 'NONE', #159, #55 ) ;
#241 = PRESENTATION_LAYER_ASSIGNMENT (  '', '', ( #188 ) ) ;
#242 = MECHANICAL_DESIGN_GEOMETRIC_PRESENTATION_REPRESENTATION (  '', ( #69 ), #134 ) ;
#243 = CARTESIAN_POINT ( 'NONE',  ( 1.622034746238156224E-16, 0.1623797632095817234, 0.000000000000000000 ) ) ;
#244 = APPLICATION_CONTEXT ( 'automotive_design' ) ;
#245 = FILL_AREA_STYLE_COLOUR ( '', #42 ) ;
#246 = EDGE_CURVE ( 'NONE', #14, #136, #170, .T. ) ;
#247 = LINE ( 'NONE', #3, #46 ) ;
#248 = PRESENTATION_STYLE_ASSIGNMENT (( #24 ) ) ;
#249 = DIMENSIONAL_EXPONENTS ( 1.000000000000000000, 0.000000000000000000, 0.000000000000000000, 0.000000000000000000, 0.000000000000000000, 0.000000000000000000, 0.000000000000000000 ) ;
#250 =( GEOMETRIC_REPRESENTATION_CONTEXT ( 3 ) GLOBAL_UNCERTAINTY_ASSIGNED_CONTEXT ( ( #133 ) ) GLOBAL_UNIT_ASSIGNED_CONTEXT ( ( #148, #226, #128 ) ) REPRESENTATION_CONTEXT ( 'NONE', 'WORKASPACE' ) );
#251 = DIRECTION ( 'NONE',  ( -1.215897659961753384E-16, 1.000000000000000000, -0.000000000000000000 ) ) ;
#252 = AXIS2_PLACEMENT_3D ( 'NONE', #21, #142, #206 ) ;
#253 = ORIENTED_EDGE ( 'NONE', *, *, #5, .T. ) ;
#254 = ADVANCED_FACE ( 'NONE', ( #129 ), #151, .F. ) ;
#255 = DIRECTION ( 'NONE',  ( -1.215897659961753384E-16, 1.000000000000000000, -0.000000000000000000 ) ) ;
#256 = DIRECTION ( 'NONE',  ( 0.000000000000000000, 0.000000000000000000, 1.000000000000000000 ) ) ;
#257 = UNCERTAINTY_MEASURE_WITH_UNIT (LENGTH_MEASURE( 1.000000000000000082E-05 ), #1, 'distance_accuracy_value', 'NONE');
#258 = DIRECTION ( 'NONE',  ( -1.215897659961753384E-16, 1.000000000000000000, -0.000000000000000000 ) ) ;
#259 = AXIS2_PLACEMENT_3D ( 'NONE', #135, #157, #16 ) ;
#260 = PLANE ( 'NONE',  #10 ) ;
#261 = PRESENTATION_LAYER_ASSIGNMENT (  '', '', ( #118 ) ) ;
#262 = CARTESIAN_POINT ( 'NONE',  ( 0.000000000000000000, 0.000000000000000000, 0.000000000000000000 ) ) ;
#263 = ADVANCED_FACE ( 'NONE', ( #208 ), #75, .T. ) ;
#264 = CARTESIAN_POINT ( 'NONE',  ( 7.870206804039943619E-19, 0.1623797632095817789, 0.000000000000000000 ) ) ;
#265 = DIRECTION ( 'NONE',  ( 0.5000000000000009992, 0.8660254037844380415, 6.123233995736778362E-17 ) ) ;
ENDSEC;
END-ISO-10303-21;
