ISO-10303-21;
HEADER;
FILE_DESCRIPTION (( 'STEP AP214' ),
    '1' );
FILE_NAME ('Micro_SFBM-020-9.STEP',
    '2021-09-03T16:39:38',
    ( '' ),
    ( '' ),
    'SwSTEP 2.0',
    'SolidWorks 2020',
    '' );
FILE_SCHEMA (( 'AUTOMOTIVE_DESIGN' ));
ENDSEC;

DATA;
#1 = CARTESIAN_POINT ( 'NONE',  ( 0.0000000000000000000, 0.0000000000000000000, 0.0000000000000000000 ) ) ;
#2 = AXIS2_PLACEMENT_3D ( 'NONE', #372, #104, #347 ) ;
#3 = CARTESIAN_POINT ( 'NONE',  ( 0.0000000000000000000, 0.0000000000000000000, 0.0000000000000000000 ) ) ;
#4 = VERTEX_POINT ( 'NONE', #349 ) ;
#5 = DIRECTION ( 'NONE',  ( -0.0000000000000000000, 0.0000000000000000000, -1.000000000000000000 ) ) ;
#6 = ADVANCED_FACE ( 'NONE', ( #171 ), #15, .T. ) ;
#7 = EDGE_CURVE ( 'NONE', #189, #302, #282, .T. ) ;
#8 = CARTESIAN_POINT ( 'NONE',  ( 0.0000000000000000000, 0.0000000000000000000, 2.244094000000000033 ) ) ;
#9 = EDGE_CURVE ( 'NONE', #302, #37, #173, .T. ) ;
#10 = PLANE ( 'NONE',  #42 ) ;
#11 = EDGE_LOOP ( 'NONE', ( #68, #221, #259, #95 ) ) ;
#12 = DIRECTION ( 'NONE',  ( -1.000000000000000000, 0.0000000000000000000, 0.0000000000000000000 ) ) ;
#13 = DIRECTION ( 'NONE',  ( -1.000000000000000000, 0.0000000000000000000, 0.0000000000000000000 ) ) ;
#14 = LINE ( 'NONE', #352, #100 ) ;
#15 = PLANE ( 'NONE',  #170 ) ;
#16 = ORIENTED_EDGE ( 'NONE', *, *, #116, .T. ) ;
#17 = SHAPE_DEFINITION_REPRESENTATION ( #334, #201 ) ;
#18 = AXIS2_PLACEMENT_3D ( 'NONE', #3, #320, #197 ) ;
#19 = CARTESIAN_POINT ( 'NONE',  ( 0.0000000000000000000, 0.0000000000000000000, 2.244094000000000033 ) ) ;
#20 = SURFACE_STYLE_FILL_AREA ( #254 ) ;
#21 = AXIS2_PLACEMENT_3D ( 'NONE', #76, #166, #227 ) ;
#22 = VECTOR ( 'NONE', #135, 39.37007874015748143 ) ;
#23 = ORIENTED_EDGE ( 'NONE', *, *, #327, .T. ) ;
#24 = LENGTH_MEASURE_WITH_UNIT ( LENGTH_MEASURE( 0.02539999999999999897 ), #107 );
#25 = CARTESIAN_POINT ( 'NONE',  ( 0.0000000000000000000, 0.0000000000000000000, 2.244094000000000033 ) ) ;
#26 = CARTESIAN_POINT ( 'NONE',  ( 0.0000000000000000000, 0.0000000000000000000, 2.244094000000000033 ) ) ;
#27 = CARTESIAN_POINT ( 'NONE',  ( 0.0000000000000000000, 0.0000000000000000000, 0.0000000000000000000 ) ) ;
#28 = AXIS2_PLACEMENT_3D ( 'NONE', #97, #311, #44 ) ;
#29 = ADVANCED_FACE ( 'NONE', ( #136 ), #161, .T. ) ;
#30 =( NAMED_UNIT ( * ) SI_UNIT ( $, .STERADIAN. ) SOLID_ANGLE_UNIT ( ) );
#31 = DIRECTION ( 'NONE',  ( -0.0000000000000000000, -0.0000000000000000000, -1.000000000000000000 ) ) ;
#32 = ORIENTED_EDGE ( 'NONE', *, *, #35, .F. ) ;
#33 = FACE_OUTER_BOUND ( 'NONE', #160, .T. ) ;
#34 = VERTEX_POINT ( 'NONE', #192 ) ;
#35 = EDGE_CURVE ( 'NONE', #4, #189, #290, .T. ) ;
#36 = AXIS2_PLACEMENT_3D ( 'NONE', #19, #43, #284 ) ;
#37 = VERTEX_POINT ( 'NONE', #144 ) ;
#38 =( GEOMETRIC_REPRESENTATION_CONTEXT ( 3 ) GLOBAL_UNCERTAINTY_ASSIGNED_CONTEXT ( ( #78 ) ) GLOBAL_UNIT_ASSIGNED_CONTEXT ( ( #228, #79, #30 ) ) REPRESENTATION_CONTEXT ( 'NONE', 'WORKASPACE' ) );
#39 = EDGE_LOOP ( 'NONE', ( #127, #365, #119, #278 ) ) ;
#40 = VERTEX_POINT ( 'NONE', #375 ) ;
#41 = ORIENTED_EDGE ( 'NONE', *, *, #149, .T. ) ;
#42 = AXIS2_PLACEMENT_3D ( 'NONE', #27, #298, #143 ) ;
#43 = DIRECTION ( 'NONE',  ( -0.0000000000000000000, -0.0000000000000000000, -1.000000000000000000 ) ) ;
#44 = DIRECTION ( 'NONE',  ( 1.000000000000000000, 0.0000000000000000000, 0.0000000000000000000 ) ) ;
#45 = ORIENTED_EDGE ( 'NONE', *, *, #7, .F. ) ;
#46 = VERTEX_POINT ( 'NONE', #190 ) ;
#47 = VECTOR ( 'NONE', #319, 39.37007874015748854 ) ;
#48 = FACE_OUTER_BOUND ( 'NONE', #39, .T. ) ;
#49 = UNCERTAINTY_MEASURE_WITH_UNIT (LENGTH_MEASURE( 1.000000000000000082E-05 ), #378, 'distance_accuracy_value', 'NONE');
#50 = CARTESIAN_POINT ( 'NONE',  ( 0.0000000000000000000, 0.0000000000000000000, 0.0000000000000000000 ) ) ;
#51 = CARTESIAN_POINT ( 'NONE',  ( 0.1031100000000002570, 1.354581824536888722E-17, 2.244094000000000033 ) ) ;
#52 = DIRECTION ( 'NONE',  ( 0.0000000000000000000, 0.0000000000000000000, -1.000000000000000000 ) ) ;
#53 = EDGE_CURVE ( 'NONE', #46, #40, #315, .T. ) ;
#54 = EDGE_CURVE ( 'NONE', #312, #303, #300, .T. ) ;
#55 = CARTESIAN_POINT ( 'NONE',  ( -0.03838600000000005202, 0.0000000000000000000, 0.3740160000000000151 ) ) ;
#56 = CIRCLE ( 'NONE', #359, 0.1181100000000000066 ) ;
#57 = LINE ( 'NONE', #81, #178 ) ;
#58 = EDGE_LOOP ( 'NONE', ( #185, #280 ) ) ;
#59 = PLANE ( 'NONE',  #132 ) ;
#60 = VERTEX_POINT ( 'NONE', #313 ) ;
#61 = MANIFOLD_SOLID_BREP ( 'Cut-Revolve1', #240 ) ;
#62 = DIRECTION ( 'NONE',  ( 0.0000000000000000000, 0.0000000000000000000, 1.000000000000000000 ) ) ;
#63 = AXIS2_PLACEMENT_3D ( 'NONE', #373, #285, #139 ) ;
#64 = ORIENTED_EDGE ( 'NONE', *, *, #113, .F. ) ;
#65 = ORIENTED_EDGE ( 'NONE', *, *, #235, .T. ) ;
#66 = CARTESIAN_POINT ( 'NONE',  ( 0.0000000000000000000, 0.0000000000000000000, 2.229093999999999465 ) ) ;
#67 = CARTESIAN_POINT ( 'NONE',  ( -0.1031100000000002570, 0.0000000000000000000, 2.244094000000000033 ) ) ;
#68 = ORIENTED_EDGE ( 'NONE', *, *, #116, .F. ) ;
#69 = ORIENTED_EDGE ( 'NONE', *, *, #276, .T. ) ;
#70 = AXIS2_PLACEMENT_3D ( 'NONE', #25, #331, #296 ) ;
#71 = ADVANCED_FACE ( 'NONE', ( #230 ), #130, .T. ) ;
#72 = DIRECTION ( 'NONE',  ( 0.1736481776669304700, 2.126576849575773147E-17, -0.9848077530122080203 ) ) ;
#73 = ORIENTED_EDGE ( 'NONE', *, *, #115, .T. ) ;
#74 = CARTESIAN_POINT ( 'NONE',  ( 0.03936606300000000669, 4.820952304798306567E-18, 0.0000000000000000000 ) ) ;
#75 = FACE_OUTER_BOUND ( 'NONE', #219, .T. ) ;
#76 = CARTESIAN_POINT ( 'NONE',  ( 0.0000000000000000000, 0.0000000000000000000, 0.3740160000000000151 ) ) ;
#77 = AXIS2_PLACEMENT_3D ( 'NONE', #263, #147, #13 ) ;
#78 = UNCERTAINTY_MEASURE_WITH_UNIT (LENGTH_MEASURE( 1.000000000000000082E-05 ), #228, 'distance_accuracy_value', 'NONE');
#79 =( NAMED_UNIT ( * ) PLANE_ANGLE_UNIT ( ) SI_UNIT ( $, .RADIAN. ) );
#80 = DIRECTION ( 'NONE',  ( -1.000000000000000000, 0.0000000000000000000, 0.0000000000000000000 ) ) ;
#81 = CARTESIAN_POINT ( 'NONE',  ( -0.03936606300000000669, 0.0000000000000000000, 0.0000000000000000000 ) ) ;
#82 = PRESENTATION_LAYER_ASSIGNMENT (  '', '', ( #152 ) ) ;
#83 = DIRECTION ( 'NONE',  ( -0.0000000000000000000, -0.0000000000000000000, -1.000000000000000000 ) ) ;
#84 = ORIENTED_EDGE ( 'NONE', *, *, #7, .T. ) ;
#85 = EDGE_LOOP ( 'NONE', ( #271, #69, #336, #191 ) ) ;
#86 = LINE ( 'NONE', #333, #337 ) ;
#87 = VERTEX_POINT ( 'NONE', #176 ) ;
#88 = ORIENTED_EDGE ( 'NONE', *, *, #199, .T. ) ;
#89 = AXIS2_PLACEMENT_3D ( 'NONE', #50, #222, #165 ) ;
#90 = AXIS2_PLACEMENT_3D ( 'NONE', #286, #83, #238 ) ;
#91 = EDGE_CURVE ( 'NONE', #339, #60, #251, .T. ) ;
#92 =( CONVERSION_BASED_UNIT ( 'INCH', #304 ) LENGTH_UNIT ( ) NAMED_UNIT ( #214 ) );
#93 = ORIENTED_EDGE ( 'NONE', *, *, #129, .T. ) ;
#94 = DIRECTION ( 'NONE',  ( -1.000000000000000000, 0.0000000000000000000, 0.0000000000000000000 ) ) ;
#95 = ORIENTED_EDGE ( 'NONE', *, *, #91, .F. ) ;
#96 = DIRECTION ( 'NONE',  ( -0.0000000000000000000, -0.0000000000000000000, -1.000000000000000000 ) ) ;
#97 = CARTESIAN_POINT ( 'NONE',  ( 0.0000000000000000000, 0.0000000000000000000, 2.244094000000000033 ) ) ;
#98 = FILL_AREA_STYLE_COLOUR ( '', #281 ) ;
#99 = AXIS2_PLACEMENT_3D ( 'NONE', #169, #105, #344 ) ;
#100 = VECTOR ( 'NONE', #260, 39.37007874015748143 ) ;
#101 = CARTESIAN_POINT ( 'NONE',  ( -0.03838600000000003121, 0.0000000000000000000, 0.0000000000000000000 ) ) ;
#102 = SURFACE_STYLE_USAGE ( .BOTH. , #353 ) ;
#103 = EDGE_LOOP ( 'NONE', ( #32, #345, #183, #64 ) ) ;
#104 = DIRECTION ( 'NONE',  ( 0.0000000000000000000, 0.0000000000000000000, 1.000000000000000000 ) ) ;
#105 = DIRECTION ( 'NONE',  ( -0.0000000000000000000, -0.0000000000000000000, -1.000000000000000000 ) ) ;
#106 = DIRECTION ( 'NONE',  ( -0.0000000000000000000, -0.0000000000000000000, -1.000000000000000000 ) ) ;
#107 =( LENGTH_UNIT ( ) NAMED_UNIT ( * ) SI_UNIT ( $, .METRE. ) );
#108 = CARTESIAN_POINT ( 'NONE',  ( 0.0000000000000000000, 0.0000000000000000000, 2.244094000000000033 ) ) ;
#109 = DIRECTION ( 'NONE',  ( -0.7071067811865358044, 0.0000000000000000000, -0.7071067811865590080 ) ) ;
#110 = CIRCLE ( 'NONE', #258, 0.03936606300000000669 ) ;
#111 = CARTESIAN_POINT ( 'NONE',  ( -0.03936606300000000669, 0.0000000000000000000, 0.09842500000000001248 ) ) ;
#112 = CARTESIAN_POINT ( 'NONE',  ( 0.03936606300000000669, 4.820952304798306567E-18, 0.0000000000000000000 ) ) ;
#113 = EDGE_CURVE ( 'NONE', #189, #40, #187, .T. ) ;
#114 = VERTEX_POINT ( 'NONE', #67 ) ;
#115 = EDGE_CURVE ( 'NONE', #46, #4, #317, .T. ) ;
#116 = EDGE_CURVE ( 'NONE', #151, #339, #351, .T. ) ;
#117 = AXIS2_PLACEMENT_3D ( 'NONE', #338, #62, #213 ) ;
#118 = CARTESIAN_POINT ( 'NONE',  ( 0.0000000000000000000, 0.0000000000000000000, 0.09842500000000001248 ) ) ;
#119 = ORIENTED_EDGE ( 'NONE', *, *, #236, .T. ) ;
#120 = DIRECTION ( 'NONE',  ( -1.000000000000000000, 0.0000000000000000000, 0.0000000000000000000 ) ) ;
#121 = PRODUCT_DEFINITION_FORMATION_WITH_SPECIFIED_SOURCE ( 'ANY', '', #243, .NOT_KNOWN. ) ;
#122 = PRODUCT_RELATED_PRODUCT_CATEGORY ( 'part', '', ( #243 ) ) ;
#123 = SURFACE_STYLE_FILL_AREA ( #270 ) ;
#124 = ORIENTED_EDGE ( 'NONE', *, *, #327, .F. ) ;
#125 = CIRCLE ( 'NONE', #2, 0.1031100000000002570 ) ;
#126 = ORIENTED_EDGE ( 'NONE', *, *, #236, .F. ) ;
#127 = ORIENTED_EDGE ( 'NONE', *, *, #140, .F. ) ;
#128 = LINE ( 'NONE', #186, #329 ) ;
#129 = EDGE_CURVE ( 'NONE', #37, #302, #262, .T. ) ;
#130 = CONICAL_SURFACE ( 'NONE', #273, 0.1031100000000002570, 0.7853981633974318477 ) ;
#131 = ORIENTED_EDGE ( 'NONE', *, *, #113, .T. ) ;
#132 = AXIS2_PLACEMENT_3D ( 'NONE', #208, #5, #361 ) ;
#133 = DIRECTION ( 'NONE',  ( -0.0000000000000000000, -0.0000000000000000000, -1.000000000000000000 ) ) ;
#134 = DIMENSIONAL_EXPONENTS ( 1.000000000000000000, 0.0000000000000000000, 0.0000000000000000000, 0.0000000000000000000, 0.0000000000000000000, 0.0000000000000000000, 0.0000000000000000000 ) ;
#135 = DIRECTION ( 'NONE',  ( -0.0000000000000000000, -0.0000000000000000000, -1.000000000000000000 ) ) ;
#136 = FACE_OUTER_BOUND ( 'NONE', #85, .T. ) ;
#137 = FACE_OUTER_BOUND ( 'NONE', #265, .T. ) ;
#138 = EDGE_CURVE ( 'NONE', #114, #60, #287, .T. ) ;
#139 = DIRECTION ( 'NONE',  ( -1.000000000000000000, 0.0000000000000000000, 0.0000000000000000000 ) ) ;
#140 = EDGE_CURVE ( 'NONE', #339, #87, #128, .T. ) ;
#141 = FACE_OUTER_BOUND ( 'NONE', #267, .T. ) ;
#142 = AXIS2_PLACEMENT_3D ( 'NONE', #252, #289, #374 ) ;
#143 = DIRECTION ( 'NONE',  ( 1.000000000000000000, 0.0000000000000000000, -0.0000000000000000000 ) ) ;
#144 = CARTESIAN_POINT ( 'NONE',  ( -0.03936606300000000669, 0.0000000000000000000, 0.0000000000000000000 ) ) ;
#145 = VECTOR ( 'NONE', #109, 39.37007874015748854 ) ;
#146 = CONICAL_SURFACE ( 'NONE', #368, 0.1031100000000002570, 0.7853981633974318477 ) ;
#147 = DIRECTION ( 'NONE',  ( -0.0000000000000000000, -0.0000000000000000000, -1.000000000000000000 ) ) ;
#148 = FACE_OUTER_BOUND ( 'NONE', #342, .T. ) ;
#149 = EDGE_CURVE ( 'NONE', #114, #151, #155, .T. ) ;
#150 = CYLINDRICAL_SURFACE ( 'NONE', #364, 0.03936606300000000669 ) ;
#151 = VERTEX_POINT ( 'NONE', #51 ) ;
#152 = STYLED_ITEM ( 'NONE', ( #341 ), #201 ) ;
#153 = EDGE_LOOP ( 'NONE', ( #41, #88 ) ) ;
#154 = ORIENTED_EDGE ( 'NONE', *, *, #35, .T. ) ;
#155 = CIRCLE ( 'NONE', #28, 0.1031100000000002570 ) ;
#156 =( NAMED_UNIT ( * ) PLANE_ANGLE_UNIT ( ) SI_UNIT ( $, .RADIAN. ) );
#157 = AXIS2_PLACEMENT_3D ( 'NONE', #1, #261, #357 ) ;
#158 = ORIENTED_EDGE ( 'NONE', *, *, #129, .F. ) ;
#159 = DIRECTION ( 'NONE',  ( -0.1736481776669304700, 0.0000000000000000000, -0.9848077530122080203 ) ) ;
#160 = EDGE_LOOP ( 'NONE', ( #283, #16, #366, #239 ) ) ;
#161 = CYLINDRICAL_SURFACE ( 'NONE', #99, 0.03838600000000003121 ) ;
#162 = EDGE_CURVE ( 'NONE', #312, #46, #346, .T. ) ;
#163 = CYLINDRICAL_SURFACE ( 'NONE', #36, 0.1181100000000000066 ) ;
#164 = FACE_OUTER_BOUND ( 'NONE', #193, .T. ) ;
#165 = DIRECTION ( 'NONE',  ( -1.000000000000000000, 0.0000000000000000000, 0.0000000000000000000 ) ) ;
#166 = DIRECTION ( 'NONE',  ( -0.0000000000000000000, -0.0000000000000000000, -1.000000000000000000 ) ) ;
#167 = DIRECTION ( 'NONE',  ( 1.000000000000000000, 0.0000000000000000000, 0.0000000000000000000 ) ) ;
#168 = CARTESIAN_POINT ( 'NONE',  ( 0.0000000000000000000, 0.0000000000000000000, 0.09842500000000001248 ) ) ;
#169 = CARTESIAN_POINT ( 'NONE',  ( 0.0000000000000000000, 0.0000000000000000000, 0.0000000000000000000 ) ) ;
#170 = AXIS2_PLACEMENT_3D ( 'NONE', #26, #310, #250 ) ;
#171 = FACE_OUTER_BOUND ( 'NONE', #153, .T. ) ;
#172 = EDGE_CURVE ( 'NONE', #34, #87, #318, .T. ) ;
#173 = CIRCLE ( 'NONE', #18, 0.03936606300000000669 ) ;
#174 = DIRECTION ( 'NONE',  ( -0.0000000000000000000, -0.0000000000000000000, -1.000000000000000000 ) ) ;
#175 = ORIENTED_EDGE ( 'NONE', *, *, #172, .T. ) ;
#176 = CARTESIAN_POINT ( 'NONE',  ( 0.1181100000000000066, 1.446430334472939084E-17, 0.3740159999999999041 ) ) ;
#177 = ADVANCED_FACE ( 'NONE', ( #141 ), #218, .T. ) ;
#178 = VECTOR ( 'NONE', #174, 39.37007874015748143 ) ;
#179 = SURFACE_SIDE_STYLE ('',( #123 ) ) ;
#180 = ORIENTED_EDGE ( 'NONE', *, *, #348, .T. ) ;
#181 = ORIENTED_EDGE ( 'NONE', *, *, #348, .F. ) ;
#182 =( NAMED_UNIT ( * ) SI_UNIT ( $, .STERADIAN. ) SOLID_ANGLE_UNIT ( ) );
#183 = ORIENTED_EDGE ( 'NONE', *, *, #53, .T. ) ;
#184 =( NAMED_UNIT ( * ) PLANE_ANGLE_UNIT ( ) SI_UNIT ( $, .RADIAN. ) );
#185 = ORIENTED_EDGE ( 'NONE', *, *, #54, .F. ) ;
#186 = CARTESIAN_POINT ( 'NONE',  ( 0.1181100000000000066, 1.446430334472939084E-17, 2.244094000000000033 ) ) ;
#187 = CIRCLE ( 'NONE', #215, 0.03936606300000000669 ) ;
#188 = AXIS2_PLACEMENT_3D ( 'NONE', #376, #106, #350 ) ;
#189 = VERTEX_POINT ( 'NONE', #207 ) ;
#190 = CARTESIAN_POINT ( 'NONE',  ( -0.03838600000000001733, 0.0000000000000000000, 0.1039832134739799296 ) ) ;
#191 = ORIENTED_EDGE ( 'NONE', *, *, #322, .F. ) ;
#192 = CARTESIAN_POINT ( 'NONE',  ( -0.1181100000000000066, 0.0000000000000000000, 0.3740159999999999041 ) ) ;
#193 = EDGE_LOOP ( 'NONE', ( #175, #217 ) ) ;
#194 = ADVANCED_FACE ( 'NONE', ( #324 ), #241, .T. ) ;
#195 = CARTESIAN_POINT ( 'NONE',  ( 0.0000000000000000000, 0.0000000000000000000, 0.09842500000000001248 ) ) ;
#196 = CARTESIAN_POINT ( 'NONE',  ( 0.1031100000000002570, 1.262733314600838667E-17, 2.244094000000000033 ) ) ;
#197 = DIRECTION ( 'NONE',  ( -1.000000000000000000, 0.0000000000000000000, 0.0000000000000000000 ) ) ;
#198 = CARTESIAN_POINT ( 'NONE',  ( 0.0000000000000000000, 0.0000000000000000000, 0.0000000000000000000 ) ) ;
#199 = EDGE_CURVE ( 'NONE', #151, #114, #125, .T. ) ;
#200 = FACE_OUTER_BOUND ( 'NONE', #268, .T. ) ;
#201 = ADVANCED_BREP_SHAPE_REPRESENTATION ( 'Micro_SFBM-020-9', ( #61, #117 ), #343 ) ;
#202 = DIRECTION ( 'NONE',  ( 0.0000000000000000000, 0.0000000000000000000, -1.000000000000000000 ) ) ;
#203 = COLOUR_RGB ( '',0.7921568627450980005, 0.8196078431372548767, 0.9333333333333333481 ) ;
#204 = AXIS2_PLACEMENT_3D ( 'NONE', #195, #96, #316 ) ;
#205 = ADVANCED_FACE ( 'NONE', ( #75 ), #330, .T. ) ;
#206 = ADVANCED_FACE ( 'NONE', ( #48 ), #163, .T. ) ;
#207 = CARTESIAN_POINT ( 'NONE',  ( 0.03936606300000000669, 4.820952304798306567E-18, 0.09842500000000001248 ) ) ;
#208 = CARTESIAN_POINT ( 'NONE',  ( 0.03838600000000005202, 0.0000000000000000000, 0.3740160000000000151 ) ) ;
#209 = AXIS2_PLACEMENT_3D ( 'NONE', #168, #226, #94 ) ;
#210 = DIRECTION ( 'NONE',  ( 0.0000000000000000000, 0.0000000000000000000, -1.000000000000000000 ) ) ;
#211 = APPLICATION_CONTEXT ( 'automotive_design' ) ;
#212 = CARTESIAN_POINT ( 'NONE',  ( 0.1181100000000000066, 1.446430334472939084E-17, 2.229093999999999465 ) ) ;
#213 = DIRECTION ( 'NONE',  ( 1.000000000000000000, 0.0000000000000000000, 0.0000000000000000000 ) ) ;
#214 = DIMENSIONAL_EXPONENTS ( 1.000000000000000000, 0.0000000000000000000, 0.0000000000000000000, 0.0000000000000000000, 0.0000000000000000000, 0.0000000000000000000, 0.0000000000000000000 ) ;
#215 = AXIS2_PLACEMENT_3D ( 'NONE', #216, #133, #379 ) ;
#216 = CARTESIAN_POINT ( 'NONE',  ( 0.0000000000000000000, 0.0000000000000000000, 0.09842500000000001248 ) ) ;
#217 = ORIENTED_EDGE ( 'NONE', *, *, #301, .T. ) ;
#218 = CYLINDRICAL_SURFACE ( 'NONE', #157, 0.03936606300000000669 ) ;
#219 = EDGE_LOOP ( 'NONE', ( #73, #154, #124, #275 ) ) ;
#220 =( LENGTH_UNIT ( ) NAMED_UNIT ( * ) SI_UNIT ( $, .METRE. ) );
#221 = ORIENTED_EDGE ( 'NONE', *, *, #149, .F. ) ;
#222 = DIRECTION ( 'NONE',  ( -0.0000000000000000000, -0.0000000000000000000, -1.000000000000000000 ) ) ;
#223 = CIRCLE ( 'NONE', #233, 0.03838600000000005202 ) ;
#224 = ORIENTED_EDGE ( 'NONE', *, *, #54, .T. ) ;
#225 = PRESENTATION_STYLE_ASSIGNMENT (( #102 ) ) ;
#226 = DIRECTION ( 'NONE',  ( -0.0000000000000000000, -0.0000000000000000000, -1.000000000000000000 ) ) ;
#227 = DIRECTION ( 'NONE',  ( -1.000000000000000000, 0.0000000000000000000, 0.0000000000000000000 ) ) ;
#228 =( CONVERSION_BASED_UNIT ( 'INCH', #24 ) LENGTH_UNIT ( ) NAMED_UNIT ( #272 ) );
#229 = VECTOR ( 'NONE', #159, 39.37007874015748143 ) ;
#230 = FACE_OUTER_BOUND ( 'NONE', #11, .T. ) ;
#231 = DIRECTION ( 'NONE',  ( -0.0000000000000000000, -0.0000000000000000000, -1.000000000000000000 ) ) ;
#232 = MECHANICAL_DESIGN_GEOMETRIC_PRESENTATION_REPRESENTATION (  '', ( #371 ), #38 ) ;
#233 = AXIS2_PLACEMENT_3D ( 'NONE', #293, #321, #80 ) ;
#234 = ADVANCED_FACE ( 'NONE', ( #137 ), #340, .T. ) ;
#235 = EDGE_CURVE ( 'NONE', #60, #339, #56, .T. ) ;
#236 = EDGE_CURVE ( 'NONE', #60, #34, #14, .T. ) ;
#237 = DIRECTION ( 'NONE',  ( -0.0000000000000000000, -0.0000000000000000000, -1.000000000000000000 ) ) ;
#238 = DIRECTION ( 'NONE',  ( -1.000000000000000000, 0.0000000000000000000, 0.0000000000000000000 ) ) ;
#239 = ORIENTED_EDGE ( 'NONE', *, *, #138, .F. ) ;
#240 = CLOSED_SHELL ( 'NONE', ( #177, #234, #205, #244, #356, #206, #6, #71, #309, #194, #29, #288, #306 ) ) ;
#241 = CONICAL_SURFACE ( 'NONE', #209, 0.03936606300000000669, 0.1745329251994330866 ) ;
#242 =( LENGTH_UNIT ( ) NAMED_UNIT ( * ) SI_UNIT ( $, .METRE. ) );
#243 = PRODUCT ( 'Micro_SFBM-020-9', 'Micro_SFBM-020-9', '', ( #335 ) ) ;
#244 = ADVANCED_FACE ( 'NONE', ( #33 ), #146, .T. ) ;
#245 = ORIENTED_EDGE ( 'NONE', *, *, #140, .T. ) ;
#246 = VECTOR ( 'NONE', #253, 39.37007874015748143 ) ;
#247 = ORIENTED_EDGE ( 'NONE', *, *, #9, .T. ) ;
#248 = ORIENTED_EDGE ( 'NONE', *, *, #115, .F. ) ;
#249 = CIRCLE ( 'NONE', #90, 0.03838600000000001733 ) ;
#250 = DIRECTION ( 'NONE',  ( 1.000000000000000000, 0.0000000000000000000, -0.0000000000000000000 ) ) ;
#251 = CIRCLE ( 'NONE', #360, 0.1181100000000000066 ) ;
#252 = CARTESIAN_POINT ( 'NONE',  ( 0.0000000000000000000, 0.0000000000000000000, 0.3740159999999999041 ) ) ;
#253 = DIRECTION ( 'NONE',  ( -0.0000000000000000000, -0.0000000000000000000, -1.000000000000000000 ) ) ;
#254 = FILL_AREA_STYLE ('',( #279 ) ) ;
#255 = LENGTH_MEASURE_WITH_UNIT ( LENGTH_MEASURE( 0.02539999999999999897 ), #242 );
#256 = CARTESIAN_POINT ( 'NONE',  ( -0.1031100000000002570, 0.0000000000000000000, 2.244094000000000033 ) ) ;
#257 = CARTESIAN_POINT ( 'NONE',  ( 0.03936606300000000669, 4.820952304798306567E-18, 0.09842500000000001248 ) ) ;
#258 = AXIS2_PLACEMENT_3D ( 'NONE', #118, #237, #328 ) ;
#259 = ORIENTED_EDGE ( 'NONE', *, *, #138, .T. ) ;
#260 = DIRECTION ( 'NONE',  ( -0.0000000000000000000, -0.0000000000000000000, -1.000000000000000000 ) ) ;
#261 = DIRECTION ( 'NONE',  ( -0.0000000000000000000, -0.0000000000000000000, -1.000000000000000000 ) ) ;
#262 = CIRCLE ( 'NONE', #89, 0.03936606300000000669 ) ;
#263 = CARTESIAN_POINT ( 'NONE',  ( 0.0000000000000000000, 0.0000000000000000000, 0.3740159999999999041 ) ) ;
#264 = FACE_OUTER_BOUND ( 'NONE', #305, .T. ) ;
#265 = EDGE_LOOP ( 'NONE', ( #224, #269, #248, #332 ) ) ;
#266 = SURFACE_STYLE_USAGE ( .BOTH. , #179 ) ;
#267 = EDGE_LOOP ( 'NONE', ( #23, #84, #158, #181 ) ) ;
#268 = EDGE_LOOP ( 'NONE', ( #45, #131, #180, #362 ) ) ;
#269 = ORIENTED_EDGE ( 'NONE', *, *, #369, .T. ) ;
#270 = FILL_AREA_STYLE ('',( #98 ) ) ;
#271 = ORIENTED_EDGE ( 'NONE', *, *, #369, .F. ) ;
#272 = DIMENSIONAL_EXPONENTS ( 1.000000000000000000, 0.0000000000000000000, 0.0000000000000000000, 0.0000000000000000000, 0.0000000000000000000, 0.0000000000000000000, 0.0000000000000000000 ) ;
#273 = AXIS2_PLACEMENT_3D ( 'NONE', #8, #294, #12 ) ;
#274 = CIRCLE ( 'NONE', #77, 0.1181100000000000066 ) ;
#275 = ORIENTED_EDGE ( 'NONE', *, *, #53, .F. ) ;
#276 = EDGE_CURVE ( 'NONE', #303, #312, #223, .T. ) ;
#277 = APPLICATION_PROTOCOL_DEFINITION ( 'draft international standard', 'automotive_design', 1998, #211 ) ;
#278 = ORIENTED_EDGE ( 'NONE', *, *, #301, .F. ) ;
#279 = FILL_AREA_STYLE_COLOUR ( '', #203 ) ;
#280 = ORIENTED_EDGE ( 'NONE', *, *, #276, .F. ) ;
#281 = COLOUR_RGB ( '',0.7921568627450980005, 0.8196078431372548767, 0.9333333333333333481 ) ;
#282 = LINE ( 'NONE', #74, #246 ) ;
#283 = ORIENTED_EDGE ( 'NONE', *, *, #199, .F. ) ;
#284 = DIRECTION ( 'NONE',  ( -1.000000000000000000, 0.0000000000000000000, 0.0000000000000000000 ) ) ;
#285 = DIRECTION ( 'NONE',  ( -0.0000000000000000000, -0.0000000000000000000, -1.000000000000000000 ) ) ;
#286 = CARTESIAN_POINT ( 'NONE',  ( 0.0000000000000000000, 0.0000000000000000000, 0.1039832134739799296 ) ) ;
#287 = LINE ( 'NONE', #256, #145 ) ;
#288 = ADVANCED_FACE ( 'NONE', ( #200 ), #150, .T. ) ;
#289 = DIRECTION ( 'NONE',  ( -0.0000000000000000000, -0.0000000000000000000, -1.000000000000000000 ) ) ;
#290 = LINE ( 'NONE', #257, #325 ) ;
#291 = CARTESIAN_POINT ( 'NONE',  ( 0.03838600000000005202, 4.700929203207035352E-18, 0.3740160000000000151 ) ) ;
#292 = UNCERTAINTY_MEASURE_WITH_UNIT (LENGTH_MEASURE( 1.000000000000000082E-05 ), #92, 'distance_accuracy_value', 'NONE');
#293 = CARTESIAN_POINT ( 'NONE',  ( 0.0000000000000000000, 0.0000000000000000000, 0.3740160000000000151 ) ) ;
#294 = DIRECTION ( 'NONE',  ( 0.0000000000000000000, 0.0000000000000000000, -1.000000000000000000 ) ) ;
#295 = MECHANICAL_DESIGN_GEOMETRIC_PRESENTATION_REPRESENTATION (  '', ( #152 ), #308 ) ;
#296 = DIRECTION ( 'NONE',  ( -1.000000000000000000, 0.0000000000000000000, 0.0000000000000000000 ) ) ;
#297 = ORIENTED_EDGE ( 'NONE', *, *, #172, .F. ) ;
#298 = DIRECTION ( 'NONE',  ( 0.0000000000000000000, 0.0000000000000000000, 1.000000000000000000 ) ) ;
#299 =( NAMED_UNIT ( * ) SI_UNIT ( $, .STERADIAN. ) SOLID_ANGLE_UNIT ( ) );
#300 = CIRCLE ( 'NONE', #21, 0.03838600000000005202 ) ;
#301 = EDGE_CURVE ( 'NONE', #87, #34, #274, .T. ) ;
#302 = VERTEX_POINT ( 'NONE', #112 ) ;
#303 = VERTEX_POINT ( 'NONE', #291 ) ;
#304 = LENGTH_MEASURE_WITH_UNIT ( LENGTH_MEASURE( 0.02539999999999999897 ), #220 );
#305 = EDGE_LOOP ( 'NONE', ( #65, #245, #297, #126 ) ) ;
#306 = ADVANCED_FACE ( 'NONE', ( #148 ), #10, .F. ) ;
#307 = DIRECTION ( 'NONE',  ( -0.0000000000000000000, -0.0000000000000000000, -1.000000000000000000 ) ) ;
#308 =( GEOMETRIC_REPRESENTATION_CONTEXT ( 3 ) GLOBAL_UNCERTAINTY_ASSIGNED_CONTEXT ( ( #292 ) ) GLOBAL_UNIT_ASSIGNED_CONTEXT ( ( #92, #184, #182 ) ) REPRESENTATION_CONTEXT ( 'NONE', 'WORKASPACE' ) );
#309 = ADVANCED_FACE ( 'NONE', ( #354, #164 ), #59, .T. ) ;
#310 = DIRECTION ( 'NONE',  ( 0.0000000000000000000, 0.0000000000000000000, 1.000000000000000000 ) ) ;
#311 = DIRECTION ( 'NONE',  ( 0.0000000000000000000, 0.0000000000000000000, 1.000000000000000000 ) ) ;
#312 = VERTEX_POINT ( 'NONE', #55 ) ;
#313 = CARTESIAN_POINT ( 'NONE',  ( -0.1181100000000000066, 0.0000000000000000000, 2.229093999999999465 ) ) ;
#314 = PRODUCT_DEFINITION ( 'UNKNOWN', '', #121, #377 ) ;
#315 = LINE ( 'NONE', #111, #229 ) ;
#316 = DIRECTION ( 'NONE',  ( -1.000000000000000000, 0.0000000000000000000, 0.0000000000000000000 ) ) ;
#317 = CIRCLE ( 'NONE', #63, 0.03838600000000001733 ) ;
#318 = CIRCLE ( 'NONE', #142, 0.1181100000000000066 ) ;
#319 = DIRECTION ( 'NONE',  ( 0.7071067811865358044, 8.659560562354788645E-17, -0.7071067811865590080 ) ) ;
#320 = DIRECTION ( 'NONE',  ( -0.0000000000000000000, -0.0000000000000000000, -1.000000000000000000 ) ) ;
#321 = DIRECTION ( 'NONE',  ( -0.0000000000000000000, -0.0000000000000000000, -1.000000000000000000 ) ) ;
#322 = EDGE_CURVE ( 'NONE', #4, #46, #249, .T. ) ;
#323 = DIRECTION ( 'NONE',  ( -1.000000000000000000, 0.0000000000000000000, 0.0000000000000000000 ) ) ;
#324 = FACE_OUTER_BOUND ( 'NONE', #103, .T. ) ;
#325 = VECTOR ( 'NONE', #72, 39.37007874015748143 ) ;
#326 = DIRECTION ( 'NONE',  ( 1.000000000000000000, 0.0000000000000000000, 0.0000000000000000000 ) ) ;
#327 = EDGE_CURVE ( 'NONE', #40, #189, #110, .T. ) ;
#328 = DIRECTION ( 'NONE',  ( -1.000000000000000000, 0.0000000000000000000, 0.0000000000000000000 ) ) ;
#329 = VECTOR ( 'NONE', #307, 39.37007874015748143 ) ;
#330 = CONICAL_SURFACE ( 'NONE', #204, 0.03936606300000000669, 0.1745329251994330866 ) ;
#331 = DIRECTION ( 'NONE',  ( -0.0000000000000000000, -0.0000000000000000000, -1.000000000000000000 ) ) ;
#332 = ORIENTED_EDGE ( 'NONE', *, *, #162, .F. ) ;
#333 = CARTESIAN_POINT ( 'NONE',  ( 0.03838600000000003121, 4.700929203207033811E-18, 0.0000000000000000000 ) ) ;
#334 = PRODUCT_DEFINITION_SHAPE ( 'NONE', 'NONE',  #314 ) ;
#335 = PRODUCT_CONTEXT ( 'NONE', #211, 'mechanical' ) ;
#336 = ORIENTED_EDGE ( 'NONE', *, *, #162, .T. ) ;
#337 = VECTOR ( 'NONE', #31, 39.37007874015748143 ) ;
#338 = CARTESIAN_POINT ( 'NONE',  ( 0.0000000000000000000, 0.0000000000000000000, 0.0000000000000000000 ) ) ;
#339 = VERTEX_POINT ( 'NONE', #212 ) ;
#340 = CYLINDRICAL_SURFACE ( 'NONE', #188, 0.03838600000000003121 ) ;
#341 = PRESENTATION_STYLE_ASSIGNMENT (( #266 ) ) ;
#342 = EDGE_LOOP ( 'NONE', ( #93, #247 ) ) ;
#343 =( GEOMETRIC_REPRESENTATION_CONTEXT ( 3 ) GLOBAL_UNCERTAINTY_ASSIGNED_CONTEXT ( ( #49 ) ) GLOBAL_UNIT_ASSIGNED_CONTEXT ( ( #378, #156, #299 ) ) REPRESENTATION_CONTEXT ( 'NONE', 'WORKASPACE' ) );
#344 = DIRECTION ( 'NONE',  ( -1.000000000000000000, 0.0000000000000000000, 0.0000000000000000000 ) ) ;
#345 = ORIENTED_EDGE ( 'NONE', *, *, #322, .T. ) ;
#346 = LINE ( 'NONE', #101, #22 ) ;
#347 = DIRECTION ( 'NONE',  ( 1.000000000000000000, 0.0000000000000000000, 0.0000000000000000000 ) ) ;
#348 = EDGE_CURVE ( 'NONE', #40, #37, #57, .T. ) ;
#349 = CARTESIAN_POINT ( 'NONE',  ( 0.03838600000000001733, 4.760940754002669804E-18, 0.1039832134739799296 ) ) ;
#350 = DIRECTION ( 'NONE',  ( -1.000000000000000000, 0.0000000000000000000, 0.0000000000000000000 ) ) ;
#351 = LINE ( 'NONE', #196, #47 ) ;
#352 = CARTESIAN_POINT ( 'NONE',  ( -0.1181100000000000066, 0.0000000000000000000, 2.244094000000000033 ) ) ;
#353 = SURFACE_SIDE_STYLE ('',( #20 ) ) ;
#354 = FACE_BOUND ( 'NONE', #58, .T. ) ;
#355 = APPLICATION_CONTEXT ( 'automotive_design' ) ;
#356 = ADVANCED_FACE ( 'NONE', ( #264 ), #363, .T. ) ;
#357 = DIRECTION ( 'NONE',  ( -1.000000000000000000, 0.0000000000000000000, 0.0000000000000000000 ) ) ;
#358 = CARTESIAN_POINT ( 'NONE',  ( 0.0000000000000000000, 0.0000000000000000000, 2.229093999999999465 ) ) ;
#359 = AXIS2_PLACEMENT_3D ( 'NONE', #66, #52, #167 ) ;
#360 = AXIS2_PLACEMENT_3D ( 'NONE', #358, #202, #326 ) ;
#361 = DIRECTION ( 'NONE',  ( -1.000000000000000000, 0.0000000000000000000, 0.0000000000000000000 ) ) ;
#362 = ORIENTED_EDGE ( 'NONE', *, *, #9, .F. ) ;
#363 = CYLINDRICAL_SURFACE ( 'NONE', #70, 0.1181100000000000066 ) ;
#364 = AXIS2_PLACEMENT_3D ( 'NONE', #198, #231, #120 ) ;
#365 = ORIENTED_EDGE ( 'NONE', *, *, #91, .T. ) ;
#366 = ORIENTED_EDGE ( 'NONE', *, *, #235, .F. ) ;
#367 = PRESENTATION_LAYER_ASSIGNMENT (  '', '', ( #371 ) ) ;
#368 = AXIS2_PLACEMENT_3D ( 'NONE', #108, #210, #323 ) ;
#369 = EDGE_CURVE ( 'NONE', #303, #4, #86, .T. ) ;
#370 = APPLICATION_PROTOCOL_DEFINITION ( 'draft international standard', 'automotive_design', 1998, #355 ) ;
#371 = STYLED_ITEM ( 'NONE', ( #225 ), #61 ) ;
#372 = CARTESIAN_POINT ( 'NONE',  ( 0.0000000000000000000, 0.0000000000000000000, 2.244094000000000033 ) ) ;
#373 = CARTESIAN_POINT ( 'NONE',  ( 0.0000000000000000000, 0.0000000000000000000, 0.1039832134739799296 ) ) ;
#374 = DIRECTION ( 'NONE',  ( -1.000000000000000000, 0.0000000000000000000, 0.0000000000000000000 ) ) ;
#375 = CARTESIAN_POINT ( 'NONE',  ( -0.03936606300000000669, 0.0000000000000000000, 0.09842500000000001248 ) ) ;
#376 = CARTESIAN_POINT ( 'NONE',  ( 0.0000000000000000000, 0.0000000000000000000, 0.0000000000000000000 ) ) ;
#377 = PRODUCT_DEFINITION_CONTEXT ( 'detailed design', #355, 'design' ) ;
#378 =( CONVERSION_BASED_UNIT ( 'INCH', #255 ) LENGTH_UNIT ( ) NAMED_UNIT ( #134 ) );
#379 = DIRECTION ( 'NONE',  ( -1.000000000000000000, 0.0000000000000000000, 0.0000000000000000000 ) ) ;
ENDSEC;
END-ISO-10303-21;
