ISO-10303-21;
HEADER;
FILE_DESCRIPTION (( 'STEP AP214' ),
    '1' );
FILE_NAME ('24632.STEP',
    '2023-06-22T17:23:39',
    ( '' ),
    ( '' ),
    'SwSTEP 2.0',
    'SolidWorks 2023',
    '' );
FILE_SCHEMA (( 'AUTOMOTIVE_DESIGN' ));
ENDSEC;

DATA;
#1 = APPLICATION_PROTOCOL_DEFINITION ( 'draft international standard', 'automotive_design', 1998, #32 ) ;
#2 = FILL_AREA_STYLE ('',( #217 ) ) ;
#3 = SHAPE_DEFINITION_REPRESENTATION ( #230, #239 ) ;
#4 = CARTESIAN_POINT ( 'NONE',  ( 0.6250000000000000000, 5.500000000000000000, 0.000000000000000000 ) ) ;
#5 = EDGE_CURVE ( 'NONE', #200, #14, #56, .T. ) ;
#6 = FILL_AREA_STYLE_COLOUR ( '', #193 ) ;
#7 = VERTEX_POINT ( 'NONE', #85 ) ;
#8 = PRESENTATION_STYLE_ASSIGNMENT (( #199 ) ) ;
#9 =( NAMED_UNIT ( * ) PLANE_ANGLE_UNIT ( ) SI_UNIT ( $, .RADIAN. ) );
#10 = EDGE_CURVE ( 'NONE', #200, #197, #278, .T. ) ;
#11 = AXIS2_PLACEMENT_3D ( 'NONE', #67, #112, #166 ) ;
#12 = SURFACE_STYLE_USAGE ( .BOTH. , #225 ) ;
#13 = DIRECTION ( 'NONE',  ( -0.000000000000000000, -1.000000000000000000, -0.000000000000000000 ) ) ;
#14 = VERTEX_POINT ( 'NONE', #129 ) ;
#15 =( NAMED_UNIT ( * ) SI_UNIT ( $, .STERADIAN. ) SOLID_ANGLE_UNIT ( ) );
#16 = DIRECTION ( 'NONE',  ( -4.259641040512529009E-17, 1.000000000000000000, -0.000000000000000000 ) ) ;
#17 = SURFACE_SIDE_STYLE ('',( #84 ) ) ;
#18 = AXIS2_PLACEMENT_3D ( 'NONE', #4, #21, #309 ) ;
#19 = DIRECTION ( 'NONE',  ( 1.000000000000000000, 0.000000000000000000, 0.000000000000000000 ) ) ;
#20 = SURFACE_STYLE_USAGE ( .BOTH. , #283 ) ;
#21 = DIRECTION ( 'NONE',  ( 4.259641040512529009E-17, -1.000000000000000000, 0.000000000000000000 ) ) ;
#22 = AXIS2_PLACEMENT_3D ( 'NONE', #150, #247, #98 ) ;
#23 = UNCERTAINTY_MEASURE_WITH_UNIT (LENGTH_MEASURE( 1.000000000000000082E-05 ), #262, 'distance_accuracy_value', 'NONE');
#24 =( NAMED_UNIT ( * ) SI_UNIT ( $, .STERADIAN. ) SOLID_ANGLE_UNIT ( ) );
#25 = MECHANICAL_DESIGN_GEOMETRIC_PRESENTATION_REPRESENTATION (  '', ( #62 ), #280 ) ;
#26 = ORIENTED_EDGE ( 'NONE', *, *, #189, .F. ) ;
#27 =( NAMED_UNIT ( * ) SI_UNIT ( $, .STERADIAN. ) SOLID_ANGLE_UNIT ( ) );
#28 = FILL_AREA_STYLE_COLOUR ( '', #307 ) ;
#29 =( GEOMETRIC_REPRESENTATION_CONTEXT ( 3 ) GLOBAL_UNCERTAINTY_ASSIGNED_CONTEXT ( ( #240 ) ) GLOBAL_UNIT_ASSIGNED_CONTEXT ( ( #254, #133, #210 ) ) REPRESENTATION_CONTEXT ( 'NONE', 'WORKASPACE' ) );
#30 = ORIENTED_EDGE ( 'NONE', *, *, #209, .F. ) ;
#31 = PRESENTATION_STYLE_ASSIGNMENT (( #250 ) ) ;
#32 = APPLICATION_CONTEXT ( 'automotive_design' ) ;
#33 = CARTESIAN_POINT ( 'NONE',  ( 0.000000000000000000, 2.625000000000000000, 0.000000000000000000 ) ) ;
#34 =( GEOMETRIC_REPRESENTATION_CONTEXT ( 3 ) GLOBAL_UNCERTAINTY_ASSIGNED_CONTEXT ( ( #144 ) ) GLOBAL_UNIT_ASSIGNED_CONTEXT ( ( #259, #162, #27 ) ) REPRESENTATION_CONTEXT ( 'NONE', 'WORKASPACE' ) );
#35 = PLANE ( 'NONE',  #153 ) ;
#36 = CARTESIAN_POINT ( 'NONE',  ( 0.000000000000000000, 2.625000000000000000, 0.000000000000000000 ) ) ;
#37 =( NAMED_UNIT ( * ) PLANE_ANGLE_UNIT ( ) SI_UNIT ( $, .RADIAN. ) );
#38 = ADVANCED_FACE ( 'NONE', ( #87 ), #110, .T. ) ;
#39 = DIRECTION ( 'NONE',  ( 0.000000000000000000, 0.000000000000000000, -1.000000000000000000 ) ) ;
#40 = UNCERTAINTY_MEASURE_WITH_UNIT (LENGTH_MEASURE( 1.000000000000000082E-05 ), #241, 'distance_accuracy_value', 'NONE');
#41 = DIRECTION ( 'NONE',  ( 0.000000000000000000, 0.000000000000000000, 1.000000000000000000 ) ) ;
#42 = DIMENSIONAL_EXPONENTS ( 1.000000000000000000, 0.000000000000000000, 0.000000000000000000, 0.000000000000000000, 0.000000000000000000, 0.000000000000000000, 0.000000000000000000 ) ;
#43 =( CONVERSION_BASED_UNIT ( 'INCH', #164 ) LENGTH_UNIT ( ) NAMED_UNIT ( #68 ) );
#44 = PRESENTATION_STYLE_ASSIGNMENT (( #290 ) ) ;
#45 = DIMENSIONAL_EXPONENTS ( 1.000000000000000000, 0.000000000000000000, 0.000000000000000000, 0.000000000000000000, 0.000000000000000000, 0.000000000000000000, 0.000000000000000000 ) ;
#46 = AXIS2_PLACEMENT_3D ( 'NONE', #127, #205, #59 ) ;
#47 = DIRECTION ( 'NONE',  ( -4.259641040512529009E-17, 1.000000000000000000, 0.000000000000000000 ) ) ;
#48 = CARTESIAN_POINT ( 'NONE',  ( -1.224646799147351975E-16, 5.500000000000000000, 0.000000000000000000 ) ) ;
#49 = EDGE_LOOP ( 'NONE', ( #295, #169 ) ) ;
#50 = STYLED_ITEM ( 'NONE', ( #44 ), #95 ) ;
#51 = CIRCLE ( 'NONE', #46, 0.6250000000000000000 ) ;
#52 = CARTESIAN_POINT ( 'NONE',  ( 0.000000000000000000, 0.000000000000000000, 0.000000000000000000 ) ) ;
#53 = ORIENTED_EDGE ( 'NONE', *, *, #232, .F. ) ;
#54 = LENGTH_MEASURE_WITH_UNIT ( LENGTH_MEASURE( 0.02539999999999999897 ), #73 );
#55 = EDGE_CURVE ( 'NONE', #7, #272, #204, .T. ) ;
#56 = CIRCLE ( 'NONE', #157, 0.6250000000000000000 ) ;
#57 = SURFACE_STYLE_FILL_AREA ( #276 ) ;
#58 = SURFACE_STYLE_USAGE ( .BOTH. , #17 ) ;
#59 = DIRECTION ( 'NONE',  ( -1.000000000000000000, 0.000000000000000000, 0.000000000000000000 ) ) ;
#60 = CARTESIAN_POINT ( 'NONE',  ( -1.224646799147351975E-16, 5.500000000000000000, 0.000000000000000000 ) ) ;
#61 = AXIS2_PLACEMENT_3D ( 'NONE', #60, #156, #253 ) ;
#62 = STYLED_ITEM ( 'NONE', ( #196 ), #201 ) ;
#63 =( GEOMETRIC_REPRESENTATION_CONTEXT ( 3 ) GLOBAL_UNCERTAINTY_ASSIGNED_CONTEXT ( ( #118 ) ) GLOBAL_UNIT_ASSIGNED_CONTEXT ( ( #43, #233, #115 ) ) REPRESENTATION_CONTEXT ( 'NONE', 'WORKASPACE' ) );
#64 = PRODUCT_DEFINITION_CONTEXT ( 'detailed design', #165, 'design' ) ;
#65 = SURFACE_SIDE_STYLE ('',( #113 ) ) ;
#66 = AXIS2_PLACEMENT_3D ( 'NONE', #48, #79, #246 ) ;
#67 = CARTESIAN_POINT ( 'NONE',  ( 0.000000000000000000, 0.000000000000000000, 0.000000000000000000 ) ) ;
#68 = DIMENSIONAL_EXPONENTS ( 1.000000000000000000, 0.000000000000000000, 0.000000000000000000, 0.000000000000000000, 0.000000000000000000, 0.000000000000000000, 0.000000000000000000 ) ;
#69 = DIRECTION ( 'NONE',  ( -0.000000000000000000, -1.000000000000000000, -0.000000000000000000 ) ) ;
#70 = LENGTH_MEASURE_WITH_UNIT ( LENGTH_MEASURE( 0.02539999999999999897 ), #215 );
#71 = CARTESIAN_POINT ( 'NONE',  ( 5.670169310630830774E-34, 2.625000000000000000, 0.000000000000000000 ) ) ;
#72 = CARTESIAN_POINT ( 'NONE',  ( -0.6250000000000003331, 5.500000000000000000, 0.000000000000000000 ) ) ;
#73 =( LENGTH_UNIT ( ) NAMED_UNIT ( * ) SI_UNIT ( $, .METRE. ) );
#74 = ORIENTED_EDGE ( 'NONE', *, *, #255, .F. ) ;
#75 = ADVANCED_FACE ( 'NONE', ( #134 ), #138, .F. ) ;
#76 = DIRECTION ( 'NONE',  ( -4.259641040512529009E-17, 1.000000000000000000, -0.000000000000000000 ) ) ;
#77 = EDGE_LOOP ( 'NONE', ( #222, #100 ) ) ;
#78 = PRODUCT_DEFINITION_FORMATION_WITH_SPECIFIED_SOURCE ( 'ANY', '', #234, .NOT_KNOWN. ) ;
#79 = DIRECTION ( 'NONE',  ( -4.259641040512529009E-17, 1.000000000000000000, -0.000000000000000000 ) ) ;
#80 = ORIENTED_EDGE ( 'NONE', *, *, #244, .F. ) ;
#81 = DIRECTION ( 'NONE',  ( 0.000000000000000000, 0.000000000000000000, -1.000000000000000000 ) ) ;
#82 = ORIENTED_EDGE ( 'NONE', *, *, #55, .F. ) ;
#83 = DIRECTION ( 'NONE',  ( 0.000000000000000000, 0.000000000000000000, -1.000000000000000000 ) ) ;
#84 = SURFACE_STYLE_FILL_AREA ( #103 ) ;
#85 = CARTESIAN_POINT ( 'NONE',  ( 0.000000000000000000, 2.625000000000000000, -0.6250000000000000000 ) ) ;
#86 = DIRECTION ( 'NONE',  ( -0.000000000000000000, -1.000000000000000000, -0.000000000000000000 ) ) ;
#87 = FACE_OUTER_BOUND ( 'NONE', #124, .T. ) ;
#88 = CIRCLE ( 'NONE', #248, 0.6250000000000000000 ) ;
#89 = CARTESIAN_POINT ( 'NONE',  ( 7.654042494670957853E-17, 0.000000000000000000, 0.6250000000000000000 ) ) ;
#90 = DIRECTION ( 'NONE',  ( -1.000000000000000000, 0.000000000000000000, 0.000000000000000000 ) ) ;
#91 = VECTOR ( 'NONE', #69, 39.37007874015748143 ) ;
#92 =( LENGTH_UNIT ( ) NAMED_UNIT ( * ) SI_UNIT ( $, .METRE. ) );
#93 = STYLED_ITEM ( 'NONE', ( #31 ), #308 ) ;
#94 = CARTESIAN_POINT ( 'NONE',  ( 0.6249999999999998890, 5.500000000000000000, 7.654042494670957853E-17 ) ) ;
#95 = ADVANCED_FACE ( 'NONE', ( #237 ), #168, .T. ) ;
#96 = ORIENTED_EDGE ( 'NONE', *, *, #191, .T. ) ;
#97 = EDGE_LOOP ( 'NONE', ( #227, #96, #80, #151 ) ) ;
#98 = DIRECTION ( 'NONE',  ( 0.000000000000000000, 0.000000000000000000, -1.000000000000000000 ) ) ;
#99 = CIRCLE ( 'NONE', #158, 0.6250000000000001110 ) ;
#100 = ORIENTED_EDGE ( 'NONE', *, *, #189, .T. ) ;
#101 = DIRECTION ( 'NONE',  ( 0.000000000000000000, 0.000000000000000000, -1.000000000000000000 ) ) ;
#102 = ORIENTED_EDGE ( 'NONE', *, *, #10, .T. ) ;
#103 = FILL_AREA_STYLE ('',( #277 ) ) ;
#104 = DIRECTION ( 'NONE',  ( -4.259641040512529009E-17, 1.000000000000000000, -0.000000000000000000 ) ) ;
#105 = AXIS2_PLACEMENT_3D ( 'NONE', #36, #256, #39 ) ;
#106 = AXIS2_PLACEMENT_3D ( 'NONE', #257, #86, #182 ) ;
#107 =( GEOMETRIC_REPRESENTATION_CONTEXT ( 3 ) GLOBAL_UNCERTAINTY_ASSIGNED_CONTEXT ( ( #23 ) ) GLOBAL_UNIT_ASSIGNED_CONTEXT ( ( #262, #289, #236 ) ) REPRESENTATION_CONTEXT ( 'NONE', 'WORKASPACE' ) );
#108 = LENGTH_MEASURE_WITH_UNIT ( LENGTH_MEASURE( 0.02539999999999999897 ), #181 );
#109 = EDGE_CURVE ( 'NONE', #7, #178, #119, .T. ) ;
#110 = CYLINDRICAL_SURFACE ( 'NONE', #61, 0.6250000000000000000 ) ;
#111 = PRESENTATION_STYLE_ASSIGNMENT (( #58 ) ) ;
#112 = DIRECTION ( 'NONE',  ( -0.000000000000000000, -1.000000000000000000, -0.000000000000000000 ) ) ;
#113 = SURFACE_STYLE_FILL_AREA ( #145 ) ;
#114 = STYLED_ITEM ( 'NONE', ( #8 ), #176 ) ;
#115 =( NAMED_UNIT ( * ) SI_UNIT ( $, .STERADIAN. ) SOLID_ANGLE_UNIT ( ) );
#116 = FACE_OUTER_BOUND ( 'NONE', #122, .T. ) ;
#117 = ADVANCED_FACE ( 'NONE', ( #163 ), #146, .F. ) ;
#118 = UNCERTAINTY_MEASURE_WITH_UNIT (LENGTH_MEASURE( 1.000000000000000082E-05 ), #43, 'distance_accuracy_value', 'NONE');
#119 = LINE ( 'NONE', #238, #91 ) ;
#120 = PRESENTATION_LAYER_ASSIGNMENT (  '', '', ( #114 ) ) ;
#121 = DIRECTION ( 'NONE',  ( -1.000000000000000000, 0.000000000000000000, 0.000000000000000000 ) ) ;
#122 = EDGE_LOOP ( 'NONE', ( #53, #299, #242, #30 ) ) ;
#123 = SURFACE_SIDE_STYLE ('',( #298 ) ) ;
#124 = EDGE_LOOP ( 'NONE', ( #302, #268, #102, #26 ) ) ;
#125 = FILL_AREA_STYLE ('',( #28 ) ) ;
#126 = LINE ( 'NONE', #94, #173 ) ;
#127 = CARTESIAN_POINT ( 'NONE',  ( 0.000000000000000000, 2.625000000000000000, 0.000000000000000000 ) ) ;
#128 = ADVANCED_FACE ( 'NONE', ( #116 ), #187, .T. ) ;
#129 = CARTESIAN_POINT ( 'NONE',  ( 0.6250000000000000000, 2.625000000000000000, 7.654042494670957853E-17 ) ) ;
#130 = COLOUR_RGB ( '',1.000000000000000000, 0.000000000000000000, 0.000000000000000000 ) ;
#131 = DIRECTION ( 'NONE',  ( 0.000000000000000000, 1.000000000000000000, 0.000000000000000000 ) ) ;
#132 = DIRECTION ( 'NONE',  ( -4.259641040512529009E-17, 1.000000000000000000, -0.000000000000000000 ) ) ;
#133 =( NAMED_UNIT ( * ) PLANE_ANGLE_UNIT ( ) SI_UNIT ( $, .RADIAN. ) );
#134 = FACE_OUTER_BOUND ( 'NONE', #49, .T. ) ;
#135 = UNCERTAINTY_MEASURE_WITH_UNIT (LENGTH_MEASURE( 1.000000000000000082E-05 ), #188, 'distance_accuracy_value', 'NONE');
#136 = DIMENSIONAL_EXPONENTS ( 1.000000000000000000, 0.000000000000000000, 0.000000000000000000, 0.000000000000000000, 0.000000000000000000, 0.000000000000000000, 0.000000000000000000 ) ;
#137 = MECHANICAL_DESIGN_GEOMETRIC_PRESENTATION_REPRESENTATION (  '', ( #93 ), #63 ) ;
#138 = PLANE ( 'NONE',  #141 ) ;
#139 = DIMENSIONAL_EXPONENTS ( 1.000000000000000000, 0.000000000000000000, 0.000000000000000000, 0.000000000000000000, 0.000000000000000000, 0.000000000000000000, 0.000000000000000000 ) ;
#140 = MECHANICAL_DESIGN_GEOMETRIC_PRESENTATION_REPRESENTATION (  '', ( #50 ), #180 ) ;
#141 = AXIS2_PLACEMENT_3D ( 'NONE', #71, #47, #190 ) ;
#142 = CIRCLE ( 'NONE', #184, 0.6250000000000000000 ) ;
#143 = PRODUCT_CONTEXT ( 'NONE', #32, 'mechanical' ) ;
#144 = UNCERTAINTY_MEASURE_WITH_UNIT (LENGTH_MEASURE( 1.000000000000000082E-05 ), #259, 'distance_accuracy_value', 'NONE');
#145 = FILL_AREA_STYLE ('',( #286 ) ) ;
#146 = PLANE ( 'NONE',  #18 ) ;
#147 = CARTESIAN_POINT ( 'NONE',  ( 0.000000000000000000, 0.000000000000000000, 0.000000000000000000 ) ) ;
#148 = ORIENTED_EDGE ( 'NONE', *, *, #232, .T. ) ;
#149 = CARTESIAN_POINT ( 'NONE',  ( 0.000000000000000000, 0.000000000000000000, -0.6250000000000000000 ) ) ;
#150 = CARTESIAN_POINT ( 'NONE',  ( 0.000000000000000000, 0.000000000000000000, 0.000000000000000000 ) ) ;
#151 = ORIENTED_EDGE ( 'NONE', *, *, #10, .F. ) ;
#152 = CARTESIAN_POINT ( 'NONE',  ( -1.224646799147351975E-16, 5.500000000000000000, 0.000000000000000000 ) ) ;
#153 = AXIS2_PLACEMENT_3D ( 'NONE', #33, #131, #282 ) ;
#154 = EDGE_LOOP ( 'NONE', ( #82, #175 ) ) ;
#155 = SURFACE_SIDE_STYLE ('',( #57 ) ) ;
#156 = DIRECTION ( 'NONE',  ( -4.259641040512529009E-17, 1.000000000000000000, -0.000000000000000000 ) ) ;
#157 = AXIS2_PLACEMENT_3D ( 'NONE', #304, #104, #90 ) ;
#158 = AXIS2_PLACEMENT_3D ( 'NONE', #152, #76, #121 ) ;
#159 = CARTESIAN_POINT ( 'NONE',  ( 7.654042494670957853E-17, 0.000000000000000000, 0.6250000000000000000 ) ) ;
#160 = LENGTH_MEASURE_WITH_UNIT ( LENGTH_MEASURE( 0.02539999999999999897 ), #264 );
#161 = PRESENTATION_LAYER_ASSIGNMENT (  '', '', ( #62 ) ) ;
#162 =( NAMED_UNIT ( * ) PLANE_ANGLE_UNIT ( ) SI_UNIT ( $, .RADIAN. ) );
#163 = FACE_OUTER_BOUND ( 'NONE', #77, .T. ) ;
#164 = LENGTH_MEASURE_WITH_UNIT ( LENGTH_MEASURE( 0.02539999999999999897 ), #167 );
#165 = APPLICATION_CONTEXT ( 'automotive_design' ) ;
#166 = DIRECTION ( 'NONE',  ( 0.000000000000000000, 0.000000000000000000, -1.000000000000000000 ) ) ;
#167 =( LENGTH_UNIT ( ) NAMED_UNIT ( * ) SI_UNIT ( $, .METRE. ) );
#168 = CYLINDRICAL_SURFACE ( 'NONE', #11, 0.6250000000000000000 ) ;
#169 = ORIENTED_EDGE ( 'NONE', *, *, #263, .F. ) ;
#170 = FACE_OUTER_BOUND ( 'NONE', #97, .T. ) ;
#171 = ORIENTED_EDGE ( 'NONE', *, *, #55, .T. ) ;
#172 = VECTOR ( 'NONE', #132, 39.37007874015748143 ) ;
#173 = VECTOR ( 'NONE', #174, 39.37007874015748143 ) ;
#174 = DIRECTION ( 'NONE',  ( -4.259641040512529009E-17, 1.000000000000000000, -0.000000000000000000 ) ) ;
#175 = ORIENTED_EDGE ( 'NONE', *, *, #293, .F. ) ;
#176 = ADVANCED_FACE ( 'NONE', ( #221 ), #292, .T. ) ;
#177 = LENGTH_MEASURE_WITH_UNIT ( LENGTH_MEASURE( 0.02539999999999999897 ), #296 );
#178 = VERTEX_POINT ( 'NONE', #149 ) ;
#179 = CARTESIAN_POINT ( 'NONE',  ( 0.6250000000000000000, 5.500000000000000000, 7.654042494670957853E-17 ) ) ;
#180 =( GEOMETRIC_REPRESENTATION_CONTEXT ( 3 ) GLOBAL_UNCERTAINTY_ASSIGNED_CONTEXT ( ( #135 ) ) GLOBAL_UNIT_ASSIGNED_CONTEXT ( ( #188, #218, #24 ) ) REPRESENTATION_CONTEXT ( 'NONE', 'WORKASPACE' ) );
#181 =( LENGTH_UNIT ( ) NAMED_UNIT ( * ) SI_UNIT ( $, .METRE. ) );
#182 = DIRECTION ( 'NONE',  ( 0.000000000000000000, 0.000000000000000000, -1.000000000000000000 ) ) ;
#183 = AXIS2_PLACEMENT_3D ( 'NONE', #202, #16, #303 ) ;
#184 = AXIS2_PLACEMENT_3D ( 'NONE', #147, #306, #101 ) ;
#185 = ADVANCED_FACE ( 'NONE', ( #170 ), #267, .T. ) ;
#186 = CARTESIAN_POINT ( 'NONE',  ( -0.6250000000000001110, 5.500000000000000000, 0.000000000000000000 ) ) ;
#187 = CYLINDRICAL_SURFACE ( 'NONE', #252, 0.6250000000000000000 ) ;
#188 =( CONVERSION_BASED_UNIT ( 'INCH', #70 ) LENGTH_UNIT ( ) NAMED_UNIT ( #139 ) );
#189 = EDGE_CURVE ( 'NONE', #300, #197, #99, .T. ) ;
#190 = DIRECTION ( 'NONE',  ( -1.000000000000000000, -4.259641040512529009E-17, 0.000000000000000000 ) ) ;
#191 = EDGE_CURVE ( 'NONE', #14, #300, #126, .T. ) ;
#192 = PRESENTATION_STYLE_ASSIGNMENT (( #20 ) ) ;
#193 = COLOUR_RGB ( '',1.000000000000000000, 0.000000000000000000, 0.000000000000000000 ) ;
#194 = UNCERTAINTY_MEASURE_WITH_UNIT (LENGTH_MEASURE( 1.000000000000000082E-05 ), #219, 'distance_accuracy_value', 'NONE');
#195 =( NAMED_UNIT ( * ) SI_UNIT ( $, .STERADIAN. ) SOLID_ANGLE_UNIT ( ) );
#196 = PRESENTATION_STYLE_ASSIGNMENT (( #12 ) ) ;
#197 = VERTEX_POINT ( 'NONE', #72 ) ;
#198 = PRESENTATION_LAYER_ASSIGNMENT (  '', '', ( #50 ) ) ;
#199 = SURFACE_STYLE_USAGE ( .BOTH. , #123 ) ;
#200 = VERTEX_POINT ( 'NONE', #271 ) ;
#201 = MANIFOLD_SOLID_BREP ( 'Revolve - Tool Body (Straight Shanked)', #258 ) ;
#202 = CARTESIAN_POINT ( 'NONE',  ( -1.224646799147351975E-16, 5.500000000000000000, 0.000000000000000000 ) ) ;
#203 = ORIENTED_EDGE ( 'NONE', *, *, #255, .T. ) ;
#204 = CIRCLE ( 'NONE', #105, 0.6250000000000000000 ) ;
#205 = DIRECTION ( 'NONE',  ( -4.259641040512529009E-17, 1.000000000000000000, -0.000000000000000000 ) ) ;
#206 = CIRCLE ( 'NONE', #183, 0.6250000000000001110 ) ;
#207 = DIRECTION ( 'NONE',  ( -0.000000000000000000, -1.000000000000000000, -0.000000000000000000 ) ) ;
#208 = FACE_OUTER_BOUND ( 'NONE', #154, .T. ) ;
#209 = EDGE_CURVE ( 'NONE', #245, #178, #142, .T. ) ;
#210 =( NAMED_UNIT ( * ) SI_UNIT ( $, .STERADIAN. ) SOLID_ANGLE_UNIT ( ) );
#211 = STYLED_ITEM ( 'NONE', ( #111 ), #229 ) ;
#212 = PRODUCT_DEFINITION ( 'UNKNOWN', '', #78, #64 ) ;
#213 = APPLICATION_PROTOCOL_DEFINITION ( 'draft international standard', 'automotive_design', 1998, #165 ) ;
#214 = DIMENSIONAL_EXPONENTS ( 1.000000000000000000, 0.000000000000000000, 0.000000000000000000, 0.000000000000000000, 0.000000000000000000, 0.000000000000000000, 0.000000000000000000 ) ;
#215 =( LENGTH_UNIT ( ) NAMED_UNIT ( * ) SI_UNIT ( $, .METRE. ) );
#216 = VECTOR ( 'NONE', #207, 39.37007874015748143 ) ;
#217 = FILL_AREA_STYLE_COLOUR ( '', #130 ) ;
#218 =( NAMED_UNIT ( * ) PLANE_ANGLE_UNIT ( ) SI_UNIT ( $, .RADIAN. ) );
#219 =( CONVERSION_BASED_UNIT ( 'INCH', #54 ) LENGTH_UNIT ( ) NAMED_UNIT ( #45 ) );
#220 = PRESENTATION_LAYER_ASSIGNMENT (  '', '', ( #211 ) ) ;
#221 = FACE_OUTER_BOUND ( 'NONE', #281, .T. ) ;
#222 = ORIENTED_EDGE ( 'NONE', *, *, #244, .T. ) ;
#223 = ORIENTED_EDGE ( 'NONE', *, *, #109, .F. ) ;
#224 = CIRCLE ( 'NONE', #106, 0.6250000000000000000 ) ;
#225 = SURFACE_SIDE_STYLE ('',( #273 ) ) ;
#226 = CARTESIAN_POINT ( 'NONE',  ( 7.654042494670957853E-17, 2.625000000000000000, 0.6250000000000000000 ) ) ;
#227 = ORIENTED_EDGE ( 'NONE', *, *, #5, .T. ) ;
#228 = LINE ( 'NONE', #159, #216 ) ;
#229 = ADVANCED_FACE ( 'NONE', ( #208 ), #35, .T. ) ;
#230 = PRODUCT_DEFINITION_SHAPE ( 'NONE', 'NONE',  #212 ) ;
#231 = COLOUR_RGB ( '',0.7921568627450980005, 0.8196078431372548767, 0.9333333333333333481 ) ;
#232 = EDGE_CURVE ( 'NONE', #272, #245, #228, .T. ) ;
#233 =( NAMED_UNIT ( * ) PLANE_ANGLE_UNIT ( ) SI_UNIT ( $, .RADIAN. ) );
#234 = PRODUCT ( '24632', '24632', '', ( #143 ) ) ;
#235 = DIMENSIONAL_EXPONENTS ( 1.000000000000000000, 0.000000000000000000, 0.000000000000000000, 0.000000000000000000, 0.000000000000000000, 0.000000000000000000, 0.000000000000000000 ) ;
#236 =( NAMED_UNIT ( * ) SI_UNIT ( $, .STERADIAN. ) SOLID_ANGLE_UNIT ( ) );
#237 = FACE_OUTER_BOUND ( 'NONE', #274, .T. ) ;
#238 = CARTESIAN_POINT ( 'NONE',  ( 0.000000000000000000, 0.000000000000000000, -0.6250000000000000000 ) ) ;
#239 = ADVANCED_BREP_SHAPE_REPRESENTATION ( '24632', ( #308, #201, #288 ), #107 ) ;
#240 = UNCERTAINTY_MEASURE_WITH_UNIT (LENGTH_MEASURE( 1.000000000000000082E-05 ), #254, 'distance_accuracy_value', 'NONE');
#241 =( CONVERSION_BASED_UNIT ( 'INCH', #177 ) LENGTH_UNIT ( ) NAMED_UNIT ( #42 ) );
#242 = ORIENTED_EDGE ( 'NONE', *, *, #109, .T. ) ;
#243 = COLOUR_RGB ( '',1.000000000000000000, 0.000000000000000000, 0.000000000000000000 ) ;
#244 = EDGE_CURVE ( 'NONE', #197, #300, #206, .T. ) ;
#245 = VERTEX_POINT ( 'NONE', #89 ) ;
#246 = DIRECTION ( 'NONE',  ( -1.000000000000000000, 0.000000000000000000, 0.000000000000000000 ) ) ;
#247 = DIRECTION ( 'NONE',  ( 0.000000000000000000, -1.000000000000000000, -0.000000000000000000 ) ) ;
#248 = AXIS2_PLACEMENT_3D ( 'NONE', #301, #13, #83 ) ;
#249 = ORIENTED_EDGE ( 'NONE', *, *, #209, .T. ) ;
#250 = SURFACE_STYLE_USAGE ( .BOTH. , #155 ) ;
#251 = FILL_AREA_STYLE_COLOUR ( '', #231 ) ;
#252 = AXIS2_PLACEMENT_3D ( 'NONE', #52, #270, #81 ) ;
#253 = DIRECTION ( 'NONE',  ( -1.000000000000000000, 0.000000000000000000, 0.000000000000000000 ) ) ;
#254 =( CONVERSION_BASED_UNIT ( 'INCH', #108 ) LENGTH_UNIT ( ) NAMED_UNIT ( #136 ) );
#255 = EDGE_CURVE ( 'NONE', #178, #245, #224, .T. ) ;
#256 = DIRECTION ( 'NONE',  ( -0.000000000000000000, -1.000000000000000000, -0.000000000000000000 ) ) ;
#257 = CARTESIAN_POINT ( 'NONE',  ( 0.000000000000000000, 0.000000000000000000, 0.000000000000000000 ) ) ;
#258 = CLOSED_SHELL ( 'NONE', ( #185, #75, #38, #117 ) ) ;
#259 =( CONVERSION_BASED_UNIT ( 'INCH', #160 ) LENGTH_UNIT ( ) NAMED_UNIT ( #214 ) );
#260 = PRESENTATION_LAYER_ASSIGNMENT (  '', '', ( #287 ) ) ;
#261 = CARTESIAN_POINT ( 'NONE',  ( 0.000000000000000000, 0.000000000000000000, 0.000000000000000000 ) ) ;
#262 =( CONVERSION_BASED_UNIT ( 'INCH', #284 ) LENGTH_UNIT ( ) NAMED_UNIT ( #235 ) );
#263 = EDGE_CURVE ( 'NONE', #14, #200, #51, .T. ) ;
#264 =( LENGTH_UNIT ( ) NAMED_UNIT ( * ) SI_UNIT ( $, .METRE. ) );
#265 = MECHANICAL_DESIGN_GEOMETRIC_PRESENTATION_REPRESENTATION (  '', ( #287 ), #34 ) ;
#266 = SURFACE_STYLE_FILL_AREA ( #2 ) ;
#267 = CYLINDRICAL_SURFACE ( 'NONE', #66, 0.6250000000000000000 ) ;
#268 = ORIENTED_EDGE ( 'NONE', *, *, #263, .T. ) ;
#269 = MECHANICAL_DESIGN_GEOMETRIC_PRESENTATION_REPRESENTATION (  '', ( #211 ), #29 ) ;
#270 = DIRECTION ( 'NONE',  ( -0.000000000000000000, -1.000000000000000000, -0.000000000000000000 ) ) ;
#271 = CARTESIAN_POINT ( 'NONE',  ( -0.6250000000000000000, 2.625000000000000000, 0.000000000000000000 ) ) ;
#272 = VERTEX_POINT ( 'NONE', #226 ) ;
#273 = SURFACE_STYLE_FILL_AREA ( #125 ) ;
#274 = EDGE_LOOP ( 'NONE', ( #171, #148, #74, #223 ) ) ;
#275 = PRESENTATION_LAYER_ASSIGNMENT (  '', '', ( #93 ) ) ;
#276 = FILL_AREA_STYLE ('',( #251 ) ) ;
#277 = FILL_AREA_STYLE_COLOUR ( '', #243 ) ;
#278 = LINE ( 'NONE', #186, #172 ) ;
#279 = CLOSED_SHELL ( 'NONE', ( #95, #229, #128, #176 ) ) ;
#280 =( GEOMETRIC_REPRESENTATION_CONTEXT ( 3 ) GLOBAL_UNCERTAINTY_ASSIGNED_CONTEXT ( ( #194 ) ) GLOBAL_UNIT_ASSIGNED_CONTEXT ( ( #219, #37, #15 ) ) REPRESENTATION_CONTEXT ( 'NONE', 'WORKASPACE' ) );
#281 = EDGE_LOOP ( 'NONE', ( #203, #249 ) ) ;
#282 = DIRECTION ( 'NONE',  ( 0.000000000000000000, -0.000000000000000000, 1.000000000000000000 ) ) ;
#283 = SURFACE_SIDE_STYLE ('',( #266 ) ) ;
#284 = LENGTH_MEASURE_WITH_UNIT ( LENGTH_MEASURE( 0.02539999999999999897 ), #92 );
#285 = COLOUR_RGB ( '',1.000000000000000000, 0.000000000000000000, 0.000000000000000000 ) ;
#286 = FILL_AREA_STYLE_COLOUR ( '', #285 ) ;
#287 = STYLED_ITEM ( 'NONE', ( #192 ), #128 ) ;
#288 = AXIS2_PLACEMENT_3D ( 'NONE', #261, #41, #19 ) ;
#289 =( NAMED_UNIT ( * ) PLANE_ANGLE_UNIT ( ) SI_UNIT ( $, .RADIAN. ) );
#290 = SURFACE_STYLE_USAGE ( .BOTH. , #65 ) ;
#291 = MECHANICAL_DESIGN_GEOMETRIC_PRESENTATION_REPRESENTATION (  '', ( #114 ), #297 ) ;
#292 = PLANE ( 'NONE',  #22 ) ;
#293 = EDGE_CURVE ( 'NONE', #272, #7, #88, .T. ) ;
#294 = FILL_AREA_STYLE ('',( #6 ) ) ;
#295 = ORIENTED_EDGE ( 'NONE', *, *, #5, .F. ) ;
#296 =( LENGTH_UNIT ( ) NAMED_UNIT ( * ) SI_UNIT ( $, .METRE. ) );
#297 =( GEOMETRIC_REPRESENTATION_CONTEXT ( 3 ) GLOBAL_UNCERTAINTY_ASSIGNED_CONTEXT ( ( #40 ) ) GLOBAL_UNIT_ASSIGNED_CONTEXT ( ( #241, #9, #195 ) ) REPRESENTATION_CONTEXT ( 'NONE', 'WORKASPACE' ) );
#298 = SURFACE_STYLE_FILL_AREA ( #294 ) ;
#299 = ORIENTED_EDGE ( 'NONE', *, *, #293, .T. ) ;
#300 = VERTEX_POINT ( 'NONE', #179 ) ;
#301 = CARTESIAN_POINT ( 'NONE',  ( 0.000000000000000000, 2.625000000000000000, 0.000000000000000000 ) ) ;
#302 = ORIENTED_EDGE ( 'NONE', *, *, #191, .F. ) ;
#303 = DIRECTION ( 'NONE',  ( -1.000000000000000000, 0.000000000000000000, 0.000000000000000000 ) ) ;
#304 = CARTESIAN_POINT ( 'NONE',  ( 0.000000000000000000, 2.625000000000000000, 0.000000000000000000 ) ) ;
#305 = PRODUCT_RELATED_PRODUCT_CATEGORY ( 'part', '', ( #234 ) ) ;
#306 = DIRECTION ( 'NONE',  ( -0.000000000000000000, -1.000000000000000000, -0.000000000000000000 ) ) ;
#307 = COLOUR_RGB ( '',0.7921568627450980005, 0.8196078431372548767, 0.9333333333333333481 ) ;
#308 = MANIFOLD_SOLID_BREP ( 'Revolve - Cutting Edge', #279 ) ;
#309 = DIRECTION ( 'NONE',  ( 1.000000000000000000, 4.259641040512529009E-17, 0.000000000000000000 ) ) ;
ENDSEC;
END-ISO-10303-21;
