ISO-10303-21;
HEADER;
FILE_DESCRIPTION (( 'STEP AP214' ),
    '1' );
FILE_NAME ('Micro_GEC-125-4-020X.STEP',
    '2021-09-03T17:09:13',
    ( '' ),
    ( '' ),
    'SwSTEP 2.0',
    'SolidWorks 2020',
    '' );
FILE_SCHEMA (( 'AUTOMOTIVE_DESIGN' ));
ENDSEC;

DATA;
#1 =( NAMED_UNIT ( * ) PLANE_ANGLE_UNIT ( ) SI_UNIT ( $, .RADIAN. ) );
#2 = ORIENTED_EDGE ( 'NONE', *, *, #204, .F. ) ;
#3 = CIRCLE ( 'NONE', #94, 0.06250000000000002776 ) ;
#4 = DIMENSIONAL_EXPONENTS ( 1.000000000000000000, 0.0000000000000000000, 0.0000000000000000000, 0.0000000000000000000, 0.0000000000000000000, 0.0000000000000000000, 0.0000000000000000000 ) ;
#5 = CIRCLE ( 'NONE', #41, 0.04750000000000064587 ) ;
#6 = CARTESIAN_POINT ( 'NONE',  ( 0.06250000000000008327, 7.654042494670966789E-18, 0.5003544551137261154 ) ) ;
#7 = DIRECTION ( 'NONE',  ( -1.000000000000000000, 0.0000000000000000000, 1.224646799147353700E-16 ) ) ;
#8 = PRODUCT_DEFINITION_SHAPE ( 'NONE', 'NONE',  #325 ) ;
#9 = ADVANCED_FACE ( 'NONE', ( #350 ), #193, .T. ) ;
#10 = CONICAL_SURFACE ( 'NONE', #22, 0.04750000000000064587, 0.7853981633974466137 ) ;
#11 = CARTESIAN_POINT ( 'NONE',  ( -0.04750000000000064587, 0.0000000000000000000, 1.500000000000000222 ) ) ;
#12 = VECTOR ( 'NONE', #329, 39.37007874015748143 ) ;
#13 = ORIENTED_EDGE ( 'NONE', *, *, #122, .F. ) ;
#14 = EDGE_CURVE ( 'NONE', #75, #43, #218, .T. ) ;
#15 = ORIENTED_EDGE ( 'NONE', *, *, #204, .T. ) ;
#16 = CARTESIAN_POINT ( 'NONE',  ( -0.04750000000000064587, 0.0000000000000000000, 1.500000000000000222 ) ) ;
#17 = ORIENTED_EDGE ( 'NONE', *, *, #81, .F. ) ;
#18 = FILL_AREA_STYLE ('',( #130 ) ) ;
#19 = DIRECTION ( 'NONE',  ( 1.000000000000000000, 0.0000000000000000000, 0.0000000000000000000 ) ) ;
#20 = CARTESIAN_POINT ( 'NONE',  ( 0.0000000000000000000, 0.0000000000000000000, 1.500000000000000222 ) ) ;
#21 = LINE ( 'NONE', #265, #178 ) ;
#22 = AXIS2_PLACEMENT_3D ( 'NONE', #333, #331, #65 ) ;
#23 = DIRECTION ( 'NONE',  ( 0.0000000000000000000, -1.000000000000000000, 0.0000000000000000000 ) ) ;
#24 = DIRECTION ( 'NONE',  ( -1.000000000000000000, 0.0000000000000000000, 0.0000000000000000000 ) ) ;
#25 = AXIS2_PLACEMENT_3D ( 'NONE', #163, #27, #184 ) ;
#26 = AXIS2_PLACEMENT_3D ( 'NONE', #90, #172, #35 ) ;
#27 = DIRECTION ( 'NONE',  ( 0.0000000000000000000, 0.0000000000000000000, 1.000000000000000000 ) ) ;
#28 = FACE_OUTER_BOUND ( 'NONE', #159, .T. ) ;
#29 = PRESENTATION_STYLE_ASSIGNMENT (( #58 ) ) ;
#30 = DIMENSIONAL_EXPONENTS ( 1.000000000000000000, 0.0000000000000000000, 0.0000000000000000000, 0.0000000000000000000, 0.0000000000000000000, 0.0000000000000000000, 0.0000000000000000000 ) ;
#31 = DIRECTION ( 'NONE',  ( 1.000000000000000000, 0.0000000000000000000, 0.0000000000000000000 ) ) ;
#32 = AXIS2_PLACEMENT_3D ( 'NONE', #20, #314, #126 ) ;
#33 = DIRECTION ( 'NONE',  ( 1.000000000000000000, 0.0000000000000000000, 0.0000000000000000000 ) ) ;
#34 = EDGE_CURVE ( 'NONE', #341, #43, #106, .T. ) ;
#35 = DIRECTION ( 'NONE',  ( 1.000000000000000000, 0.0000000000000000000, 0.0000000000000000000 ) ) ;
#36 = DIRECTION ( 'NONE',  ( -1.224646799147353700E-16, -0.0000000000000000000, -1.000000000000000000 ) ) ;
#37 = EDGE_LOOP ( 'NONE', ( #285, #100, #13, #2 ) ) ;
#38 = ORIENTED_EDGE ( 'NONE', *, *, #49, .F. ) ;
#39 = CARTESIAN_POINT ( 'NONE',  ( 6.127574818941429733E-17, 0.0000000000000000000, 0.5003544551137261154 ) ) ;
#40 = AXIS2_PLACEMENT_3D ( 'NONE', #210, #53, #351 ) ;
#41 = AXIS2_PLACEMENT_3D ( 'NONE', #143, #207, #153 ) ;
#42 = VERTEX_POINT ( 'NONE', #135 ) ;
#43 = VERTEX_POINT ( 'NONE', #129 ) ;
#44 = ORIENTED_EDGE ( 'NONE', *, *, #271, .T. ) ;
#45 = DIRECTION ( 'NONE',  ( -1.224646799147353700E-16, -0.0000000000000000000, -1.000000000000000000 ) ) ;
#46 = CIRCLE ( 'NONE', #243, 0.02000000000000000042 ) ;
#47 = ORIENTED_EDGE ( 'NONE', *, *, #148, .T. ) ;
#48 = LENGTH_MEASURE_WITH_UNIT ( LENGTH_MEASURE( 0.02539999999999999897 ), #290 );
#49 = EDGE_CURVE ( 'NONE', #231, #42, #3, .T. ) ;
#50 = FACE_OUTER_BOUND ( 'NONE', #330, .T. ) ;
#51 = FACE_OUTER_BOUND ( 'NONE', #239, .T. ) ;
#52 = AXIS2_PLACEMENT_3D ( 'NONE', #134, #68, #279 ) ;
#53 = DIRECTION ( 'NONE',  ( -0.0000000000000000000, -0.0000000000000000000, -1.000000000000000000 ) ) ;
#54 = AXIS2_PLACEMENT_3D ( 'NONE', #132, #324, #242 ) ;
#55 = ORIENTED_EDGE ( 'NONE', *, *, #148, .F. ) ;
#56 = ORIENTED_EDGE ( 'NONE', *, *, #235, .F. ) ;
#57 = CARTESIAN_POINT ( 'NONE',  ( 0.0000000000000000000, 0.0000000000000000000, 1.500000000000000222 ) ) ;
#58 = SURFACE_STYLE_USAGE ( .BOTH. , #272 ) ;
#59 = EDGE_CURVE ( 'NONE', #181, #75, #140, .T. ) ;
#60 = CARTESIAN_POINT ( 'NONE',  ( 6.123233995736768501E-17, 0.0000000000000000000, 0.5000000000000000000 ) ) ;
#61 =( CONVERSION_BASED_UNIT ( 'INCH', #137 ) LENGTH_UNIT ( ) NAMED_UNIT ( #30 ) );
#62 = VECTOR ( 'NONE', #260, 39.37007874015748143 ) ;
#63 = ORIENTED_EDGE ( 'NONE', *, *, #296, .F. ) ;
#64 = DIRECTION ( 'NONE',  ( -1.224646799147353700E-16, -0.0000000000000000000, -1.000000000000000000 ) ) ;
#65 = DIRECTION ( 'NONE',  ( -1.000000000000000000, 0.0000000000000000000, 0.0000000000000000000 ) ) ;
#66 = ADVANCED_FACE ( 'NONE', ( #273 ), #241, .T. ) ;
#67 = AXIS2_PLACEMENT_3D ( 'NONE', #308, #199, #19 ) ;
#68 = DIRECTION ( 'NONE',  ( -1.224646799147353700E-16, -0.0000000000000000000, -1.000000000000000000 ) ) ;
#69 = DIRECTION ( 'NONE',  ( 1.000000000000000000, 0.0000000000000000000, 0.0000000000000000000 ) ) ;
#70 = CARTESIAN_POINT ( 'NONE',  ( 0.0000000000000000000, 0.0000000000000000000, 1.500000000000000222 ) ) ;
#71 = DIRECTION ( 'NONE',  ( -1.000000000000000000, 1.224646799147353454E-16, 0.0000000000000000000 ) ) ;
#72 = ADVANCED_FACE ( 'NONE', ( #28 ), #136, .T. ) ;
#73 = EDGE_LOOP ( 'NONE', ( #174, #188, #337, #55 ) ) ;
#74 = ORIENTED_EDGE ( 'NONE', *, *, #59, .F. ) ;
#75 = VERTEX_POINT ( 'NONE', #161 ) ;
#76 = CARTESIAN_POINT ( 'NONE',  ( 6.123233995736768501E-17, 0.0000000000000000000, 0.5000000000000000000 ) ) ;
#77 = ORIENTED_EDGE ( 'NONE', *, *, #14, .F. ) ;
#78 =( CONVERSION_BASED_UNIT ( 'INCH', #312 ) LENGTH_UNIT ( ) NAMED_UNIT ( #4 ) );
#79 = PRESENTATION_STYLE_ASSIGNMENT (( #203 ) ) ;
#80 = EDGE_LOOP ( 'NONE', ( #236, #17, #200, #339 ) ) ;
#81 = EDGE_CURVE ( 'NONE', #104, #165, #284, .T. ) ;
#82 =( NAMED_UNIT ( * ) PLANE_ANGLE_UNIT ( ) SI_UNIT ( $, .RADIAN. ) );
#83 = VERTEX_POINT ( 'NONE', #6 ) ;
#84 = FILL_AREA_STYLE ('',( #191 ) ) ;
#85 = AXIS2_PLACEMENT_3D ( 'NONE', #276, #96, #93 ) ;
#86 = ORIENTED_EDGE ( 'NONE', *, *, #158, .F. ) ;
#87 = SHAPE_DEFINITION_REPRESENTATION ( #8, #206 ) ;
#88 = ADVANCED_FACE ( 'NONE', ( #216 ), #278, .F. ) ;
#89 = VERTEX_POINT ( 'NONE', #219 ) ;
#90 = CARTESIAN_POINT ( 'NONE',  ( 2.449293598294707539E-18, 0.0000000000000000000, 0.02000000000000000042 ) ) ;
#91 = CARTESIAN_POINT ( 'NONE',  ( 2.449293598294707539E-18, 0.0000000000000000000, 0.02000000000000000042 ) ) ;
#92 = CARTESIAN_POINT ( 'NONE',  ( -0.04243750000000000994, 6.421741653028935338E-18, 0.0000000000000000000 ) ) ;
#93 = DIRECTION ( 'NONE',  ( 1.000000000000000000, 0.0000000000000000000, 0.0000000000000000000 ) ) ;
#94 = AXIS2_PLACEMENT_3D ( 'NONE', #110, #114, #293 ) ;
#95 = CONICAL_SURFACE ( 'NONE', #32, 0.04750000000000064587, 0.7853981633974466137 ) ;
#96 = DIRECTION ( 'NONE',  ( 0.0000000000000000000, 0.0000000000000000000, -1.000000000000000000 ) ) ;
#97 = CARTESIAN_POINT ( 'NONE',  ( -0.04243750000000000994, 5.197094853881581761E-18, 0.02000000000000000042 ) ) ;
#98 = EDGE_CURVE ( 'NONE', #43, #341, #133, .T. ) ;
#99 = LINE ( 'NONE', #16, #169 ) ;
#100 = ORIENTED_EDGE ( 'NONE', *, *, #348, .T. ) ;
#101 = FACE_OUTER_BOUND ( 'NONE', #109, .T. ) ;
#102 = ADVANCED_FACE ( 'NONE', ( #222 ), #220, .T. ) ;
#103 = ORIENTED_EDGE ( 'NONE', *, *, #34, .F. ) ;
#104 = VERTEX_POINT ( 'NONE', #253 ) ;
#105 = CARTESIAN_POINT ( 'NONE',  ( 0.04750000000000064587, 5.817072295950006528E-18, 1.500000000000000222 ) ) ;
#106 = CIRCLE ( 'NONE', #25, 0.06243750000000001382 ) ;
#107 = VECTOR ( 'NONE', #64, 39.37007874015748143 ) ;
#108 = LINE ( 'NONE', #105, #223 ) ;
#109 = EDGE_LOOP ( 'NONE', ( #228, #44, #315, #86 ) ) ;
#110 = CARTESIAN_POINT ( 'NONE',  ( 0.0000000000000000000, 0.0000000000000000000, 1.485000000000000764 ) ) ;
#111 = APPLICATION_CONTEXT ( 'automotive_design' ) ;
#112 = AXIS2_PLACEMENT_3D ( 'NONE', #39, #115, #338 ) ;
#113 = ADVANCED_FACE ( 'NONE', ( #145 ), #10, .T. ) ;
#114 = DIRECTION ( 'NONE',  ( 0.0000000000000000000, 0.0000000000000000000, -1.000000000000000000 ) ) ;
#115 = DIRECTION ( 'NONE',  ( -1.224646799147353700E-16, -0.0000000000000000000, -1.000000000000000000 ) ) ;
#116 = TOROIDAL_SURFACE ( 'NONE', #157, 0.04243750000000000994, 0.02000000000000000042 ) ;
#117 = LINE ( 'NONE', #336, #300 ) ;
#118 = DIRECTION ( 'NONE',  ( -1.224646799147353700E-16, -0.0000000000000000000, -1.000000000000000000 ) ) ;
#119 = EDGE_LOOP ( 'NONE', ( #281, #56, #291, #103 ) ) ;
#120 = CARTESIAN_POINT ( 'NONE',  ( 2.449293598294707539E-18, 0.0000000000000000000, 0.02000000000000000042 ) ) ;
#121 = ORIENTED_EDGE ( 'NONE', *, *, #122, .T. ) ;
#122 = EDGE_CURVE ( 'NONE', #42, #231, #162, .T. ) ;
#123 = ORIENTED_EDGE ( 'NONE', *, *, #335, .T. ) ;
#124 = ORIENTED_EDGE ( 'NONE', *, *, #283, .T. ) ;
#125 = DIRECTION ( 'NONE',  ( -0.0000000000000000000, -0.0000000000000000000, -1.000000000000000000 ) ) ;
#126 = DIRECTION ( 'NONE',  ( -1.000000000000000000, 0.0000000000000000000, 0.0000000000000000000 ) ) ;
#127 = COLOUR_RGB ( '',0.7921568627450980005, 0.8196078431372548767, 0.9333333333333333481 ) ;
#128 =( LENGTH_UNIT ( ) NAMED_UNIT ( * ) SI_UNIT ( $, .METRE. ) );
#129 = CARTESIAN_POINT ( 'NONE',  ( 0.06243750000000001382, 7.646388452176288915E-18, 0.02000000000000000042 ) ) ;
#130 = FILL_AREA_STYLE_COLOUR ( '', #232 ) ;
#131 = DIRECTION ( 'NONE',  ( -0.0000000000000000000, -0.0000000000000000000, -1.000000000000000000 ) ) ;
#132 = CARTESIAN_POINT ( 'NONE',  ( 0.0000000000000000000, 0.0000000000000000000, 0.0000000000000000000 ) ) ;
#133 = CIRCLE ( 'NONE', #332, 0.06243750000000001382 ) ;
#134 = CARTESIAN_POINT ( 'NONE',  ( 6.123233995736768501E-17, 0.0000000000000000000, 0.5000000000000000000 ) ) ;
#135 = CARTESIAN_POINT ( 'NONE',  ( -0.06250000000000002776, 0.0000000000000000000, 1.485000000000000764 ) ) ;
#136 = CYLINDRICAL_SURFACE ( 'NONE', #299, 0.06250000000000002776 ) ;
#137 = LENGTH_MEASURE_WITH_UNIT ( LENGTH_MEASURE( 0.02539999999999999897 ), #303 );
#138 = CARTESIAN_POINT ( 'NONE',  ( 0.06243750000000001382, 7.646388452176288915E-18, -7.646388452176291997E-18 ) ) ;
#139 = DIRECTION ( 'NONE',  ( -0.1736481776669310528, 2.126576849575781776E-17, 0.9848077530122080203 ) ) ;
#140 = CIRCLE ( 'NONE', #221, 0.04243750000000000994 ) ;
#141 = EDGE_CURVE ( 'NONE', #306, #142, #192, .T. ) ;
#142 = VERTEX_POINT ( 'NONE', #11 ) ;
#143 = CARTESIAN_POINT ( 'NONE',  ( 0.0000000000000000000, 0.0000000000000000000, 1.500000000000000222 ) ) ;
#144 = AXIS2_PLACEMENT_3D ( 'NONE', #70, #254, #31 ) ;
#145 = FACE_OUTER_BOUND ( 'NONE', #269, .T. ) ;
#146 = ORIENTED_EDGE ( 'NONE', *, *, #182, .F. ) ;
#147 = LINE ( 'NONE', #334, #62 ) ;
#148 = EDGE_CURVE ( 'NONE', #165, #341, #168, .T. ) ;
#149 = DIRECTION ( 'NONE',  ( 1.000000000000000000, 0.0000000000000000000, 0.0000000000000000000 ) ) ;
#150 = CARTESIAN_POINT ( 'NONE',  ( -0.06243749999999999994, 0.0000000000000000000, 0.02000000000000000042 ) ) ;
#151 = DIRECTION ( 'NONE',  ( -0.7071067811865462405, 0.0000000000000000000, -0.7071067811865486830 ) ) ;
#152 = DIRECTION ( 'NONE',  ( 1.000000000000000000, 0.0000000000000000000, -0.0000000000000000000 ) ) ;
#153 = DIRECTION ( 'NONE',  ( 1.000000000000000000, 0.0000000000000000000, 0.0000000000000000000 ) ) ;
#154 = DIRECTION ( 'NONE',  ( 0.7071067811865462405, 8.659560562354916834E-17, -0.7071067811865486830 ) ) ;
#155 =( GEOMETRIC_REPRESENTATION_CONTEXT ( 3 ) GLOBAL_UNCERTAINTY_ASSIGNED_CONTEXT ( ( #186 ) ) GLOBAL_UNIT_ASSIGNED_CONTEXT ( ( #61, #1, #164 ) ) REPRESENTATION_CONTEXT ( 'NONE', 'WORKASPACE' ) );
#156 = DIRECTION ( 'NONE',  ( -0.0000000000000000000, -0.0000000000000000000, -1.000000000000000000 ) ) ;
#157 = AXIS2_PLACEMENT_3D ( 'NONE', #120, #344, #345 ) ;
#158 = EDGE_CURVE ( 'NONE', #104, #83, #117, .T. ) ;
#159 = EDGE_LOOP ( 'NONE', ( #246, #255, #259, #146 ) ) ;
#160 = EDGE_CURVE ( 'NONE', #104, #43, #167, .T. ) ;
#161 = CARTESIAN_POINT ( 'NONE',  ( 0.04243750000000000994, 0.0000000000000000000, 0.0000000000000000000 ) ) ;
#162 = CIRCLE ( 'NONE', #85, 0.06250000000000002776 ) ;
#163 = CARTESIAN_POINT ( 'NONE',  ( 2.449293598294707539E-18, 0.0000000000000000000, 0.02000000000000000042 ) ) ;
#164 =( NAMED_UNIT ( * ) SI_UNIT ( $, .STERADIAN. ) SOLID_ANGLE_UNIT ( ) );
#165 = VERTEX_POINT ( 'NONE', #258 ) ;
#166 = APPLICATION_PROTOCOL_DEFINITION ( 'draft international standard', 'automotive_design', 1998, #111 ) ;
#167 = LINE ( 'NONE', #138, #12 ) ;
#168 = LINE ( 'NONE', #225, #107 ) ;
#169 = VECTOR ( 'NONE', #151, 39.37007874015748854 ) ;
#170 = PRODUCT_RELATED_PRODUCT_CATEGORY ( 'part', '', ( #252 ) ) ;
#171 = DIRECTION ( 'NONE',  ( 1.000000000000000000, 0.0000000000000000000, -0.0000000000000000000 ) ) ;
#172 = DIRECTION ( 'NONE',  ( 0.0000000000000000000, 0.0000000000000000000, 1.000000000000000000 ) ) ;
#173 = FACE_OUTER_BOUND ( 'NONE', #119, .T. ) ;
#174 = ORIENTED_EDGE ( 'NONE', *, *, #196, .T. ) ;
#175 = CIRCLE ( 'NONE', #349, 0.04243750000000000994 ) ;
#176 = ORIENTED_EDGE ( 'NONE', *, *, #98, .F. ) ;
#177 = SURFACE_STYLE_FILL_AREA ( #18 ) ;
#178 = VECTOR ( 'NONE', #125, 39.37007874015748143 ) ;
#179 = SURFACE_SIDE_STYLE ('',( #177 ) ) ;
#180 = CARTESIAN_POINT ( 'NONE',  ( 0.04750000000000064587, 6.735557395310483192E-18, 1.500000000000000222 ) ) ;
#181 = VERTEX_POINT ( 'NONE', #92 ) ;
#182 = EDGE_CURVE ( 'NONE', #83, #89, #205, .T. ) ;
#183 = AXIS2_PLACEMENT_3D ( 'NONE', #76, #45, #230 ) ;
#184 = DIRECTION ( 'NONE',  ( 1.000000000000000000, 0.0000000000000000000, 0.0000000000000000000 ) ) ;
#185 = ADVANCED_FACE ( 'NONE', ( #101 ), #209, .T. ) ;
#186 = UNCERTAINTY_MEASURE_WITH_UNIT (LENGTH_MEASURE( 1.000000000000000082E-05 ), #61, 'distance_accuracy_value', 'NONE');
#187 = ORIENTED_EDGE ( 'NONE', *, *, #141, .T. ) ;
#188 = ORIENTED_EDGE ( 'NONE', *, *, #160, .T. ) ;
#189 = SURFACE_STYLE_FILL_AREA ( #84 ) ;
#190 = ORIENTED_EDGE ( 'NONE', *, *, #81, .T. ) ;
#191 = FILL_AREA_STYLE_COLOUR ( '', #127 ) ;
#192 = CIRCLE ( 'NONE', #144, 0.04750000000000064587 ) ;
#193 = CONICAL_SURFACE ( 'NONE', #211, 0.06243750000000001382, 0.1745329251994337805 ) ;
#194 = ORIENTED_EDGE ( 'NONE', *, *, #235, .T. ) ;
#195 = TOROIDAL_SURFACE ( 'NONE', #26, 0.04243750000000000994, 0.02000000000000000042 ) ;
#196 = EDGE_CURVE ( 'NONE', #165, #104, #343, .T. ) ;
#197 = DIRECTION ( 'NONE',  ( 1.224646799147353207E-16, 1.000000000000000000, -0.0000000000000000000 ) ) ;
#198 = DIRECTION ( 'NONE',  ( 0.1736481776669312749, 0.0000000000000000000, 0.9848077530122077983 ) ) ;
#199 = DIRECTION ( 'NONE',  ( 1.224646799147353700E-16, 0.0000000000000000000, 1.000000000000000000 ) ) ;
#200 = ORIENTED_EDGE ( 'NONE', *, *, #158, .T. ) ;
#201 =( GEOMETRIC_REPRESENTATION_CONTEXT ( 3 ) GLOBAL_UNCERTAINTY_ASSIGNED_CONTEXT ( ( #298 ) ) GLOBAL_UNIT_ASSIGNED_CONTEXT ( ( #208, #340, #267 ) ) REPRESENTATION_CONTEXT ( 'NONE', 'WORKASPACE' ) );
#202 = ORIENTED_EDGE ( 'NONE', *, *, #233, .F. ) ;
#203 = SURFACE_STYLE_USAGE ( .BOTH. , #179 ) ;
#204 = EDGE_CURVE ( 'NONE', #142, #42, #99, .T. ) ;
#205 = CIRCLE ( 'NONE', #217, 0.06250000000000002776 ) ;
#206 = ADVANCED_BREP_SHAPE_REPRESENTATION ( 'Micro_GEC-125-4-020X', ( #328, #54 ), #326 ) ;
#207 = DIRECTION ( 'NONE',  ( 0.0000000000000000000, 0.0000000000000000000, 1.000000000000000000 ) ) ;
#208 =( CONVERSION_BASED_UNIT ( 'INCH', #48 ) LENGTH_UNIT ( ) NAMED_UNIT ( #247 ) );
#209 = CONICAL_SURFACE ( 'NONE', #67, 0.06243750000000001382, 0.1745329251994337805 ) ;
#210 = CARTESIAN_POINT ( 'NONE',  ( 0.0000000000000000000, 0.0000000000000000000, 1.500000000000000222 ) ) ;
#211 = AXIS2_PLACEMENT_3D ( 'NONE', #60, #347, #323 ) ;
#212 = ORIENTED_EDGE ( 'NONE', *, *, #348, .F. ) ;
#213 = EDGE_LOOP ( 'NONE', ( #194, #309 ) ) ;
#214 = APPLICATION_PROTOCOL_DEFINITION ( 'draft international standard', 'automotive_design', 1998, #287 ) ;
#215 = FACE_OUTER_BOUND ( 'NONE', #234, .T. ) ;
#216 = FACE_OUTER_BOUND ( 'NONE', #213, .T. ) ;
#217 = AXIS2_PLACEMENT_3D ( 'NONE', #251, #118, #149 ) ;
#218 = CIRCLE ( 'NONE', #257, 0.02000000000000000042 ) ;
#219 = CARTESIAN_POINT ( 'NONE',  ( -0.06249999999999996531, 0.0000000000000000000, 0.5003544551137261154 ) ) ;
#220 = CYLINDRICAL_SURFACE ( 'NONE', #311, 0.06243750000000001382 ) ;
#221 = AXIS2_PLACEMENT_3D ( 'NONE', #245, #131, #319 ) ;
#222 = FACE_OUTER_BOUND ( 'NONE', #73, .T. ) ;
#223 = VECTOR ( 'NONE', #154, 39.37007874015748854 ) ;
#224 = CLOSED_SHELL ( 'NONE', ( #250, #102, #185, #316, #66, #72, #307, #113, #9, #322, #88, #294 ) ) ;
#225 = CARTESIAN_POINT ( 'NONE',  ( -0.06243750000000001382, 0.0000000000000000000, 7.646388452176291997E-18 ) ) ;
#226 = ORIENTED_EDGE ( 'NONE', *, *, #296, .T. ) ;
#227 = DIRECTION ( 'NONE',  ( -0.0000000000000000000, -0.0000000000000000000, -1.000000000000000000 ) ) ;
#228 = ORIENTED_EDGE ( 'NONE', *, *, #196, .F. ) ;
#229 = CARTESIAN_POINT ( 'NONE',  ( -0.06243749999999995137, 7.646388452176288915E-18, 0.5000000000000000000 ) ) ;
#230 = DIRECTION ( 'NONE',  ( -1.000000000000000000, 0.0000000000000000000, 0.0000000000000000000 ) ) ;
#231 = VERTEX_POINT ( 'NONE', #346 ) ;
#232 = COLOUR_RGB ( '',0.7921568627450980005, 0.8196078431372548767, 0.9333333333333333481 ) ;
#233 = EDGE_CURVE ( 'NONE', #89, #83, #263, .T. ) ;
#234 = EDGE_LOOP ( 'NONE', ( #74, #124, #176, #77 ) ) ;
#235 = EDGE_CURVE ( 'NONE', #75, #181, #175, .T. ) ;
#236 = ORIENTED_EDGE ( 'NONE', *, *, #271, .F. ) ;
#237 = DIRECTION ( 'NONE',  ( -1.224646799147353700E-16, -0.0000000000000000000, -1.000000000000000000 ) ) ;
#238 = PRESENTATION_LAYER_ASSIGNMENT (  '', '', ( #304 ) ) ;
#239 = EDGE_LOOP ( 'NONE', ( #261, #190, #47, #297 ) ) ;
#240 = CARTESIAN_POINT ( 'NONE',  ( 0.0000000000000000000, 0.0000000000000000000, 0.0000000000000000000 ) ) ;
#241 = CYLINDRICAL_SURFACE ( 'NONE', #40, 0.06250000000000002776 ) ;
#242 = DIRECTION ( 'NONE',  ( 1.000000000000000000, 0.0000000000000000000, 0.0000000000000000000 ) ) ;
#243 = AXIS2_PLACEMENT_3D ( 'NONE', #97, #197, #71 ) ;
#244 = CARTESIAN_POINT ( 'NONE',  ( 0.04243750000000000994, 0.0000000000000000000, 0.02000000000000000042 ) ) ;
#245 = CARTESIAN_POINT ( 'NONE',  ( 2.449293598294707539E-18, 0.0000000000000000000, 0.0000000000000000000 ) ) ;
#246 = ORIENTED_EDGE ( 'NONE', *, *, #335, .F. ) ;
#247 = DIMENSIONAL_EXPONENTS ( 1.000000000000000000, 0.0000000000000000000, 0.0000000000000000000, 0.0000000000000000000, 0.0000000000000000000, 0.0000000000000000000, 0.0000000000000000000 ) ;
#248 = AXIS2_PLACEMENT_3D ( 'NONE', #275, #327, #171 ) ;
#249 = PRODUCT_DEFINITION_FORMATION_WITH_SPECIFIED_SOURCE ( 'ANY', '', #252, .NOT_KNOWN. ) ;
#250 = ADVANCED_FACE ( 'NONE', ( #215 ), #195, .T. ) ;
#251 = CARTESIAN_POINT ( 'NONE',  ( 6.127574818941429733E-17, 0.0000000000000000000, 0.5003544551137261154 ) ) ;
#252 = PRODUCT ( 'Micro_GEC-125-4-020X', 'Micro_GEC-125-4-020X', '', ( #321 ) ) ;
#253 = CARTESIAN_POINT ( 'NONE',  ( 0.06243750000000006933, 0.0000000000000000000, 0.5000000000000000000 ) ) ;
#254 = DIRECTION ( 'NONE',  ( 0.0000000000000000000, 0.0000000000000000000, 1.000000000000000000 ) ) ;
#255 = ORIENTED_EDGE ( 'NONE', *, *, #49, .T. ) ;
#256 = AXIS2_PLACEMENT_3D ( 'NONE', #282, #342, #152 ) ;
#257 = AXIS2_PLACEMENT_3D ( 'NONE', #244, #23, #301 ) ;
#258 = CARTESIAN_POINT ( 'NONE',  ( -0.06243749999999995137, 7.650215473423624771E-18, 0.5000000000000000000 ) ) ;
#259 = ORIENTED_EDGE ( 'NONE', *, *, #264, .T. ) ;
#260 = DIRECTION ( 'NONE',  ( -0.0000000000000000000, -0.0000000000000000000, -1.000000000000000000 ) ) ;
#261 = ORIENTED_EDGE ( 'NONE', *, *, #160, .F. ) ;
#262 = ORIENTED_EDGE ( 'NONE', *, *, #264, .F. ) ;
#263 = CIRCLE ( 'NONE', #112, 0.06250000000000002776 ) ;
#264 = EDGE_CURVE ( 'NONE', #42, #89, #147, .T. ) ;
#265 = CARTESIAN_POINT ( 'NONE',  ( 0.06250000000000002776, 7.654042494670959086E-18, 1.500000000000000222 ) ) ;
#266 = FACE_OUTER_BOUND ( 'NONE', #37, .T. ) ;
#267 =( NAMED_UNIT ( * ) SI_UNIT ( $, .STERADIAN. ) SOLID_ANGLE_UNIT ( ) );
#268 = STYLED_ITEM ( 'NONE', ( #29 ), #206 ) ;
#269 = EDGE_LOOP ( 'NONE', ( #212, #63, #15, #38 ) ) ;
#270 = VECTOR ( 'NONE', #139, 39.37007874015748854 ) ;
#271 = EDGE_CURVE ( 'NONE', #165, #89, #302, .T. ) ;
#272 = SURFACE_SIDE_STYLE ('',( #189 ) ) ;
#273 = FACE_OUTER_BOUND ( 'NONE', #295, .T. ) ;
#274 = CARTESIAN_POINT ( 'NONE',  ( 0.0000000000000000000, 0.0000000000000000000, 0.0000000000000000000 ) ) ;
#275 = CARTESIAN_POINT ( 'NONE',  ( 0.0000000000000000000, 0.0000000000000000000, 0.0000000000000000000 ) ) ;
#276 = CARTESIAN_POINT ( 'NONE',  ( 0.0000000000000000000, 0.0000000000000000000, 1.485000000000000764 ) ) ;
#277 = CARTESIAN_POINT ( 'NONE',  ( 2.449293598294707539E-18, 0.0000000000000000000, 0.0000000000000000000 ) ) ;
#278 = PLANE ( 'NONE',  #248 ) ;
#279 = DIRECTION ( 'NONE',  ( -1.000000000000000000, 0.0000000000000000000, 0.0000000000000000000 ) ) ;
#280 = AXIS2_PLACEMENT_3D ( 'NONE', #240, #237, #317 ) ;
#281 = ORIENTED_EDGE ( 'NONE', *, *, #283, .F. ) ;
#282 = CARTESIAN_POINT ( 'NONE',  ( 0.0000000000000000000, 0.0000000000000000000, 1.500000000000000222 ) ) ;
#283 = EDGE_CURVE ( 'NONE', #181, #341, #46, .T. ) ;
#284 = CIRCLE ( 'NONE', #52, 0.06243750000000001382 ) ;
#285 = ORIENTED_EDGE ( 'NONE', *, *, #141, .F. ) ;
#286 = PLANE ( 'NONE',  #256 ) ;
#287 = APPLICATION_CONTEXT ( 'automotive_design' ) ;
#288 = MECHANICAL_DESIGN_GEOMETRIC_PRESENTATION_REPRESENTATION (  '', ( #304 ), #201 ) ;
#289 = PRODUCT_DEFINITION_CONTEXT ( 'detailed design', #111, 'design' ) ;
#290 =( LENGTH_UNIT ( ) NAMED_UNIT ( * ) SI_UNIT ( $, .METRE. ) );
#291 = ORIENTED_EDGE ( 'NONE', *, *, #14, .T. ) ;
#292 = CYLINDRICAL_SURFACE ( 'NONE', #280, 0.06243750000000001382 ) ;
#293 = DIRECTION ( 'NONE',  ( 1.000000000000000000, 0.0000000000000000000, 0.0000000000000000000 ) ) ;
#294 = ADVANCED_FACE ( 'NONE', ( #173 ), #116, .T. ) ;
#295 = EDGE_LOOP ( 'NONE', ( #121, #123, #202, #262 ) ) ;
#296 = EDGE_CURVE ( 'NONE', #142, #306, #5, .T. ) ;
#297 = ORIENTED_EDGE ( 'NONE', *, *, #34, .T. ) ;
#298 = UNCERTAINTY_MEASURE_WITH_UNIT (LENGTH_MEASURE( 1.000000000000000082E-05 ), #208, 'distance_accuracy_value', 'NONE');
#299 = AXIS2_PLACEMENT_3D ( 'NONE', #57, #156, #24 ) ;
#300 = VECTOR ( 'NONE', #198, 39.37007874015748143 ) ;
#301 = DIRECTION ( 'NONE',  ( 0.0000000000000000000, 0.0000000000000000000, -1.000000000000000000 ) ) ;
#302 = LINE ( 'NONE', #229, #270 ) ;
#303 =( LENGTH_UNIT ( ) NAMED_UNIT ( * ) SI_UNIT ( $, .METRE. ) );
#304 = STYLED_ITEM ( 'NONE', ( #79 ), #328 ) ;
#305 = DIRECTION ( 'NONE',  ( 0.0000000000000000000, 0.0000000000000000000, 1.000000000000000000 ) ) ;
#306 = VERTEX_POINT ( 'NONE', #180 ) ;
#307 = ADVANCED_FACE ( 'NONE', ( #50 ), #286, .T. ) ;
#308 = CARTESIAN_POINT ( 'NONE',  ( 6.123233995736768501E-17, 0.0000000000000000000, 0.5000000000000000000 ) ) ;
#309 = ORIENTED_EDGE ( 'NONE', *, *, #59, .T. ) ;
#310 =( NAMED_UNIT ( * ) SI_UNIT ( $, .STERADIAN. ) SOLID_ANGLE_UNIT ( ) );
#311 = AXIS2_PLACEMENT_3D ( 'NONE', #274, #36, #7 ) ;
#312 = LENGTH_MEASURE_WITH_UNIT ( LENGTH_MEASURE( 0.02539999999999999897 ), #128 );
#313 = MECHANICAL_DESIGN_GEOMETRIC_PRESENTATION_REPRESENTATION (  '', ( #268 ), #155 ) ;
#314 = DIRECTION ( 'NONE',  ( 0.0000000000000000000, 0.0000000000000000000, -1.000000000000000000 ) ) ;
#315 = ORIENTED_EDGE ( 'NONE', *, *, #233, .T. ) ;
#316 = ADVANCED_FACE ( 'NONE', ( #266 ), #95, .T. ) ;
#317 = DIRECTION ( 'NONE',  ( -1.000000000000000000, 0.0000000000000000000, 1.224646799147353700E-16 ) ) ;
#318 = PRESENTATION_LAYER_ASSIGNMENT (  '', '', ( #268 ) ) ;
#319 = DIRECTION ( 'NONE',  ( 1.000000000000000000, 0.0000000000000000000, 0.0000000000000000000 ) ) ;
#320 = UNCERTAINTY_MEASURE_WITH_UNIT (LENGTH_MEASURE( 1.000000000000000082E-05 ), #78, 'distance_accuracy_value', 'NONE');
#321 = PRODUCT_CONTEXT ( 'NONE', #287, 'mechanical' ) ;
#322 = ADVANCED_FACE ( 'NONE', ( #51 ), #292, .T. ) ;
#323 = DIRECTION ( 'NONE',  ( 1.000000000000000000, 0.0000000000000000000, 0.0000000000000000000 ) ) ;
#324 = DIRECTION ( 'NONE',  ( 0.0000000000000000000, 0.0000000000000000000, 1.000000000000000000 ) ) ;
#325 = PRODUCT_DEFINITION ( 'UNKNOWN', '', #249, #289 ) ;
#326 =( GEOMETRIC_REPRESENTATION_CONTEXT ( 3 ) GLOBAL_UNCERTAINTY_ASSIGNED_CONTEXT ( ( #320 ) ) GLOBAL_UNIT_ASSIGNED_CONTEXT ( ( #78, #82, #310 ) ) REPRESENTATION_CONTEXT ( 'NONE', 'WORKASPACE' ) );
#327 = DIRECTION ( 'NONE',  ( 0.0000000000000000000, 0.0000000000000000000, 1.000000000000000000 ) ) ;
#328 = MANIFOLD_SOLID_BREP ( 'Fillet1', #224 ) ;
#329 = DIRECTION ( 'NONE',  ( -1.224646799147353700E-16, -0.0000000000000000000, -1.000000000000000000 ) ) ;
#330 = EDGE_LOOP ( 'NONE', ( #226, #187 ) ) ;
#331 = DIRECTION ( 'NONE',  ( 0.0000000000000000000, 0.0000000000000000000, -1.000000000000000000 ) ) ;
#332 = AXIS2_PLACEMENT_3D ( 'NONE', #91, #305, #33 ) ;
#333 = CARTESIAN_POINT ( 'NONE',  ( 0.0000000000000000000, 0.0000000000000000000, 1.500000000000000222 ) ) ;
#334 = CARTESIAN_POINT ( 'NONE',  ( -0.06250000000000002776, 0.0000000000000000000, 1.500000000000000222 ) ) ;
#335 = EDGE_CURVE ( 'NONE', #231, #83, #21, .T. ) ;
#336 = CARTESIAN_POINT ( 'NONE',  ( 0.06243750000000006933, 0.0000000000000000000, 0.5000000000000000000 ) ) ;
#337 = ORIENTED_EDGE ( 'NONE', *, *, #98, .T. ) ;
#338 = DIRECTION ( 'NONE',  ( 1.000000000000000000, 0.0000000000000000000, 0.0000000000000000000 ) ) ;
#339 = ORIENTED_EDGE ( 'NONE', *, *, #182, .T. ) ;
#340 =( NAMED_UNIT ( * ) PLANE_ANGLE_UNIT ( ) SI_UNIT ( $, .RADIAN. ) );
#341 = VERTEX_POINT ( 'NONE', #150 ) ;
#342 = DIRECTION ( 'NONE',  ( 0.0000000000000000000, 0.0000000000000000000, 1.000000000000000000 ) ) ;
#343 = CIRCLE ( 'NONE', #183, 0.06243750000000001382 ) ;
#344 = DIRECTION ( 'NONE',  ( 0.0000000000000000000, 0.0000000000000000000, 1.000000000000000000 ) ) ;
#345 = DIRECTION ( 'NONE',  ( 1.000000000000000000, 0.0000000000000000000, 0.0000000000000000000 ) ) ;
#346 = CARTESIAN_POINT ( 'NONE',  ( 0.06250000000000002776, 7.654042494670959086E-18, 1.485000000000000764 ) ) ;
#347 = DIRECTION ( 'NONE',  ( 1.224646799147353700E-16, 0.0000000000000000000, 1.000000000000000000 ) ) ;
#348 = EDGE_CURVE ( 'NONE', #306, #231, #108, .T. ) ;
#349 = AXIS2_PLACEMENT_3D ( 'NONE', #277, #227, #69 ) ;
#350 = FACE_OUTER_BOUND ( 'NONE', #80, .T. ) ;
#351 = DIRECTION ( 'NONE',  ( -1.000000000000000000, 0.0000000000000000000, 0.0000000000000000000 ) ) ;
ENDSEC;
END-ISO-10303-21;
