ISO-10303-21;
HEADER;
FILE_DESCRIPTION (( 'STEP AP214' ),
    '1' );
FILE_NAME ('59842.STEP',
    '2023-06-22T23:09:49',
    ( '' ),
    ( '' ),
    'SwSTEP 2.0',
    'SolidWorks 2023',
    '' );
FILE_SCHEMA (( 'AUTOMOTIVE_DESIGN' ));
ENDSEC;

DATA;
#1 = CARTESIAN_POINT ( 'NONE',  ( 0.1875000000000000833, 2.000000000000000000, 2.296212748401286493E-17 ) ) ;
#2 = AXIS2_PLACEMENT_3D ( 'NONE', #280, #205, #11 ) ;
#3 = LINE ( 'NONE', #1, #82 ) ;
#4 = ADVANCED_FACE ( 'NONE', ( #47 ), #158, .F. ) ;
#5 = CIRCLE ( 'NONE', #182, 0.1874999999999998890 ) ;
#6 = FILL_AREA_STYLE ('',( #197 ) ) ;
#7 = PRODUCT_CONTEXT ( 'NONE', #45, 'mechanical' ) ;
#8 =( CONVERSION_BASED_UNIT ( 'INCH', #132 ) LENGTH_UNIT ( ) NAMED_UNIT ( #207 ) );
#9 = EDGE_CURVE ( 'NONE', #285, #136, #24, .T. ) ;
#10 = CIRCLE ( 'NONE', #175, 0.1875000000000000278 ) ;
#11 = DIRECTION ( 'NONE',  ( 0.000000000000000000, 0.000000000000000000, -1.000000000000000000 ) ) ;
#12 = ADVANCED_FACE ( 'NONE', ( #262 ), #256, .T. ) ;
#13 = DIRECTION ( 'NONE',  ( 0.000000000000000000, 0.000000000000000000, -1.000000000000000000 ) ) ;
#14 = DIRECTION ( 'NONE',  ( -1.000000000000000000, 0.000000000000000000, 0.000000000000000000 ) ) ;
#15 = VERTEX_POINT ( 'NONE', #185 ) ;
#16 = COLOUR_RGB ( '',0.7921568627450980005, 0.8196078431372548767, 0.9333333333333333481 ) ;
#17 = EDGE_CURVE ( 'NONE', #184, #39, #299, .T. ) ;
#18 = CARTESIAN_POINT ( 'NONE',  ( 0.1875000000000000278, 2.000000000000000000, 2.296212748401286801E-17 ) ) ;
#19 = ORIENTED_EDGE ( 'NONE', *, *, #270, .T. ) ;
#20 = DIMENSIONAL_EXPONENTS ( 1.000000000000000000, 0.000000000000000000, 0.000000000000000000, 0.000000000000000000, 0.000000000000000000, 0.000000000000000000, 0.000000000000000000 ) ;
#21 = SURFACE_STYLE_FILL_AREA ( #63 ) ;
#22 = ORIENTED_EDGE ( 'NONE', *, *, #109, .T. ) ;
#23 = SURFACE_STYLE_USAGE ( .BOTH. , #306 ) ;
#24 = CIRCLE ( 'NONE', #138, 0.1875000000000000278 ) ;
#25 = COLOUR_RGB ( '',1.000000000000000000, 0.000000000000000000, 0.000000000000000000 ) ;
#26 = PRODUCT ( '59842', '59842', '', ( #7 ) ) ;
#27 =( GEOMETRIC_REPRESENTATION_CONTEXT ( 3 ) GLOBAL_UNCERTAINTY_ASSIGNED_CONTEXT ( ( #58 ) ) GLOBAL_UNIT_ASSIGNED_CONTEXT ( ( #302, #117, #283 ) ) REPRESENTATION_CONTEXT ( 'NONE', 'WORKASPACE' ) );
#28 = SHAPE_DEFINITION_REPRESENTATION ( #165, #272 ) ;
#29 = APPLICATION_PROTOCOL_DEFINITION ( 'draft international standard', 'automotive_design', 1998, #127 ) ;
#30 = FACE_OUTER_BOUND ( 'NONE', #166, .T. ) ;
#31 = UNCERTAINTY_MEASURE_WITH_UNIT (LENGTH_MEASURE( 1.000000000000000082E-05 ), #121, 'distance_accuracy_value', 'NONE');
#32 = STYLED_ITEM ( 'NONE', ( #91 ), #33 ) ;
#33 = ADVANCED_FACE ( 'NONE', ( #278 ), #67, .T. ) ;
#34 = CARTESIAN_POINT ( 'NONE',  ( 1.224646799147353700E-16, 2.000000000000000000, 0.000000000000000000 ) ) ;
#35 = FILL_AREA_STYLE_COLOUR ( '', #72 ) ;
#36 = FILL_AREA_STYLE ('',( #163 ) ) ;
#37 =( LENGTH_UNIT ( ) NAMED_UNIT ( * ) SI_UNIT ( $, .METRE. ) );
#38 = SURFACE_STYLE_FILL_AREA ( #36 ) ;
#39 = VERTEX_POINT ( 'NONE', #41 ) ;
#40 = PRODUCT_DEFINITION_CONTEXT ( 'detailed design', #127, 'design' ) ;
#41 = CARTESIAN_POINT ( 'NONE',  ( -0.1874999999999997502, 2.000000000000000000, 0.000000000000000000 ) ) ;
#42 = ORIENTED_EDGE ( 'NONE', *, *, #17, .F. ) ;
#43 = AXIS2_PLACEMENT_3D ( 'NONE', #297, #89, #13 ) ;
#44 = VERTEX_POINT ( 'NONE', #18 ) ;
#45 = APPLICATION_CONTEXT ( 'automotive_design' ) ;
#46 = DIMENSIONAL_EXPONENTS ( 1.000000000000000000, 0.000000000000000000, 0.000000000000000000, 0.000000000000000000, 0.000000000000000000, 0.000000000000000000, 0.000000000000000000 ) ;
#47 = FACE_OUTER_BOUND ( 'NONE', #287, .T. ) ;
#48 = CARTESIAN_POINT ( 'NONE',  ( 1.224646799147353700E-16, 2.000000000000000000, 0.000000000000000000 ) ) ;
#49 = CARTESIAN_POINT ( 'NONE',  ( 0.000000000000000000, 0.000000000000000000, 0.000000000000000000 ) ) ;
#50 = VECTOR ( 'NONE', #115, 39.37007874015748143 ) ;
#51 =( NAMED_UNIT ( * ) PLANE_ANGLE_UNIT ( ) SI_UNIT ( $, .RADIAN. ) );
#52 =( NAMED_UNIT ( * ) SI_UNIT ( $, .STERADIAN. ) SOLID_ANGLE_UNIT ( ) );
#53 = CARTESIAN_POINT ( 'NONE',  ( 1.224646799147353700E-16, 2.000000000000000000, 0.000000000000000000 ) ) ;
#54 = SURFACE_STYLE_FILL_AREA ( #199 ) ;
#55 = DIRECTION ( 'NONE',  ( 8.164311994315692567E-17, 1.000000000000000000, -0.000000000000000000 ) ) ;
#56 = COLOUR_RGB ( '',1.000000000000000000, 0.000000000000000000, 0.000000000000000000 ) ;
#57 = CARTESIAN_POINT ( 'NONE',  ( 0.000000000000000000, 0.5000000000000001110, 0.000000000000000000 ) ) ;
#58 = UNCERTAINTY_MEASURE_WITH_UNIT (LENGTH_MEASURE( 1.000000000000000082E-05 ), #302, 'distance_accuracy_value', 'NONE');
#59 = DIRECTION ( 'NONE',  ( 0.000000000000000000, 0.000000000000000000, 1.000000000000000000 ) ) ;
#60 = LENGTH_MEASURE_WITH_UNIT ( LENGTH_MEASURE( 0.02539999999999999897 ), #86 );
#61 = FACE_OUTER_BOUND ( 'NONE', #70, .T. ) ;
#62 = PRODUCT_RELATED_PRODUCT_CATEGORY ( 'part', '', ( #26 ) ) ;
#63 = FILL_AREA_STYLE ('',( #203 ) ) ;
#64 = ORIENTED_EDGE ( 'NONE', *, *, #9, .T. ) ;
#65 = AXIS2_PLACEMENT_3D ( 'NONE', #48, #290, #240 ) ;
#66 = DIMENSIONAL_EXPONENTS ( 1.000000000000000000, 0.000000000000000000, 0.000000000000000000, 0.000000000000000000, 0.000000000000000000, 0.000000000000000000, 0.000000000000000000 ) ;
#67 = CYLINDRICAL_SURFACE ( 'NONE', #2, 0.1875000000000000278 ) ;
#68 = ORIENTED_EDGE ( 'NONE', *, *, #116, .F. ) ;
#69 = EDGE_CURVE ( 'NONE', #139, #96, #10, .T. ) ;
#70 = EDGE_LOOP ( 'NONE', ( #68, #99 ) ) ;
#71 = ORIENTED_EDGE ( 'NONE', *, *, #131, .T. ) ;
#72 = COLOUR_RGB ( '',1.000000000000000000, 0.000000000000000000, 0.000000000000000000 ) ;
#73 = CARTESIAN_POINT ( 'NONE',  ( 0.000000000000000000, 0.000000000000000000, 0.000000000000000000 ) ) ;
#74 = DIMENSIONAL_EXPONENTS ( 1.000000000000000000, 0.000000000000000000, 0.000000000000000000, 0.000000000000000000, 0.000000000000000000, 0.000000000000000000, 0.000000000000000000 ) ;
#75 = DIRECTION ( 'NONE',  ( -0.000000000000000000, -1.000000000000000000, -0.000000000000000000 ) ) ;
#76 =( NAMED_UNIT ( * ) PLANE_ANGLE_UNIT ( ) SI_UNIT ( $, .RADIAN. ) );
#77 = STYLED_ITEM ( 'NONE', ( #79 ), #253 ) ;
#78 = CARTESIAN_POINT ( 'NONE',  ( 0.000000000000000000, 0.5000000000000000000, 0.000000000000000000 ) ) ;
#79 = PRESENTATION_STYLE_ASSIGNMENT (( #192 ) ) ;
#80 = LINE ( 'NONE', #174, #296 ) ;
#81 = AXIS2_PLACEMENT_3D ( 'NONE', #229, #208, #187 ) ;
#82 = VECTOR ( 'NONE', #168, 39.37007874015748143 ) ;
#83 = SURFACE_STYLE_USAGE ( .BOTH. , #111 ) ;
#84 = ADVANCED_FACE ( 'NONE', ( #119 ), #286, .T. ) ;
#85 = ORIENTED_EDGE ( 'NONE', *, *, #219, .T. ) ;
#86 =( LENGTH_UNIT ( ) NAMED_UNIT ( * ) SI_UNIT ( $, .METRE. ) );
#87 = CARTESIAN_POINT ( 'NONE',  ( 2.296212748401287726E-17, 0.000000000000000000, 0.1875000000000000278 ) ) ;
#88 = AXIS2_PLACEMENT_3D ( 'NONE', #223, #59, #149 ) ;
#89 = DIRECTION ( 'NONE',  ( 0.000000000000000000, -1.000000000000000000, -0.000000000000000000 ) ) ;
#90 = DIRECTION ( 'NONE',  ( 8.164311994315692567E-17, 1.000000000000000000, -0.000000000000000000 ) ) ;
#91 = PRESENTATION_STYLE_ASSIGNMENT (( #228 ) ) ;
#92 = LENGTH_MEASURE_WITH_UNIT ( LENGTH_MEASURE( 0.02539999999999999897 ), #37 );
#93 = MECHANICAL_DESIGN_GEOMETRIC_PRESENTATION_REPRESENTATION (  '', ( #77 ), #289 ) ;
#94 = PRESENTATION_LAYER_ASSIGNMENT (  '', '', ( #125 ) ) ;
#95 = CARTESIAN_POINT ( 'NONE',  ( -0.1874999999999998057, 2.000000000000000000, 0.000000000000000000 ) ) ;
#96 = VERTEX_POINT ( 'NONE', #211 ) ;
#97 = ORIENTED_EDGE ( 'NONE', *, *, #219, .F. ) ;
#98 = CARTESIAN_POINT ( 'NONE',  ( 0.000000000000000000, 0.5000000000000000000, 0.000000000000000000 ) ) ;
#99 = ORIENTED_EDGE ( 'NONE', *, *, #69, .F. ) ;
#100 = ADVANCED_FACE ( 'NONE', ( #103 ), #104, .T. ) ;
#101 = COLOUR_RGB ( '',1.000000000000000000, 0.000000000000000000, 0.000000000000000000 ) ;
#102 = PRESENTATION_STYLE_ASSIGNMENT (( #190 ) ) ;
#103 = FACE_OUTER_BOUND ( 'NONE', #186, .T. ) ;
#104 = CYLINDRICAL_SURFACE ( 'NONE', #133, 0.1874999999999999445 ) ;
#105 = CIRCLE ( 'NONE', #241, 0.1875000000000000278 ) ;
#106 = DIRECTION ( 'NONE',  ( 8.164311994315692567E-17, 1.000000000000000000, -0.000000000000000000 ) ) ;
#107 = CARTESIAN_POINT ( 'NONE',  ( 6.248999094424413542E-34, 0.5000000000000000000, 0.000000000000000000 ) ) ;
#108 =( LENGTH_UNIT ( ) NAMED_UNIT ( * ) SI_UNIT ( $, .METRE. ) );
#109 = EDGE_CURVE ( 'NONE', #39, #44, #200, .T. ) ;
#110 = SURFACE_SIDE_STYLE ('',( #54 ) ) ;
#111 = SURFACE_SIDE_STYLE ('',( #176 ) ) ;
#112 = DIRECTION ( 'NONE',  ( -1.000000000000000000, 0.000000000000000000, 0.000000000000000000 ) ) ;
#113 = AXIS2_PLACEMENT_3D ( 'NONE', #57, #152, #112 ) ;
#114 = CARTESIAN_POINT ( 'NONE',  ( 1.224646799147353700E-16, 2.000000000000000000, 0.000000000000000000 ) ) ;
#115 = DIRECTION ( 'NONE',  ( 8.164311994315692567E-17, 1.000000000000000000, -0.000000000000000000 ) ) ;
#116 = EDGE_CURVE ( 'NONE', #96, #139, #212, .T. ) ;
#117 =( NAMED_UNIT ( * ) PLANE_ANGLE_UNIT ( ) SI_UNIT ( $, .RADIAN. ) );
#118 = ORIENTED_EDGE ( 'NONE', *, *, #122, .F. ) ;
#119 = FACE_OUTER_BOUND ( 'NONE', #284, .T. ) ;
#120 = ORIENTED_EDGE ( 'NONE', *, *, #122, .T. ) ;
#121 =( CONVERSION_BASED_UNIT ( 'INCH', #234 ) LENGTH_UNIT ( ) NAMED_UNIT ( #66 ) );
#122 = EDGE_CURVE ( 'NONE', #15, #44, #3, .T. ) ;
#123 = ORIENTED_EDGE ( 'NONE', *, *, #243, .F. ) ;
#124 = DIRECTION ( 'NONE',  ( 0.000000000000000000, -0.000000000000000000, 1.000000000000000000 ) ) ;
#125 = STYLED_ITEM ( 'NONE', ( #135 ), #84 ) ;
#126 =( GEOMETRIC_REPRESENTATION_CONTEXT ( 3 ) GLOBAL_UNCERTAINTY_ASSIGNED_CONTEXT ( ( #155 ) ) GLOBAL_UNIT_ASSIGNED_CONTEXT ( ( #178, #130, #154 ) ) REPRESENTATION_CONTEXT ( 'NONE', 'WORKASPACE' ) );
#127 = APPLICATION_CONTEXT ( 'automotive_design' ) ;
#128 = DIRECTION ( 'NONE',  ( -0.000000000000000000, -1.000000000000000000, -0.000000000000000000 ) ) ;
#129 = PRODUCT_DEFINITION_FORMATION_WITH_SPECIFIED_SOURCE ( 'ANY', '', #26, .NOT_KNOWN. ) ;
#130 =( NAMED_UNIT ( * ) PLANE_ANGLE_UNIT ( ) SI_UNIT ( $, .RADIAN. ) );
#131 = EDGE_CURVE ( 'NONE', #136, #285, #259, .T. ) ;
#132 = LENGTH_MEASURE_WITH_UNIT ( LENGTH_MEASURE( 0.02539999999999999897 ), #108 );
#133 = AXIS2_PLACEMENT_3D ( 'NONE', #53, #106, #245 ) ;
#134 = ORIENTED_EDGE ( 'NONE', *, *, #243, .T. ) ;
#135 = PRESENTATION_STYLE_ASSIGNMENT (( #137 ) ) ;
#136 = VERTEX_POINT ( 'NONE', #87 ) ;
#137 = SURFACE_STYLE_USAGE ( .BOTH. , #258 ) ;
#138 = AXIS2_PLACEMENT_3D ( 'NONE', #73, #167, #164 ) ;
#139 = VERTEX_POINT ( 'NONE', #196 ) ;
#140 = STYLED_ITEM ( 'NONE', ( #294 ), #261 ) ;
#141 = EDGE_CURVE ( 'NONE', #184, #15, #105, .T. ) ;
#142 = ORIENTED_EDGE ( 'NONE', *, *, #109, .F. ) ;
#143 = FILL_AREA_STYLE_COLOUR ( '', #101 ) ;
#144 = AXIS2_PLACEMENT_3D ( 'NONE', #107, #291, #150 ) ;
#145 = DIRECTION ( 'NONE',  ( -0.000000000000000000, -1.000000000000000000, -0.000000000000000000 ) ) ;
#146 = LENGTH_MEASURE_WITH_UNIT ( LENGTH_MEASURE( 0.02539999999999999897 ), #288 );
#147 = VECTOR ( 'NONE', #128, 39.37007874015748143 ) ;
#148 = PRESENTATION_LAYER_ASSIGNMENT (  '', '', ( #140 ) ) ;
#149 = DIRECTION ( 'NONE',  ( 1.000000000000000000, 0.000000000000000000, 0.000000000000000000 ) ) ;
#150 = DIRECTION ( 'NONE',  ( -1.000000000000000000, 8.164311994315692567E-17, 0.000000000000000000 ) ) ;
#151 = DIRECTION ( 'NONE',  ( -1.000000000000000000, 0.000000000000000000, 0.000000000000000000 ) ) ;
#152 = DIRECTION ( 'NONE',  ( 8.164311994315692567E-17, 1.000000000000000000, -0.000000000000000000 ) ) ;
#153 = PLANE ( 'NONE',  #279 ) ;
#154 =( NAMED_UNIT ( * ) SI_UNIT ( $, .STERADIAN. ) SOLID_ANGLE_UNIT ( ) );
#155 = UNCERTAINTY_MEASURE_WITH_UNIT (LENGTH_MEASURE( 1.000000000000000082E-05 ), #178, 'distance_accuracy_value', 'NONE');
#156 = SURFACE_SIDE_STYLE ('',( #21 ) ) ;
#157 = MECHANICAL_DESIGN_GEOMETRIC_PRESENTATION_REPRESENTATION (  '', ( #32 ), #27 ) ;
#158 = PLANE ( 'NONE',  #81 ) ;
#159 =( GEOMETRIC_REPRESENTATION_CONTEXT ( 3 ) GLOBAL_UNCERTAINTY_ASSIGNED_CONTEXT ( ( #171 ) ) GLOBAL_UNIT_ASSIGNED_CONTEXT ( ( #242, #51, #264 ) ) REPRESENTATION_CONTEXT ( 'NONE', 'WORKASPACE' ) );
#160 = DIRECTION ( 'NONE',  ( -0.000000000000000000, -1.000000000000000000, -0.000000000000000000 ) ) ;
#161 = ORIENTED_EDGE ( 'NONE', *, *, #69, .T. ) ;
#162 = CARTESIAN_POINT ( 'NONE',  ( 0.000000000000000000, 0.000000000000000000, -0.1875000000000000278 ) ) ;
#163 = FILL_AREA_STYLE_COLOUR ( '', #56 ) ;
#164 = DIRECTION ( 'NONE',  ( 0.000000000000000000, 0.000000000000000000, -1.000000000000000000 ) ) ;
#165 = PRODUCT_DEFINITION_SHAPE ( 'NONE', 'NONE',  #216 ) ;
#166 = EDGE_LOOP ( 'NONE', ( #303, #97 ) ) ;
#167 = DIRECTION ( 'NONE',  ( -0.000000000000000000, -1.000000000000000000, -0.000000000000000000 ) ) ;
#168 = DIRECTION ( 'NONE',  ( 8.164311994315692567E-17, 1.000000000000000000, -0.000000000000000000 ) ) ;
#169 = ADVANCED_FACE ( 'NONE', ( #61 ), #153, .T. ) ;
#170 = PRESENTATION_LAYER_ASSIGNMENT (  '', '', ( #32 ) ) ;
#171 = UNCERTAINTY_MEASURE_WITH_UNIT (LENGTH_MEASURE( 1.000000000000000082E-05 ), #242, 'distance_accuracy_value', 'NONE');
#172 = DIRECTION ( 'NONE',  ( -0.000000000000000000, -1.000000000000000000, -0.000000000000000000 ) ) ;
#173 = LINE ( 'NONE', #269, #147 ) ;
#174 = CARTESIAN_POINT ( 'NONE',  ( 0.000000000000000000, 0.000000000000000000, -0.1875000000000000278 ) ) ;
#175 = AXIS2_PLACEMENT_3D ( 'NONE', #98, #160, #255 ) ;
#176 = SURFACE_STYLE_FILL_AREA ( #6 ) ;
#177 = CARTESIAN_POINT ( 'NONE',  ( 0.000000000000000000, 0.5000000000000001110, 0.000000000000000000 ) ) ;
#178 =( CONVERSION_BASED_UNIT ( 'INCH', #60 ) LENGTH_UNIT ( ) NAMED_UNIT ( #20 ) );
#179 = PRESENTATION_LAYER_ASSIGNMENT (  '', '', ( #252 ) ) ;
#180 =( NAMED_UNIT ( * ) SI_UNIT ( $, .STERADIAN. ) SOLID_ANGLE_UNIT ( ) );
#181 = ORIENTED_EDGE ( 'NONE', *, *, #17, .T. ) ;
#182 = AXIS2_PLACEMENT_3D ( 'NONE', #34, #274, #247 ) ;
#183 = CYLINDRICAL_SURFACE ( 'NONE', #293, 0.1874999999999999445 ) ;
#184 = VERTEX_POINT ( 'NONE', #250 ) ;
#185 = CARTESIAN_POINT ( 'NONE',  ( 0.1875000000000000278, 0.5000000000000001110, 2.296212748401286801E-17 ) ) ;
#186 = EDGE_LOOP ( 'NONE', ( #118, #85, #181, #123 ) ) ;
#187 = DIRECTION ( 'NONE',  ( 1.000000000000000000, -8.164311994315692567E-17, 0.000000000000000000 ) ) ;
#188 =( GEOMETRIC_REPRESENTATION_CONTEXT ( 3 ) GLOBAL_UNCERTAINTY_ASSIGNED_CONTEXT ( ( #31 ) ) GLOBAL_UNIT_ASSIGNED_CONTEXT ( ( #121, #307, #226 ) ) REPRESENTATION_CONTEXT ( 'NONE', 'WORKASPACE' ) );
#189 = MECHANICAL_DESIGN_GEOMETRIC_PRESENTATION_REPRESENTATION (  '', ( #140 ), #126 ) ;
#190 = SURFACE_STYLE_USAGE ( .BOTH. , #239 ) ;
#191 =( LENGTH_UNIT ( ) NAMED_UNIT ( * ) SI_UNIT ( $, .METRE. ) );
#192 = SURFACE_STYLE_USAGE ( .BOTH. , #110 ) ;
#193 = STYLED_ITEM ( 'NONE', ( #202 ), #12 ) ;
#194 = PLANE ( 'NONE',  #144 ) ;
#195 = AXIS2_PLACEMENT_3D ( 'NONE', #49, #145, #198 ) ;
#196 = CARTESIAN_POINT ( 'NONE',  ( 2.296212748401287726E-17, 0.5000000000000000000, 0.1875000000000000278 ) ) ;
#197 = FILL_AREA_STYLE_COLOUR ( '', #16 ) ;
#198 = DIRECTION ( 'NONE',  ( 0.000000000000000000, 0.000000000000000000, -1.000000000000000000 ) ) ;
#199 = FILL_AREA_STYLE ('',( #266 ) ) ;
#200 = CIRCLE ( 'NONE', #65, 0.1874999999999998890 ) ;
#201 = LENGTH_MEASURE_WITH_UNIT ( LENGTH_MEASURE( 0.02539999999999999897 ), #251 );
#202 = PRESENTATION_STYLE_ASSIGNMENT (( #23 ) ) ;
#203 = FILL_AREA_STYLE_COLOUR ( '', #25 ) ;
#204 = EDGE_LOOP ( 'NONE', ( #64, #71 ) ) ;
#205 = DIRECTION ( 'NONE',  ( -0.000000000000000000, -1.000000000000000000, -0.000000000000000000 ) ) ;
#206 = SURFACE_STYLE_FILL_AREA ( #238 ) ;
#207 = DIMENSIONAL_EXPONENTS ( 1.000000000000000000, 0.000000000000000000, 0.000000000000000000, 0.000000000000000000, 0.000000000000000000, 0.000000000000000000, 0.000000000000000000 ) ;
#208 = DIRECTION ( 'NONE',  ( -8.164311994315692567E-17, -1.000000000000000000, 0.000000000000000000 ) ) ;
#209 = CARTESIAN_POINT ( 'NONE',  ( 0.000000000000000000, 0.5000000000000000000, 0.000000000000000000 ) ) ;
#210 = EDGE_LOOP ( 'NONE', ( #308, #120, #142, #42 ) ) ;
#211 = CARTESIAN_POINT ( 'NONE',  ( 0.000000000000000000, 0.5000000000000000000, -0.1875000000000000278 ) ) ;
#212 = CIRCLE ( 'NONE', #309, 0.1875000000000000278 ) ;
#213 = EDGE_CURVE ( 'NONE', #139, #136, #173, .T. ) ;
#214 = LENGTH_MEASURE_WITH_UNIT ( LENGTH_MEASURE( 0.02539999999999999897 ), #191 );
#215 =( CONVERSION_BASED_UNIT ( 'INCH', #146 ) LENGTH_UNIT ( ) NAMED_UNIT ( #305 ) );
#216 = PRODUCT_DEFINITION ( 'UNKNOWN', '', #129, #40 ) ;
#217 = DIRECTION ( 'NONE',  ( 0.000000000000000000, 0.000000000000000000, -1.000000000000000000 ) ) ;
#218 = FACE_OUTER_BOUND ( 'NONE', #210, .T. ) ;
#219 = EDGE_CURVE ( 'NONE', #15, #184, #268, .T. ) ;
#220 = PRESENTATION_LAYER_ASSIGNMENT (  '', '', ( #77 ) ) ;
#221 = COLOUR_RGB ( '',0.7921568627450980005, 0.8196078431372548767, 0.9333333333333333481 ) ;
#222 = UNCERTAINTY_MEASURE_WITH_UNIT (LENGTH_MEASURE( 1.000000000000000082E-05 ), #215, 'distance_accuracy_value', 'NONE');
#223 = CARTESIAN_POINT ( 'NONE',  ( 0.000000000000000000, 0.000000000000000000, 0.000000000000000000 ) ) ;
#224 = DIRECTION ( 'NONE',  ( -0.000000000000000000, -1.000000000000000000, -0.000000000000000000 ) ) ;
#225 = CLOSED_SHELL ( 'NONE', ( #275, #230, #100, #4 ) ) ;
#226 =( NAMED_UNIT ( * ) SI_UNIT ( $, .STERADIAN. ) SOLID_ANGLE_UNIT ( ) );
#227 = DIMENSIONAL_EXPONENTS ( 1.000000000000000000, 0.000000000000000000, 0.000000000000000000, 0.000000000000000000, 0.000000000000000000, 0.000000000000000000, 0.000000000000000000 ) ;
#228 = SURFACE_STYLE_USAGE ( .BOTH. , #156 ) ;
#229 = CARTESIAN_POINT ( 'NONE',  ( 0.1875000000000000278, 2.000000000000000000, 0.000000000000000000 ) ) ;
#230 = ADVANCED_FACE ( 'NONE', ( #30 ), #194, .F. ) ;
#231 = FILL_AREA_STYLE ('',( #35 ) ) ;
#232 = PRESENTATION_LAYER_ASSIGNMENT (  '', '', ( #193 ) ) ;
#233 = EDGE_LOOP ( 'NONE', ( #257, #300, #254, #260 ) ) ;
#234 = LENGTH_MEASURE_WITH_UNIT ( LENGTH_MEASURE( 0.02539999999999999897 ), #304 );
#235 = ORIENTED_EDGE ( 'NONE', *, *, #213, .F. ) ;
#236 = DIRECTION ( 'NONE',  ( 0.000000000000000000, 1.000000000000000000, 0.000000000000000000 ) ) ;
#237 = DIRECTION ( 'NONE',  ( 0.000000000000000000, 0.000000000000000000, -1.000000000000000000 ) ) ;
#238 = FILL_AREA_STYLE ('',( #143 ) ) ;
#239 = SURFACE_SIDE_STYLE ('',( #298 ) ) ;
#240 = DIRECTION ( 'NONE',  ( -1.000000000000000000, 0.000000000000000000, 0.000000000000000000 ) ) ;
#241 = AXIS2_PLACEMENT_3D ( 'NONE', #177, #55, #151 ) ;
#242 =( CONVERSION_BASED_UNIT ( 'INCH', #214 ) LENGTH_UNIT ( ) NAMED_UNIT ( #227 ) );
#243 = EDGE_CURVE ( 'NONE', #44, #39, #5, .T. ) ;
#244 =( CONVERSION_BASED_UNIT ( 'INCH', #92 ) LENGTH_UNIT ( ) NAMED_UNIT ( #46 ) );
#245 = DIRECTION ( 'NONE',  ( -1.000000000000000000, 0.000000000000000000, 0.000000000000000000 ) ) ;
#246 =( GEOMETRIC_REPRESENTATION_CONTEXT ( 3 ) GLOBAL_UNCERTAINTY_ASSIGNED_CONTEXT ( ( #222 ) ) GLOBAL_UNIT_ASSIGNED_CONTEXT ( ( #215, #76, #52 ) ) REPRESENTATION_CONTEXT ( 'NONE', 'WORKASPACE' ) );
#247 = DIRECTION ( 'NONE',  ( -1.000000000000000000, 0.000000000000000000, 0.000000000000000000 ) ) ;
#248 =( NAMED_UNIT ( * ) SI_UNIT ( $, .STERADIAN. ) SOLID_ANGLE_UNIT ( ) );
#249 = MECHANICAL_DESIGN_GEOMETRIC_PRESENTATION_REPRESENTATION (  '', ( #125 ), #188 ) ;
#250 = CARTESIAN_POINT ( 'NONE',  ( -0.1875000000000000278, 0.5000000000000001110, 0.000000000000000000 ) ) ;
#251 =( LENGTH_UNIT ( ) NAMED_UNIT ( * ) SI_UNIT ( $, .METRE. ) );
#252 = STYLED_ITEM ( 'NONE', ( #102 ), #169 ) ;
#253 = MANIFOLD_SOLID_BREP ( 'Revolve - Tool Body (Straight Shanked)', #225 ) ;
#254 = ORIENTED_EDGE ( 'NONE', *, *, #9, .F. ) ;
#255 = DIRECTION ( 'NONE',  ( 0.000000000000000000, 0.000000000000000000, -1.000000000000000000 ) ) ;
#256 = PLANE ( 'NONE',  #43 ) ;
#257 = ORIENTED_EDGE ( 'NONE', *, *, #116, .T. ) ;
#258 = SURFACE_SIDE_STYLE ('',( #38 ) ) ;
#259 = CIRCLE ( 'NONE', #195, 0.1875000000000000278 ) ;
#260 = ORIENTED_EDGE ( 'NONE', *, *, #270, .F. ) ;
#261 = MANIFOLD_SOLID_BREP ( 'Revolve - Cutting Edge', #267 ) ;
#262 = FACE_OUTER_BOUND ( 'NONE', #204, .T. ) ;
#263 = CARTESIAN_POINT ( 'NONE',  ( 0.000000000000000000, 0.000000000000000000, 0.000000000000000000 ) ) ;
#264 =( NAMED_UNIT ( * ) SI_UNIT ( $, .STERADIAN. ) SOLID_ANGLE_UNIT ( ) );
#265 =( NAMED_UNIT ( * ) PLANE_ANGLE_UNIT ( ) SI_UNIT ( $, .RADIAN. ) );
#266 = FILL_AREA_STYLE_COLOUR ( '', #221 ) ;
#267 = CLOSED_SHELL ( 'NONE', ( #33, #169, #84, #12 ) ) ;
#268 = CIRCLE ( 'NONE', #113, 0.1875000000000000278 ) ;
#269 = CARTESIAN_POINT ( 'NONE',  ( 2.296212748401287726E-17, 0.000000000000000000, 0.1875000000000000278 ) ) ;
#270 = EDGE_CURVE ( 'NONE', #96, #285, #80, .T. ) ;
#271 =( NAMED_UNIT ( * ) PLANE_ANGLE_UNIT ( ) SI_UNIT ( $, .RADIAN. ) );
#272 = ADVANCED_BREP_SHAPE_REPRESENTATION ( '59842', ( #261, #253, #88 ), #159 ) ;
#273 = APPLICATION_PROTOCOL_DEFINITION ( 'draft international standard', 'automotive_design', 1998, #45 ) ;
#274 = DIRECTION ( 'NONE',  ( 8.164311994315692567E-17, 1.000000000000000000, -0.000000000000000000 ) ) ;
#275 = ADVANCED_FACE ( 'NONE', ( #218 ), #183, .T. ) ;
#276 = MECHANICAL_DESIGN_GEOMETRIC_PRESENTATION_REPRESENTATION (  '', ( #193 ), #301 ) ;
#277 = AXIS2_PLACEMENT_3D ( 'NONE', #263, #75, #237 ) ;
#278 = FACE_OUTER_BOUND ( 'NONE', #233, .T. ) ;
#279 = AXIS2_PLACEMENT_3D ( 'NONE', #209, #236, #124 ) ;
#280 = CARTESIAN_POINT ( 'NONE',  ( 0.000000000000000000, 0.000000000000000000, 0.000000000000000000 ) ) ;
#281 = ORIENTED_EDGE ( 'NONE', *, *, #131, .F. ) ;
#282 = UNCERTAINTY_MEASURE_WITH_UNIT (LENGTH_MEASURE( 1.000000000000000082E-05 ), #244, 'distance_accuracy_value', 'NONE');
#283 =( NAMED_UNIT ( * ) SI_UNIT ( $, .STERADIAN. ) SOLID_ANGLE_UNIT ( ) );
#284 = EDGE_LOOP ( 'NONE', ( #235, #161, #19, #281 ) ) ;
#285 = VERTEX_POINT ( 'NONE', #162 ) ;
#286 = CYLINDRICAL_SURFACE ( 'NONE', #277, 0.1875000000000000278 ) ;
#287 = EDGE_LOOP ( 'NONE', ( #22, #134 ) ) ;
#288 =( LENGTH_UNIT ( ) NAMED_UNIT ( * ) SI_UNIT ( $, .METRE. ) );
#289 =( GEOMETRIC_REPRESENTATION_CONTEXT ( 3 ) GLOBAL_UNCERTAINTY_ASSIGNED_CONTEXT ( ( #295 ) ) GLOBAL_UNIT_ASSIGNED_CONTEXT ( ( #8, #271, #248 ) ) REPRESENTATION_CONTEXT ( 'NONE', 'WORKASPACE' ) );
#290 = DIRECTION ( 'NONE',  ( 8.164311994315692567E-17, 1.000000000000000000, -0.000000000000000000 ) ) ;
#291 = DIRECTION ( 'NONE',  ( 8.164311994315692567E-17, 1.000000000000000000, -0.000000000000000000 ) ) ;
#292 = MECHANICAL_DESIGN_GEOMETRIC_PRESENTATION_REPRESENTATION (  '', ( #252 ), #246 ) ;
#293 = AXIS2_PLACEMENT_3D ( 'NONE', #114, #90, #14 ) ;
#294 = PRESENTATION_STYLE_ASSIGNMENT (( #83 ) ) ;
#295 = UNCERTAINTY_MEASURE_WITH_UNIT (LENGTH_MEASURE( 1.000000000000000082E-05 ), #8, 'distance_accuracy_value', 'NONE');
#296 = VECTOR ( 'NONE', #224, 39.37007874015748143 ) ;
#297 = CARTESIAN_POINT ( 'NONE',  ( 0.000000000000000000, 0.000000000000000000, 0.000000000000000000 ) ) ;
#298 = SURFACE_STYLE_FILL_AREA ( #231 ) ;
#299 = LINE ( 'NONE', #95, #50 ) ;
#300 = ORIENTED_EDGE ( 'NONE', *, *, #213, .T. ) ;
#301 =( GEOMETRIC_REPRESENTATION_CONTEXT ( 3 ) GLOBAL_UNCERTAINTY_ASSIGNED_CONTEXT ( ( #282 ) ) GLOBAL_UNIT_ASSIGNED_CONTEXT ( ( #244, #265, #180 ) ) REPRESENTATION_CONTEXT ( 'NONE', 'WORKASPACE' ) );
#302 =( CONVERSION_BASED_UNIT ( 'INCH', #201 ) LENGTH_UNIT ( ) NAMED_UNIT ( #74 ) );
#303 = ORIENTED_EDGE ( 'NONE', *, *, #141, .F. ) ;
#304 =( LENGTH_UNIT ( ) NAMED_UNIT ( * ) SI_UNIT ( $, .METRE. ) );
#305 = DIMENSIONAL_EXPONENTS ( 1.000000000000000000, 0.000000000000000000, 0.000000000000000000, 0.000000000000000000, 0.000000000000000000, 0.000000000000000000, 0.000000000000000000 ) ;
#306 = SURFACE_SIDE_STYLE ('',( #206 ) ) ;
#307 =( NAMED_UNIT ( * ) PLANE_ANGLE_UNIT ( ) SI_UNIT ( $, .RADIAN. ) );
#308 = ORIENTED_EDGE ( 'NONE', *, *, #141, .T. ) ;
#309 = AXIS2_PLACEMENT_3D ( 'NONE', #78, #172, #217 ) ;
ENDSEC;
END-ISO-10303-21;
