ISO-10303-21;
HEADER;
FILE_DESCRIPTION (( 'STEP AP214' ),
    '1' );
FILE_NAME ('Micro_MRT-187-031.STEP',
    '2021-09-02T21:11:41',
    ( '' ),
    ( '' ),
    'SwSTEP 2.0',
    'SolidWorks 2020',
    '' );
FILE_SCHEMA (( 'AUTOMOTIVE_DESIGN' ));
ENDSEC;

DATA;
#1 = ORIENTED_EDGE ( 'NONE', *, *, #82, .F. ) ;
#2 =( CONVERSION_BASED_UNIT ( 'INCH', #23 ) LENGTH_UNIT ( ) NAMED_UNIT ( #50 ) );
#3 = CIRCLE ( 'NONE', #249, 0.09375000000000001388 ) ;
#4 = ORIENTED_EDGE ( 'NONE', *, *, #86, .F. ) ;
#5 = ORIENTED_EDGE ( 'NONE', *, *, #247, .T. ) ;
#6 = VERTEX_POINT ( 'NONE', #248 ) ;
#7 = CARTESIAN_POINT ( 'NONE',  ( 0.0000000000000000000, 0.0000000000000000000, 0.03119999999999998122 ) ) ;
#8 = ORIENTED_EDGE ( 'NONE', *, *, #234, .T. ) ;
#9 = DIRECTION ( 'NONE',  ( -1.000000000000000000, 0.0000000000000000000, 0.0000000000000000000 ) ) ;
#10 = DIRECTION ( 'NONE',  ( -0.0000000000000000000, -0.0000000000000000000, 1.000000000000000000 ) ) ;
#11 = CARTESIAN_POINT ( 'NONE',  ( -0.07874999999999980627, 0.0000000000000000000, 2.000000000000000000 ) ) ;
#12 = FACE_OUTER_BOUND ( 'NONE', #235, .T. ) ;
#13 = AXIS2_PLACEMENT_3D ( 'NONE', #164, #87, #228 ) ;
#14 = EDGE_CURVE ( 'NONE', #264, #116, #270, .T. ) ;
#15 = CONICAL_SURFACE ( 'NONE', #109, 0.1031249999999999389, 0.1745329251994259534 ) ;
#16 = PLANE ( 'NONE',  #262 ) ;
#17 = EDGE_CURVE ( 'NONE', #91, #116, #67, .T. ) ;
#18 = CARTESIAN_POINT ( 'NONE',  ( 0.0000000000000000000, 0.0000000000000000000, 0.03119999999999998122 ) ) ;
#19 = EDGE_CURVE ( 'NONE', #133, #69, #24, .T. ) ;
#20 = VECTOR ( 'NONE', #224, 39.37007874015748143 ) ;
#21 = DIRECTION ( 'NONE',  ( 0.0000000000000000000, 0.0000000000000000000, 1.000000000000000000 ) ) ;
#22 = ORIENTED_EDGE ( 'NONE', *, *, #14, .T. ) ;
#23 = LENGTH_MEASURE_WITH_UNIT ( LENGTH_MEASURE( 0.02539999999999999897 ), #233 );
#24 = CIRCLE ( 'NONE', #225, 0.09375000000000001388 ) ;
#25 = EDGE_LOOP ( 'NONE', ( #212, #240, #112, #4 ) ) ;
#26 = SHAPE_DEFINITION_REPRESENTATION ( #271, #163 ) ;
#27 = ADVANCED_FACE ( 'NONE', ( #201 ), #15, .T. ) ;
#28 = ORIENTED_EDGE ( 'NONE', *, *, #33, .F. ) ;
#29 = ORIENTED_EDGE ( 'NONE', *, *, #57, .T. ) ;
#30 = DIRECTION ( 'NONE',  ( -0.0000000000000000000, -0.0000000000000000000, -1.000000000000000000 ) ) ;
#31 = AXIS2_PLACEMENT_3D ( 'NONE', #80, #101, #54 ) ;
#32 = FACE_OUTER_BOUND ( 'NONE', #217, .T. ) ;
#33 = EDGE_CURVE ( 'NONE', #116, #195, #243, .T. ) ;
#34 = DIMENSIONAL_EXPONENTS ( 1.000000000000000000, 0.0000000000000000000, 0.0000000000000000000, 0.0000000000000000000, 0.0000000000000000000, 0.0000000000000000000, 0.0000000000000000000 ) ;
#35 = LINE ( 'NONE', #11, #20 ) ;
#36 =( GEOMETRIC_REPRESENTATION_CONTEXT ( 3 ) GLOBAL_UNCERTAINTY_ASSIGNED_CONTEXT ( ( #198 ) ) GLOBAL_UNIT_ASSIGNED_CONTEXT ( ( #177, #90, #193 ) ) REPRESENTATION_CONTEXT ( 'NONE', 'WORKASPACE' ) );
#37 = CARTESIAN_POINT ( 'NONE',  ( 0.07874999999999980627, 9.644093543285380530E-18, 2.000000000000000000 ) ) ;
#38 = DIRECTION ( 'NONE',  ( 0.0000000000000000000, 0.0000000000000000000, -1.000000000000000000 ) ) ;
#39 = ADVANCED_FACE ( 'NONE', ( #123 ), #246, .T. ) ;
#40 = DIRECTION ( 'NONE',  ( 0.0000000000000000000, 0.0000000000000000000, -1.000000000000000000 ) ) ;
#41 = DIRECTION ( 'NONE',  ( 1.000000000000000000, 0.0000000000000000000, 0.0000000000000000000 ) ) ;
#42 = PRODUCT_DEFINITION_FORMATION_WITH_SPECIFIED_SOURCE ( 'ANY', '', #169, .NOT_KNOWN. ) ;
#43 =( NAMED_UNIT ( * ) SI_UNIT ( $, .STERADIAN. ) SOLID_ANGLE_UNIT ( ) );
#44 = ORIENTED_EDGE ( 'NONE', *, *, #234, .F. ) ;
#45 = SURFACE_STYLE_FILL_AREA ( #173 ) ;
#46 = VERTEX_POINT ( 'NONE', #156 ) ;
#47 = EDGE_CURVE ( 'NONE', #46, #195, #3, .T. ) ;
#48 = COLOUR_RGB ( '',0.7921568627450980005, 0.8196078431372548767, 0.9333333333333333481 ) ;
#49 = ORIENTED_EDGE ( 'NONE', *, *, #57, .F. ) ;
#50 = DIMENSIONAL_EXPONENTS ( 1.000000000000000000, 0.0000000000000000000, 0.0000000000000000000, 0.0000000000000000000, 0.0000000000000000000, 0.0000000000000000000, 0.0000000000000000000 ) ;
#51 = DIRECTION ( 'NONE',  ( 1.000000000000000000, 0.0000000000000000000, 0.0000000000000000000 ) ) ;
#52 = LINE ( 'NONE', #135, #64 ) ;
#53 = EDGE_CURVE ( 'NONE', #264, #91, #138, .T. ) ;
#54 = DIRECTION ( 'NONE',  ( 0.0000000000000000000, 0.0000000000000000000, 1.000000000000000000 ) ) ;
#55 = CARTESIAN_POINT ( 'NONE',  ( 0.0000000000000000000, 0.0000000000000000000, 0.02578217685679184620 ) ) ;
#56 = DIRECTION ( 'NONE',  ( 0.0000000000000000000, 0.0000000000000000000, -1.000000000000000000 ) ) ;
#57 = EDGE_CURVE ( 'NONE', #72, #133, #35, .T. ) ;
#58 = DIRECTION ( 'NONE',  ( -1.000000000000000000, 0.0000000000000000000, 0.0000000000000000000 ) ) ;
#59 = CARTESIAN_POINT ( 'NONE',  ( 0.0000000000000000000, 0.0000000000000000000, 1.984999999999999654 ) ) ;
#60 =( NAMED_UNIT ( * ) PLANE_ANGLE_UNIT ( ) SI_UNIT ( $, .RADIAN. ) );
#61 = AXIS2_PLACEMENT_3D ( 'NONE', #126, #89, #170 ) ;
#62 = DIRECTION ( 'NONE',  ( 1.000000000000000000, 0.0000000000000000000, -0.0000000000000000000 ) ) ;
#63 = CARTESIAN_POINT ( 'NONE',  ( 0.0000000000000000000, 0.0000000000000000000, 2.000000000000000000 ) ) ;
#64 = VECTOR ( 'NONE', #222, 39.37007874015748143 ) ;
#65 = ORIENTED_EDGE ( 'NONE', *, *, #143, .F. ) ;
#66 = CIRCLE ( 'NONE', #13, 0.09375000000000001388 ) ;
#67 = CIRCLE ( 'NONE', #142, 0.03072600189398090945 ) ;
#68 = DIRECTION ( 'NONE',  ( 1.000000000000000000, 0.0000000000000000000, 0.0000000000000000000 ) ) ;
#69 = VERTEX_POINT ( 'NONE', #139 ) ;
#70 = ORIENTED_EDGE ( 'NONE', *, *, #119, .F. ) ;
#71 = ADVANCED_FACE ( 'NONE', ( #120 ), #160, .T. ) ;
#72 = VERTEX_POINT ( 'NONE', #226 ) ;
#73 = AXIS2_PLACEMENT_3D ( 'NONE', #206, #40, #191 ) ;
#74 = ORIENTED_EDGE ( 'NONE', *, *, #84, .F. ) ;
#75 = DIRECTION ( 'NONE',  ( 0.7071067811865463515, 8.659560562354916834E-17, -0.7071067811865486830 ) ) ;
#76 = ADVANCED_FACE ( 'NONE', ( #100 ), #104, .T. ) ;
#77 = DIRECTION ( 'NONE',  ( -0.0000000000000000000, -0.0000000000000000000, -1.000000000000000000 ) ) ;
#78 = CIRCLE ( 'NONE', #202, 0.09375000000000001388 ) ;
#79 = DIRECTION ( 'NONE',  ( -0.1736481776669234478, 2.126576849575687174E-17, 0.9848077530122092416 ) ) ;
#80 = CARTESIAN_POINT ( 'NONE',  ( 0.0000000000000000000, 0.0000000000000000000, 0.03119999999999998122 ) ) ;
#81 = CARTESIAN_POINT ( 'NONE',  ( 0.0000000000000000000, 0.0000000000000000000, 0.3832090315150935012 ) ) ;
#82 = EDGE_CURVE ( 'NONE', #6, #69, #118, .T. ) ;
#83 = DIRECTION ( 'NONE',  ( -1.000000000000000000, 0.0000000000000000000, 0.0000000000000000000 ) ) ;
#84 = EDGE_CURVE ( 'NONE', #69, #46, #186, .T. ) ;
#85 = LENGTH_MEASURE_WITH_UNIT ( LENGTH_MEASURE( 0.02539999999999999897 ), #232 );
#86 = EDGE_CURVE ( 'NONE', #133, #195, #117, .T. ) ;
#87 = DIRECTION ( 'NONE',  ( 0.0000000000000000000, 0.0000000000000000000, -1.000000000000000000 ) ) ;
#88 = PRODUCT_RELATED_PRODUCT_CATEGORY ( 'part', '', ( #169 ) ) ;
#89 = DIRECTION ( 'NONE',  ( -0.0000000000000000000, -0.0000000000000000000, -1.000000000000000000 ) ) ;
#90 =( NAMED_UNIT ( * ) PLANE_ANGLE_UNIT ( ) SI_UNIT ( $, .RADIAN. ) );
#91 = VERTEX_POINT ( 'NONE', #98 ) ;
#92 = CLOSED_SHELL ( 'NONE', ( #129, #76, #153, #261, #71, #147, #213, #27, #39 ) ) ;
#93 = ORIENTED_EDGE ( 'NONE', *, *, #47, .T. ) ;
#94 = LENGTH_MEASURE_WITH_UNIT ( LENGTH_MEASURE( 0.02539999999999999897 ), #113 );
#95 = ORIENTED_EDGE ( 'NONE', *, *, #143, .T. ) ;
#96 = PRODUCT_DEFINITION_CONTEXT ( 'detailed design', #180, 'design' ) ;
#97 = ORIENTED_EDGE ( 'NONE', *, *, #53, .F. ) ;
#98 = CARTESIAN_POINT ( 'NONE',  ( 0.03072600189398090945, 0.0000000000000000000, 0.02578217685679184620 ) ) ;
#99 = CARTESIAN_POINT ( 'NONE',  ( -0.1031249999999999389, 1.262917011620707355E-17, 0.4363772985740113630 ) ) ;
#100 = FACE_OUTER_BOUND ( 'NONE', #197, .T. ) ;
#101 = DIRECTION ( 'NONE',  ( 0.0000000000000000000, 1.000000000000000000, 0.0000000000000000000 ) ) ;
#102 = DIRECTION ( 'NONE',  ( 0.0000000000000000000, 0.0000000000000000000, -1.000000000000000000 ) ) ;
#103 = AXIS2_PLACEMENT_3D ( 'NONE', #144, #250, #58 ) ;
#104 = CONICAL_SURFACE ( 'NONE', #216, 0.1031249999999999389, 0.1745329251994259534 ) ;
#105 = FILL_AREA_STYLE ('',( #210 ) ) ;
#106 = CARTESIAN_POINT ( 'NONE',  ( 0.0000000000000000000, 0.0000000000000000000, 2.000000000000000000 ) ) ;
#107 = CIRCLE ( 'NONE', #207, 0.03072600189398090945 ) ;
#108 = CYLINDRICAL_SURFACE ( 'NONE', #61, 0.09375000000000001388 ) ;
#109 = AXIS2_PLACEMENT_3D ( 'NONE', #204, #155, #136 ) ;
#110 = ORIENTED_EDGE ( 'NONE', *, *, #119, .T. ) ;
#111 = UNCERTAINTY_MEASURE_WITH_UNIT (LENGTH_MEASURE( 1.000000000000000082E-05 ), #2, 'distance_accuracy_value', 'NONE');
#112 = ORIENTED_EDGE ( 'NONE', *, *, #230, .F. ) ;
#113 =( LENGTH_UNIT ( ) NAMED_UNIT ( * ) SI_UNIT ( $, .METRE. ) );
#114 = ORIENTED_EDGE ( 'NONE', *, *, #247, .F. ) ;
#115 = EDGE_LOOP ( 'NONE', ( #74, #8, #257, #168 ) ) ;
#116 = VERTEX_POINT ( 'NONE', #244 ) ;
#117 = LINE ( 'NONE', #266, #237 ) ;
#118 = LINE ( 'NONE', #37, #194 ) ;
#119 = EDGE_CURVE ( 'NONE', #91, #46, #52, .T. ) ;
#120 = FACE_OUTER_BOUND ( 'NONE', #115, .T. ) ;
#121 = DIRECTION ( 'NONE',  ( -0.0000000000000000000, -0.0000000000000000000, -1.000000000000000000 ) ) ;
#122 = MECHANICAL_DESIGN_GEOMETRIC_PRESENTATION_REPRESENTATION (  '', ( #203 ), #36 ) ;
#123 = FACE_OUTER_BOUND ( 'NONE', #219, .T. ) ;
#124 = CARTESIAN_POINT ( 'NONE',  ( 0.0000000000000000000, 0.0000000000000000000, 0.02578217685679184620 ) ) ;
#125 = AXIS2_PLACEMENT_3D ( 'NONE', #179, #121, #9 ) ;
#126 = CARTESIAN_POINT ( 'NONE',  ( 0.0000000000000000000, 0.0000000000000000000, 2.000000000000000000 ) ) ;
#127 =( NAMED_UNIT ( * ) SI_UNIT ( $, .STERADIAN. ) SOLID_ANGLE_UNIT ( ) );
#128 = DIRECTION ( 'NONE',  ( -0.0000000000000000000, -1.000000000000000000, 0.0000000000000000000 ) ) ;
#129 = ADVANCED_FACE ( 'NONE', ( #32 ), #267, .T. ) ;
#130 =( NAMED_UNIT ( * ) PLANE_ANGLE_UNIT ( ) SI_UNIT ( $, .RADIAN. ) );
#131 = CONICAL_SURFACE ( 'NONE', #103, 0.07874999999999980627, 0.7853981633974466137 ) ;
#132 = ORIENTED_EDGE ( 'NONE', *, *, #33, .T. ) ;
#133 = VERTEX_POINT ( 'NONE', #182 ) ;
#134 = CARTESIAN_POINT ( 'NONE',  ( 0.0000000000000000000, 0.0000000000000000000, 0.03119999999999998122 ) ) ;
#135 = CARTESIAN_POINT ( 'NONE',  ( 0.1031249999999999389, 0.0000000000000000000, 0.4363772985740113630 ) ) ;
#136 = DIRECTION ( 'NONE',  ( 1.000000000000000000, 0.0000000000000000000, 0.0000000000000000000 ) ) ;
#137 = DIRECTION ( 'NONE',  ( -0.0000000000000000000, -0.0000000000000000000, 1.000000000000000000 ) ) ;
#138 = CIRCLE ( 'NONE', #157, 0.03119999999999998122 ) ;
#139 = CARTESIAN_POINT ( 'NONE',  ( 0.09375000000000001388, 1.148106374200643863E-17, 1.984999999999999654 ) ) ;
#140 = DIRECTION ( 'NONE',  ( 1.000000000000000000, 0.0000000000000000000, 0.0000000000000000000 ) ) ;
#141 = DIRECTION ( 'NONE',  ( -0.0000000000000000000, -0.0000000000000000000, 1.000000000000000000 ) ) ;
#142 = AXIS2_PLACEMENT_3D ( 'NONE', #55, #137, #159 ) ;
#143 = EDGE_CURVE ( 'NONE', #116, #91, #107, .T. ) ;
#144 = CARTESIAN_POINT ( 'NONE',  ( 0.0000000000000000000, 0.0000000000000000000, 2.000000000000000000 ) ) ;
#145 = DIRECTION ( 'NONE',  ( 0.0000000000000000000, 0.0000000000000000000, 1.000000000000000000 ) ) ;
#146 = PRESENTATION_STYLE_ASSIGNMENT (( #214 ) ) ;
#147 = ADVANCED_FACE ( 'NONE', ( #211 ), #16, .T. ) ;
#148 = ORIENTED_EDGE ( 'NONE', *, *, #230, .T. ) ;
#149 = UNCERTAINTY_MEASURE_WITH_UNIT (LENGTH_MEASURE( 1.000000000000000082E-05 ), #231, 'distance_accuracy_value', 'NONE');
#150 = APPLICATION_PROTOCOL_DEFINITION ( 'draft international standard', 'automotive_design', 1998, #180 ) ;
#151 = ORIENTED_EDGE ( 'NONE', *, *, #181, .F. ) ;
#152 = PRESENTATION_LAYER_ASSIGNMENT (  '', '', ( #239 ) ) ;
#153 = ADVANCED_FACE ( 'NONE', ( #251 ), #187, .T. ) ;
#154 = ORIENTED_EDGE ( 'NONE', *, *, #17, .T. ) ;
#155 = DIRECTION ( 'NONE',  ( -0.0000000000000000000, -0.0000000000000000000, 1.000000000000000000 ) ) ;
#156 = CARTESIAN_POINT ( 'NONE',  ( 0.09375000000000001388, 1.148106374200643863E-17, 0.3832090315150935012 ) ) ;
#157 = AXIS2_PLACEMENT_3D ( 'NONE', #7, #223, #205 ) ;
#158 = DIRECTION ( 'NONE',  ( 1.000000000000000000, 0.0000000000000000000, 0.0000000000000000000 ) ) ;
#159 = DIRECTION ( 'NONE',  ( 1.000000000000000000, 0.0000000000000000000, 0.0000000000000000000 ) ) ;
#160 = CYLINDRICAL_SURFACE ( 'NONE', #125, 0.09375000000000001388 ) ;
#161 = AXIS2_PLACEMENT_3D ( 'NONE', #18, #128, #83 ) ;
#162 = CARTESIAN_POINT ( 'NONE',  ( -0.09375000000000001388, 0.0000000000000000000, 0.3832090315150935012 ) ) ;
#163 = ADVANCED_BREP_SHAPE_REPRESENTATION ( 'Micro_MRT-187-031', ( #256, #192 ), #252 ) ;
#164 = CARTESIAN_POINT ( 'NONE',  ( 0.0000000000000000000, 0.0000000000000000000, 0.3832090315150935012 ) ) ;
#165 = CARTESIAN_POINT ( 'NONE',  ( 0.0000000000000000000, 0.0000000000000000000, 2.000000000000000000 ) ) ;
#166 = VECTOR ( 'NONE', #30, 39.37007874015748143 ) ;
#167 = SURFACE_SIDE_STYLE ('',( #189 ) ) ;
#168 = ORIENTED_EDGE ( 'NONE', *, *, #47, .F. ) ;
#169 = PRODUCT ( 'Micro_MRT-187-031', 'Micro_MRT-187-031', '', ( #275 ) ) ;
#170 = DIRECTION ( 'NONE',  ( -1.000000000000000000, 0.0000000000000000000, 0.0000000000000000000 ) ) ;
#171 = SURFACE_SIDE_STYLE ('',( #45 ) ) ;
#172 = COLOUR_RGB ( '',0.7921568627450980005, 0.8196078431372548767, 0.9333333333333333481 ) ;
#173 = FILL_AREA_STYLE ('',( #218 ) ) ;
#174 = ORIENTED_EDGE ( 'NONE', *, *, #14, .F. ) ;
#175 = EDGE_LOOP ( 'NONE', ( #28, #95, #110, #93 ) ) ;
#176 = EDGE_LOOP ( 'NONE', ( #196, #5 ) ) ;
#177 =( CONVERSION_BASED_UNIT ( 'INCH', #94 ) LENGTH_UNIT ( ) NAMED_UNIT ( #34 ) );
#178 = ORIENTED_EDGE ( 'NONE', *, *, #19, .F. ) ;
#179 = CARTESIAN_POINT ( 'NONE',  ( 0.0000000000000000000, 0.0000000000000000000, 2.000000000000000000 ) ) ;
#180 = APPLICATION_CONTEXT ( 'automotive_design' ) ;
#181 = EDGE_CURVE ( 'NONE', #72, #6, #263, .T. ) ;
#182 = CARTESIAN_POINT ( 'NONE',  ( -0.09375000000000001388, 0.0000000000000000000, 1.984999999999999654 ) ) ;
#183 = AXIS2_PLACEMENT_3D ( 'NONE', #106, #190, #273 ) ;
#184 =( GEOMETRIC_REPRESENTATION_CONTEXT ( 3 ) GLOBAL_UNCERTAINTY_ASSIGNED_CONTEXT ( ( #149 ) ) GLOBAL_UNIT_ASSIGNED_CONTEXT ( ( #231, #60, #127 ) ) REPRESENTATION_CONTEXT ( 'NONE', 'WORKASPACE' ) );
#185 = DIRECTION ( 'NONE',  ( -0.0000000000000000000, -1.000000000000000000, 0.0000000000000000000 ) ) ;
#186 = LINE ( 'NONE', #220, #166 ) ;
#187 = CONICAL_SURFACE ( 'NONE', #73, 0.07874999999999980627, 0.7853981633974466137 ) ;
#188 = SURFACE_STYLE_USAGE ( .BOTH. , #167 ) ;
#189 = SURFACE_STYLE_FILL_AREA ( #105 ) ;
#190 = DIRECTION ( 'NONE',  ( 0.0000000000000000000, 0.0000000000000000000, 1.000000000000000000 ) ) ;
#191 = DIRECTION ( 'NONE',  ( -1.000000000000000000, 0.0000000000000000000, 0.0000000000000000000 ) ) ;
#192 = AXIS2_PLACEMENT_3D ( 'NONE', #259, #236, #68 ) ;
#193 =( NAMED_UNIT ( * ) SI_UNIT ( $, .STERADIAN. ) SOLID_ANGLE_UNIT ( ) );
#194 = VECTOR ( 'NONE', #75, 39.37007874015748143 ) ;
#195 = VERTEX_POINT ( 'NONE', #162 ) ;
#196 = ORIENTED_EDGE ( 'NONE', *, *, #181, .T. ) ;
#197 = EDGE_LOOP ( 'NONE', ( #154, #132, #148, #70 ) ) ;
#198 = UNCERTAINTY_MEASURE_WITH_UNIT (LENGTH_MEASURE( 1.000000000000000082E-05 ), #177, 'distance_accuracy_value', 'NONE');
#199 = EDGE_LOOP ( 'NONE', ( #114, #242, #178, #49 ) ) ;
#200 = DIMENSIONAL_EXPONENTS ( 1.000000000000000000, 0.0000000000000000000, 0.0000000000000000000, 0.0000000000000000000, 0.0000000000000000000, 0.0000000000000000000, 0.0000000000000000000 ) ;
#201 = FACE_OUTER_BOUND ( 'NONE', #175, .T. ) ;
#202 = AXIS2_PLACEMENT_3D ( 'NONE', #59, #38, #140 ) ;
#203 = STYLED_ITEM ( 'NONE', ( #146 ), #163 ) ;
#204 = CARTESIAN_POINT ( 'NONE',  ( 0.0000000000000000000, 0.0000000000000000000, 0.4363772985740113630 ) ) ;
#205 = DIRECTION ( 'NONE',  ( 1.000000000000000000, -1.224646799147352961E-16, 0.0000000000000000000 ) ) ;
#206 = CARTESIAN_POINT ( 'NONE',  ( 0.0000000000000000000, 0.0000000000000000000, 2.000000000000000000 ) ) ;
#207 = AXIS2_PLACEMENT_3D ( 'NONE', #124, #141, #41 ) ;
#208 = APPLICATION_CONTEXT ( 'automotive_design' ) ;
#209 = AXIS2_PLACEMENT_3D ( 'NONE', #134, #185, #245 ) ;
#210 = FILL_AREA_STYLE_COLOUR ( '', #172 ) ;
#211 = FACE_OUTER_BOUND ( 'NONE', #176, .T. ) ;
#212 = ORIENTED_EDGE ( 'NONE', *, *, #19, .T. ) ;
#213 = ADVANCED_FACE ( 'NONE', ( #12 ), #131, .T. ) ;
#214 = SURFACE_STYLE_USAGE ( .BOTH. , #171 ) ;
#215 = PRODUCT_DEFINITION ( 'UNKNOWN', '', #42, #96 ) ;
#216 = AXIS2_PLACEMENT_3D ( 'NONE', #265, #10, #268 ) ;
#217 = EDGE_LOOP ( 'NONE', ( #174, #260, #65 ) ) ;
#218 = FILL_AREA_STYLE_COLOUR ( '', #48 ) ;
#219 = EDGE_LOOP ( 'NONE', ( #97, #22, #238 ) ) ;
#220 = CARTESIAN_POINT ( 'NONE',  ( 0.09375000000000001388, 1.148106374200643863E-17, 2.000000000000000000 ) ) ;
#221 = VECTOR ( 'NONE', #79, 39.37007874015748143 ) ;
#222 = DIRECTION ( 'NONE',  ( 0.1736481776669234478, 0.0000000000000000000, 0.9848077530122092416 ) ) ;
#223 = DIRECTION ( 'NONE',  ( -1.224646799147353207E-16, -1.000000000000000000, -0.0000000000000000000 ) ) ;
#224 = DIRECTION ( 'NONE',  ( -0.7071067811865463515, 0.0000000000000000000, -0.7071067811865486830 ) ) ;
#225 = AXIS2_PLACEMENT_3D ( 'NONE', #269, #102, #158 ) ;
#226 = CARTESIAN_POINT ( 'NONE',  ( -0.07874999999999980627, 0.0000000000000000000, 2.000000000000000000 ) ) ;
#227 = DIRECTION ( 'NONE',  ( 1.000000000000000000, 0.0000000000000000000, 0.0000000000000000000 ) ) ;
#228 = DIRECTION ( 'NONE',  ( 1.000000000000000000, 0.0000000000000000000, 0.0000000000000000000 ) ) ;
#229 = MECHANICAL_DESIGN_GEOMETRIC_PRESENTATION_REPRESENTATION (  '', ( #239 ), #184 ) ;
#230 = EDGE_CURVE ( 'NONE', #195, #46, #66, .T. ) ;
#231 =( CONVERSION_BASED_UNIT ( 'INCH', #85 ) LENGTH_UNIT ( ) NAMED_UNIT ( #200 ) );
#232 =( LENGTH_UNIT ( ) NAMED_UNIT ( * ) SI_UNIT ( $, .METRE. ) );
#233 =( LENGTH_UNIT ( ) NAMED_UNIT ( * ) SI_UNIT ( $, .METRE. ) );
#234 = EDGE_CURVE ( 'NONE', #69, #133, #78, .T. ) ;
#235 = EDGE_LOOP ( 'NONE', ( #1, #151, #29, #44 ) ) ;
#236 = DIRECTION ( 'NONE',  ( 0.0000000000000000000, 0.0000000000000000000, 1.000000000000000000 ) ) ;
#237 = VECTOR ( 'NONE', #77, 39.37007874015748143 ) ;
#238 = ORIENTED_EDGE ( 'NONE', *, *, #17, .F. ) ;
#239 = STYLED_ITEM ( 'NONE', ( #272 ), #256 ) ;
#240 = ORIENTED_EDGE ( 'NONE', *, *, #84, .T. ) ;
#241 = PRESENTATION_LAYER_ASSIGNMENT (  '', '', ( #203 ) ) ;
#242 = ORIENTED_EDGE ( 'NONE', *, *, #82, .T. ) ;
#243 = LINE ( 'NONE', #99, #221 ) ;
#244 = CARTESIAN_POINT ( 'NONE',  ( -0.03072600189398090945, 7.621956864506180915E-18, 0.02578217685679184620 ) ) ;
#245 = DIRECTION ( 'NONE',  ( -1.000000000000000000, 0.0000000000000000000, 0.0000000000000000000 ) ) ;
#246 = SPHERICAL_SURFACE ( 'NONE', #209, 0.03119999999999998122 ) ;
#247 = EDGE_CURVE ( 'NONE', #6, #72, #255, .T. ) ;
#248 = CARTESIAN_POINT ( 'NONE',  ( 0.07874999999999980627, 1.056257864264590573E-17, 2.000000000000000000 ) ) ;
#249 = AXIS2_PLACEMENT_3D ( 'NONE', #81, #56, #51 ) ;
#250 = DIRECTION ( 'NONE',  ( 0.0000000000000000000, 0.0000000000000000000, -1.000000000000000000 ) ) ;
#251 = FACE_OUTER_BOUND ( 'NONE', #199, .T. ) ;
#252 =( GEOMETRIC_REPRESENTATION_CONTEXT ( 3 ) GLOBAL_UNCERTAINTY_ASSIGNED_CONTEXT ( ( #111 ) ) GLOBAL_UNIT_ASSIGNED_CONTEXT ( ( #2, #130, #43 ) ) REPRESENTATION_CONTEXT ( 'NONE', 'WORKASPACE' ) );
#253 = FACE_OUTER_BOUND ( 'NONE', #25, .T. ) ;
#254 = CARTESIAN_POINT ( 'NONE',  ( -1.910449006669869623E-18, 0.0000000000000000000, 0.0000000000000000000 ) ) ;
#255 = CIRCLE ( 'NONE', #274, 0.07874999999999980627 ) ;
#256 = MANIFOLD_SOLID_BREP ( 'Cut-Revolve1', #92 ) ;
#257 = ORIENTED_EDGE ( 'NONE', *, *, #86, .T. ) ;
#258 = APPLICATION_PROTOCOL_DEFINITION ( 'draft international standard', 'automotive_design', 1998, #208 ) ;
#259 = CARTESIAN_POINT ( 'NONE',  ( 0.0000000000000000000, 0.0000000000000000000, 0.0000000000000000000 ) ) ;
#260 = ORIENTED_EDGE ( 'NONE', *, *, #53, .T. ) ;
#261 = ADVANCED_FACE ( 'NONE', ( #253 ), #108, .T. ) ;
#262 = AXIS2_PLACEMENT_3D ( 'NONE', #165, #21, #62 ) ;
#263 = CIRCLE ( 'NONE', #183, 0.07874999999999980627 ) ;
#264 = VERTEX_POINT ( 'NONE', #254 ) ;
#265 = CARTESIAN_POINT ( 'NONE',  ( 0.0000000000000000000, 0.0000000000000000000, 0.4363772985740113630 ) ) ;
#266 = CARTESIAN_POINT ( 'NONE',  ( -0.09375000000000001388, 0.0000000000000000000, 2.000000000000000000 ) ) ;
#267 = SPHERICAL_SURFACE ( 'NONE', #161, 0.03119999999999998122 ) ;
#268 = DIRECTION ( 'NONE',  ( 1.000000000000000000, 0.0000000000000000000, 0.0000000000000000000 ) ) ;
#269 = CARTESIAN_POINT ( 'NONE',  ( 0.0000000000000000000, 0.0000000000000000000, 1.984999999999999654 ) ) ;
#270 = CIRCLE ( 'NONE', #31, 0.03119999999999998122 ) ;
#271 = PRODUCT_DEFINITION_SHAPE ( 'NONE', 'NONE',  #215 ) ;
#272 = PRESENTATION_STYLE_ASSIGNMENT (( #188 ) ) ;
#273 = DIRECTION ( 'NONE',  ( 1.000000000000000000, 0.0000000000000000000, 0.0000000000000000000 ) ) ;
#274 = AXIS2_PLACEMENT_3D ( 'NONE', #63, #145, #227 ) ;
#275 = PRODUCT_CONTEXT ( 'NONE', #208, 'mechanical' ) ;
ENDSEC;
END-ISO-10303-21;
