ISO-10303-21;
HEADER;
FILE_DESCRIPTION (( 'STEP AP214' ),
    '1' );
FILE_NAME ('Micro_RTC-125-13X.STEP',
    '2021-09-03T18:03:06',
    ( '' ),
    ( '' ),
    'SwSTEP 2.0',
    'SolidWorks 2020',
    '' );
FILE_SCHEMA (( 'AUTOMOTIVE_DESIGN' ));
ENDSEC;

DATA;
#1 = ORIENTED_EDGE ( 'NONE', *, *, #173, .F. ) ;
#2 = ORIENTED_EDGE ( 'NONE', *, *, #120, .F. ) ;
#3 = ORIENTED_EDGE ( 'NONE', *, *, #224, .F. ) ;
#4 =( GEOMETRIC_REPRESENTATION_CONTEXT ( 3 ) GLOBAL_UNCERTAINTY_ASSIGNED_CONTEXT ( ( #200 ) ) GLOBAL_UNIT_ASSIGNED_CONTEXT ( ( #237, #210, #248 ) ) REPRESENTATION_CONTEXT ( 'NONE', 'WORKASPACE' ) );
#5 = FACE_OUTER_BOUND ( 'NONE', #45, .T. ) ;
#6 = EDGE_LOOP ( 'NONE', ( #1, #201, #42, #2 ) ) ;
#7 = VERTEX_POINT ( 'NONE', #100 ) ;
#8 = VECTOR ( 'NONE', #108, 39.37007874015748143 ) ;
#9 = DIRECTION ( 'NONE',  ( 1.000000000000000000, 0.0000000000000000000, -0.0000000000000000000 ) ) ;
#10 = CARTESIAN_POINT ( 'NONE',  ( -0.003999999999999999216, 4.071950607164948101E-18, 0.0000000000000000000 ) ) ;
#11 = DIRECTION ( 'NONE',  ( -0.0000000000000000000, -0.0000000000000000000, -1.000000000000000000 ) ) ;
#12 = MECHANICAL_DESIGN_GEOMETRIC_PRESENTATION_REPRESENTATION (  '', ( #126 ), #87 ) ;
#13 = DIRECTION ( 'NONE',  ( 0.0000000000000000000, 0.0000000000000000000, 1.000000000000000000 ) ) ;
#14 = PRODUCT_DEFINITION ( 'UNKNOWN', '', #22, #80 ) ;
#15 = DIRECTION ( 'NONE',  ( -1.000000000000000000, 0.0000000000000000000, 0.0000000000000000000 ) ) ;
#16 = DIRECTION ( 'NONE',  ( 0.0000000000000000000, 0.0000000000000000000, 1.000000000000000000 ) ) ;
#17 =( NAMED_UNIT ( * ) PLANE_ANGLE_UNIT ( ) SI_UNIT ( $, .RADIAN. ) );
#18 = FACE_OUTER_BOUND ( 'NONE', #198, .T. ) ;
#19 =( CONVERSION_BASED_UNIT ( 'INCH', #189 ) LENGTH_UNIT ( ) NAMED_UNIT ( #209 ) );
#20 = PRESENTATION_STYLE_ASSIGNMENT (( #236 ) ) ;
#21 = DIRECTION ( 'NONE',  ( -1.000000000000000000, 0.0000000000000000000, 0.0000000000000000000 ) ) ;
#22 = PRODUCT_DEFINITION_FORMATION_WITH_SPECIFIED_SOURCE ( 'ANY', '', #93, .NOT_KNOWN. ) ;
#23 = PRODUCT_RELATED_PRODUCT_CATEGORY ( 'part', '', ( #93 ) ) ;
#24 = CARTESIAN_POINT ( 'NONE',  ( 0.0000000000000000000, 0.0000000000000000000, 0.0000000000000000000 ) ) ;
#25 = ORIENTED_EDGE ( 'NONE', *, *, #115, .F. ) ;
#26 = EDGE_LOOP ( 'NONE', ( #121, #81 ) ) ;
#27 = AXIS2_PLACEMENT_3D ( 'NONE', #34, #16, #70 ) ;
#28 = DIRECTION ( 'NONE',  ( -1.000000000000000000, 0.0000000000000000000, 0.0000000000000000000 ) ) ;
#29 = ADVANCED_FACE ( 'NONE', ( #181 ), #138, .F. ) ;
#30 = LINE ( 'NONE', #104, #211 ) ;
#31 = APPLICATION_CONTEXT ( 'automotive_design' ) ;
#32 =( NAMED_UNIT ( * ) PLANE_ANGLE_UNIT ( ) SI_UNIT ( $, .RADIAN. ) );
#33 = CARTESIAN_POINT ( 'NONE',  ( 0.003999999999999999216, 0.0000000000000000000, 0.0000000000000000000 ) ) ;
#34 = CARTESIAN_POINT ( 'NONE',  ( 0.0000000000000000000, 0.0000000000000000000, 0.0000000000000000000 ) ) ;
#35 = COLOUR_RGB ( '',0.7921568627450980005, 0.8196078431372548767, 0.9333333333333333481 ) ;
#36 = FACE_OUTER_BOUND ( 'NONE', #92, .T. ) ;
#37 = ORIENTED_EDGE ( 'NONE', *, *, #130, .F. ) ;
#38 = EDGE_CURVE ( 'NONE', #239, #7, #175, .T. ) ;
#39 = VECTOR ( 'NONE', #140, 39.37007874015748143 ) ;
#40 = EDGE_CURVE ( 'NONE', #73, #156, #71, .T. ) ;
#41 = ORIENTED_EDGE ( 'NONE', *, *, #103, .T. ) ;
#42 = ORIENTED_EDGE ( 'NONE', *, *, #163, .T. ) ;
#43 = CIRCLE ( 'NONE', #249, 0.04750000000000186712 ) ;
#44 =( CONVERSION_BASED_UNIT ( 'INCH', #59 ) LENGTH_UNIT ( ) NAMED_UNIT ( #88 ) );
#45 = EDGE_LOOP ( 'NONE', ( #75, #169, #191, #37 ) ) ;
#46 = ORIENTED_EDGE ( 'NONE', *, *, #127, .T. ) ;
#47 = CONICAL_SURFACE ( 'NONE', #123, 0.04750000000000186712, 0.7853981633974499443 ) ;
#48 = LINE ( 'NONE', #50, #8 ) ;
#49 = CARTESIAN_POINT ( 'NONE',  ( 0.0000000000000000000, 0.0000000000000000000, 0.2183249722427783590 ) ) ;
#50 = CARTESIAN_POINT ( 'NONE',  ( -0.06249999999999997918, 0.0000000000000000000, 3.000000000000000444 ) ) ;
#51 = CIRCLE ( 'NONE', #231, 0.003999999999999999216 ) ;
#52 = APPLICATION_CONTEXT ( 'automotive_design' ) ;
#53 = ADVANCED_FACE ( 'NONE', ( #5 ), #96, .T. ) ;
#54 = CARTESIAN_POINT ( 'NONE',  ( 0.0000000000000000000, 0.0000000000000000000, 3.000000000000000444 ) ) ;
#55 = SURFACE_STYLE_USAGE ( .BOTH. , #94 ) ;
#56 = ORIENTED_EDGE ( 'NONE', *, *, #224, .T. ) ;
#57 = MANIFOLD_SOLID_BREP ( 'Cut-Revolve1', #205 ) ;
#58 = CARTESIAN_POINT ( 'NONE',  ( 0.0000000000000000000, 0.0000000000000000000, 0.0000000000000000000 ) ) ;
#59 = LENGTH_MEASURE_WITH_UNIT ( LENGTH_MEASURE( 0.02539999999999999897 ), #98 );
#60 =( GEOMETRIC_REPRESENTATION_CONTEXT ( 3 ) GLOBAL_UNCERTAINTY_ASSIGNED_CONTEXT ( ( #118 ) ) GLOBAL_UNIT_ASSIGNED_CONTEXT ( ( #19, #17, #190 ) ) REPRESENTATION_CONTEXT ( 'NONE', 'WORKASPACE' ) );
#61 = ORIENTED_EDGE ( 'NONE', *, *, #130, .T. ) ;
#62 = DIRECTION ( 'NONE',  ( -1.000000000000000000, 0.0000000000000000000, 0.0000000000000000000 ) ) ;
#63 = LINE ( 'NONE', #183, #39 ) ;
#64 = CIRCLE ( 'NONE', #215, 0.06249999999999997918 ) ;
#65 = LINE ( 'NONE', #142, #95 ) ;
#66 = ADVANCED_FACE ( 'NONE', ( #247 ), #227, .T. ) ;
#67 = DIRECTION ( 'NONE',  ( -0.0000000000000000000, -0.0000000000000000000, -1.000000000000000000 ) ) ;
#68 = CARTESIAN_POINT ( 'NONE',  ( 0.04750000000000186712, 6.735557395310556377E-18, 3.000000000000000444 ) ) ;
#69 = FACE_OUTER_BOUND ( 'NONE', #178, .T. ) ;
#70 = DIRECTION ( 'NONE',  ( 1.000000000000000000, 0.0000000000000000000, 0.0000000000000000000 ) ) ;
#71 = CIRCLE ( 'NONE', #193, 0.003999999999999999216 ) ;
#72 = DIRECTION ( 'NONE',  ( 0.0000000000000000000, 0.0000000000000000000, 1.000000000000000000 ) ) ;
#73 = VERTEX_POINT ( 'NONE', #10 ) ;
#74 = PRODUCT_CONTEXT ( 'NONE', #31, 'mechanical' ) ;
#75 = ORIENTED_EDGE ( 'NONE', *, *, #38, .T. ) ;
#76 = CIRCLE ( 'NONE', #218, 0.06249999999999997918 ) ;
#77 = VERTEX_POINT ( 'NONE', #128 ) ;
#78 = FILL_AREA_STYLE ('',( #221 ) ) ;
#79 = DIRECTION ( 'NONE',  ( 1.000000000000000000, 0.0000000000000000000, 0.0000000000000000000 ) ) ;
#80 = PRODUCT_DEFINITION_CONTEXT ( 'detailed design', #52, 'design' ) ;
#81 = ORIENTED_EDGE ( 'NONE', *, *, #40, .T. ) ;
#82 = AXIS2_PLACEMENT_3D ( 'NONE', #58, #136, #9 ) ;
#83 = CARTESIAN_POINT ( 'NONE',  ( 0.0000000000000000000, 0.0000000000000000000, 2.985000000000002096 ) ) ;
#84 = DIRECTION ( 'NONE',  ( 1.000000000000000000, 0.0000000000000000000, 0.0000000000000000000 ) ) ;
#85 = ADVANCED_FACE ( 'NONE', ( #162 ), #238, .T. ) ;
#86 = LINE ( 'NONE', #159, #146 ) ;
#87 =( GEOMETRIC_REPRESENTATION_CONTEXT ( 3 ) GLOBAL_UNCERTAINTY_ASSIGNED_CONTEXT ( ( #137 ) ) GLOBAL_UNIT_ASSIGNED_CONTEXT ( ( #44, #32, #182 ) ) REPRESENTATION_CONTEXT ( 'NONE', 'WORKASPACE' ) );
#88 = DIMENSIONAL_EXPONENTS ( 1.000000000000000000, 0.0000000000000000000, 0.0000000000000000000, 0.0000000000000000000, 0.0000000000000000000, 0.0000000000000000000, 0.0000000000000000000 ) ;
#89 = CARTESIAN_POINT ( 'NONE',  ( -0.06249999999999997918, 0.0000000000000000000, 2.985000000000002096 ) ) ;
#90 = LENGTH_MEASURE_WITH_UNIT ( LENGTH_MEASURE( 0.02539999999999999897 ), #150 );
#91 = EDGE_LOOP ( 'NONE', ( #3, #219, #197, #154 ) ) ;
#92 = EDGE_LOOP ( 'NONE', ( #235, #56 ) ) ;
#93 = PRODUCT ( 'Micro_RTC-125-13X', 'Micro_RTC-125-13X', '', ( #74 ) ) ;
#94 = SURFACE_SIDE_STYLE ('',( #230 ) ) ;
#95 = VECTOR ( 'NONE', #225, 39.37007874015748854 ) ;
#96 = CYLINDRICAL_SURFACE ( 'NONE', #170, 0.06249999999999997918 ) ;
#97 = PRODUCT_DEFINITION_SHAPE ( 'NONE', 'NONE',  #14 ) ;
#98 =( LENGTH_UNIT ( ) NAMED_UNIT ( * ) SI_UNIT ( $, .METRE. ) );
#99 = VERTEX_POINT ( 'NONE', #245 ) ;
#100 = CARTESIAN_POINT ( 'NONE',  ( 0.06249999999999997918, 7.654042494670954463E-18, 2.985000000000002096 ) ) ;
#101 = VECTOR ( 'NONE', #186, 39.37007874015748854 ) ;
#102 = CARTESIAN_POINT ( 'NONE',  ( 0.0000000000000000000, 0.0000000000000000000, 3.000000000000000444 ) ) ;
#103 = EDGE_CURVE ( 'NONE', #195, #99, #155, .T. ) ;
#104 = CARTESIAN_POINT ( 'NONE',  ( 0.06249999999999997918, 7.654042494670954463E-18, 3.000000000000000444 ) ) ;
#105 = CARTESIAN_POINT ( 'NONE',  ( 0.0000000000000000000, 0.0000000000000000000, 3.000000000000000444 ) ) ;
#106 = PRESENTATION_LAYER_ASSIGNMENT (  '', '', ( #126 ) ) ;
#107 = DIRECTION ( 'NONE',  ( 1.000000000000000000, 0.0000000000000000000, 0.0000000000000000000 ) ) ;
#108 = DIRECTION ( 'NONE',  ( -0.0000000000000000000, -0.0000000000000000000, -1.000000000000000000 ) ) ;
#109 = EDGE_CURVE ( 'NONE', #77, #116, #43, .T. ) ;
#110 = DIRECTION ( 'NONE',  ( 0.0000000000000000000, 0.0000000000000000000, 1.000000000000000000 ) ) ;
#111 = EDGE_LOOP ( 'NONE', ( #119, #25, #46, #177 ) ) ;
#112 = CARTESIAN_POINT ( 'NONE',  ( 0.0000000000000000000, 0.0000000000000000000, 0.0000000000000000000 ) ) ;
#113 = AXIS2_PLACEMENT_3D ( 'NONE', #102, #244, #185 ) ;
#114 = ADVANCED_FACE ( 'NONE', ( #69 ), #229, .T. ) ;
#115 = EDGE_CURVE ( 'NONE', #156, #73, #51, .T. ) ;
#116 = VERTEX_POINT ( 'NONE', #68 ) ;
#117 = ADVANCED_BREP_SHAPE_REPRESENTATION ( 'Micro_RTC-125-13X', ( #57, #160 ), #60 ) ;
#118 = UNCERTAINTY_MEASURE_WITH_UNIT (LENGTH_MEASURE( 1.000000000000000082E-05 ), #19, 'distance_accuracy_value', 'NONE');
#119 = ORIENTED_EDGE ( 'NONE', *, *, #176, .F. ) ;
#120 = EDGE_CURVE ( 'NONE', #7, #239, #64, .T. ) ;
#121 = ORIENTED_EDGE ( 'NONE', *, *, #115, .T. ) ;
#122 = SURFACE_SIDE_STYLE ('',( #217 ) ) ;
#123 = AXIS2_PLACEMENT_3D ( 'NONE', #54, #202, #28 ) ;
#124 = DIRECTION ( 'NONE',  ( -0.0000000000000000000, -0.0000000000000000000, -1.000000000000000000 ) ) ;
#125 = FACE_OUTER_BOUND ( 'NONE', #6, .T. ) ;
#126 = STYLED_ITEM ( 'NONE', ( #20 ), #57 ) ;
#127 = EDGE_CURVE ( 'NONE', #156, #99, #158, .T. ) ;
#128 = CARTESIAN_POINT ( 'NONE',  ( -0.04750000000000186712, 0.0000000000000000000, 3.000000000000000444 ) ) ;
#129 = DIRECTION ( 'NONE',  ( 0.0000000000000000000, 0.0000000000000000000, 1.000000000000000000 ) ) ;
#130 = EDGE_CURVE ( 'NONE', #239, #195, #48, .T. ) ;
#131 = CARTESIAN_POINT ( 'NONE',  ( 0.0000000000000000000, 0.0000000000000000000, 3.000000000000000444 ) ) ;
#132 = AXIS2_PLACEMENT_3D ( 'NONE', #194, #129, #168 ) ;
#133 = ORIENTED_EDGE ( 'NONE', *, *, #179, .F. ) ;
#134 = DIRECTION ( 'NONE',  ( 0.0000000000000000000, 0.0000000000000000000, -1.000000000000000000 ) ) ;
#135 = AXIS2_PLACEMENT_3D ( 'NONE', #131, #110, #149 ) ;
#136 = DIRECTION ( 'NONE',  ( 0.0000000000000000000, 0.0000000000000000000, 1.000000000000000000 ) ) ;
#137 = UNCERTAINTY_MEASURE_WITH_UNIT (LENGTH_MEASURE( 1.000000000000000082E-05 ), #44, 'distance_accuracy_value', 'NONE');
#138 = PLANE ( 'NONE',  #82 ) ;
#139 = ORIENTED_EDGE ( 'NONE', *, *, #127, .F. ) ;
#140 = DIRECTION ( 'NONE',  ( -0.7071067811865486830, 0.0000000000000000000, -0.7071067811865463515 ) ) ;
#141 = STYLED_ITEM ( 'NONE', ( #172 ), #117 ) ;
#142 = CARTESIAN_POINT ( 'NONE',  ( -0.003999999999999999216, 4.898587196589411612E-19, 0.0000000000000000000 ) ) ;
#143 = DIRECTION ( 'NONE',  ( 0.0000000000000000000, 0.0000000000000000000, -1.000000000000000000 ) ) ;
#144 = CARTESIAN_POINT ( 'NONE',  ( 0.0000000000000000000, 0.0000000000000000000, 2.985000000000002096 ) ) ;
#145 = ADVANCED_FACE ( 'NONE', ( #125 ), #47, .T. ) ;
#146 = VECTOR ( 'NONE', #243, 39.37007874015748143 ) ;
#147 = DIRECTION ( 'NONE',  ( 1.000000000000000000, 0.0000000000000000000, 0.0000000000000000000 ) ) ;
#148 = ORIENTED_EDGE ( 'NONE', *, *, #167, .F. ) ;
#149 = DIRECTION ( 'NONE',  ( 1.000000000000000000, 0.0000000000000000000, -0.0000000000000000000 ) ) ;
#150 =( LENGTH_UNIT ( ) NAMED_UNIT ( * ) SI_UNIT ( $, .METRE. ) );
#151 = AXIS2_PLACEMENT_3D ( 'NONE', #184, #206, #15 ) ;
#152 = ORIENTED_EDGE ( 'NONE', *, *, #40, .F. ) ;
#153 = DIRECTION ( 'NONE',  ( -0.0000000000000000000, -0.0000000000000000000, -1.000000000000000000 ) ) ;
#154 = ORIENTED_EDGE ( 'NONE', *, *, #163, .F. ) ;
#155 = CIRCLE ( 'NONE', #151, 0.06249999999999997918 ) ;
#156 = VERTEX_POINT ( 'NONE', #241 ) ;
#157 = CARTESIAN_POINT ( 'NONE',  ( 0.0000000000000000000, 0.0000000000000000000, 3.000000000000000444 ) ) ;
#158 = LINE ( 'NONE', #33, #101 ) ;
#159 = CARTESIAN_POINT ( 'NONE',  ( 0.04750000000000186712, 5.817072295950156750E-18, 3.000000000000000444 ) ) ;
#160 = AXIS2_PLACEMENT_3D ( 'NONE', #112, #72, #147 ) ;
#161 = APPLICATION_PROTOCOL_DEFINITION ( 'draft international standard', 'automotive_design', 1998, #52 ) ;
#162 = FACE_OUTER_BOUND ( 'NONE', #91, .T. ) ;
#163 = EDGE_CURVE ( 'NONE', #77, #239, #63, .T. ) ;
#164 = DIRECTION ( 'NONE',  ( 0.0000000000000000000, 0.0000000000000000000, 1.000000000000000000 ) ) ;
#165 = DIRECTION ( 'NONE',  ( 0.0000000000000000000, 0.0000000000000000000, -1.000000000000000000 ) ) ;
#166 = MECHANICAL_DESIGN_GEOMETRIC_PRESENTATION_REPRESENTATION (  '', ( #141 ), #4 ) ;
#167 = EDGE_CURVE ( 'NONE', #7, #99, #30, .T. ) ;
#168 = DIRECTION ( 'NONE',  ( 1.000000000000000000, 0.0000000000000000000, 0.0000000000000000000 ) ) ;
#169 = ORIENTED_EDGE ( 'NONE', *, *, #167, .T. ) ;
#170 = AXIS2_PLACEMENT_3D ( 'NONE', #157, #240, #62 ) ;
#171 = APPLICATION_PROTOCOL_DEFINITION ( 'draft international standard', 'automotive_design', 1998, #31 ) ;
#172 = PRESENTATION_STYLE_ASSIGNMENT (( #55 ) ) ;
#173 = EDGE_CURVE ( 'NONE', #116, #7, #86, .T. ) ;
#174 = ORIENTED_EDGE ( 'NONE', *, *, #176, .T. ) ;
#175 = CIRCLE ( 'NONE', #196, 0.06249999999999997918 ) ;
#176 = EDGE_CURVE ( 'NONE', #73, #195, #65, .T. ) ;
#177 = ORIENTED_EDGE ( 'NONE', *, *, #179, .T. ) ;
#178 = EDGE_LOOP ( 'NONE', ( #148, #213, #61, #133 ) ) ;
#179 = EDGE_CURVE ( 'NONE', #99, #195, #76, .T. ) ;
#180 = COLOUR_RGB ( '',0.7921568627450980005, 0.8196078431372548767, 0.9333333333333333481 ) ;
#181 = FACE_OUTER_BOUND ( 'NONE', #26, .T. ) ;
#182 =( NAMED_UNIT ( * ) SI_UNIT ( $, .STERADIAN. ) SOLID_ANGLE_UNIT ( ) );
#183 = CARTESIAN_POINT ( 'NONE',  ( -0.04750000000000186712, 0.0000000000000000000, 3.000000000000000444 ) ) ;
#184 = CARTESIAN_POINT ( 'NONE',  ( 0.0000000000000000000, 0.0000000000000000000, 0.2183249722427783590 ) ) ;
#185 = DIRECTION ( 'NONE',  ( -1.000000000000000000, 0.0000000000000000000, 0.0000000000000000000 ) ) ;
#186 = DIRECTION ( 'NONE',  ( 0.2588190451025217387, 0.0000000000000000000, 0.9659258262890679791 ) ) ;
#187 = PLANE ( 'NONE',  #135 ) ;
#188 = AXIS2_PLACEMENT_3D ( 'NONE', #24, #164, #107 ) ;
#189 = LENGTH_MEASURE_WITH_UNIT ( LENGTH_MEASURE( 0.02539999999999999897 ), #214 );
#190 =( NAMED_UNIT ( * ) SI_UNIT ( $, .STERADIAN. ) SOLID_ANGLE_UNIT ( ) );
#191 = ORIENTED_EDGE ( 'NONE', *, *, #103, .F. ) ;
#192 = FILL_AREA_STYLE ('',( #232 ) ) ;
#193 = AXIS2_PLACEMENT_3D ( 'NONE', #216, #153, #21 ) ;
#194 = CARTESIAN_POINT ( 'NONE',  ( 0.0000000000000000000, 0.0000000000000000000, 3.000000000000000444 ) ) ;
#195 = VERTEX_POINT ( 'NONE', #212 ) ;
#196 = AXIS2_PLACEMENT_3D ( 'NONE', #83, #134, #79 ) ;
#197 = ORIENTED_EDGE ( 'NONE', *, *, #38, .F. ) ;
#198 = EDGE_LOOP ( 'NONE', ( #152, #174, #41, #139 ) ) ;
#199 = SHAPE_DEFINITION_REPRESENTATION ( #97, #117 ) ;
#200 = UNCERTAINTY_MEASURE_WITH_UNIT (LENGTH_MEASURE( 1.000000000000000082E-05 ), #237, 'distance_accuracy_value', 'NONE');
#201 = ORIENTED_EDGE ( 'NONE', *, *, #109, .F. ) ;
#202 = DIRECTION ( 'NONE',  ( 0.0000000000000000000, 0.0000000000000000000, -1.000000000000000000 ) ) ;
#203 = DIRECTION ( 'NONE',  ( -1.000000000000000000, 0.0000000000000000000, 0.0000000000000000000 ) ) ;
#204 = DIRECTION ( 'NONE',  ( -1.000000000000000000, 0.0000000000000000000, 0.0000000000000000000 ) ) ;
#205 = CLOSED_SHELL ( 'NONE', ( #234, #85, #53, #114, #220, #145, #66, #29 ) ) ;
#206 = DIRECTION ( 'NONE',  ( -0.0000000000000000000, -0.0000000000000000000, -1.000000000000000000 ) ) ;
#207 = DIMENSIONAL_EXPONENTS ( 1.000000000000000000, 0.0000000000000000000, 0.0000000000000000000, 0.0000000000000000000, 0.0000000000000000000, 0.0000000000000000000, 0.0000000000000000000 ) ;
#208 = CARTESIAN_POINT ( 'NONE',  ( 0.0000000000000000000, 0.0000000000000000000, 0.0000000000000000000 ) ) ;
#209 = DIMENSIONAL_EXPONENTS ( 1.000000000000000000, 0.0000000000000000000, 0.0000000000000000000, 0.0000000000000000000, 0.0000000000000000000, 0.0000000000000000000, 0.0000000000000000000 ) ;
#210 =( NAMED_UNIT ( * ) PLANE_ANGLE_UNIT ( ) SI_UNIT ( $, .RADIAN. ) );
#211 = VECTOR ( 'NONE', #11, 39.37007874015748143 ) ;
#212 = CARTESIAN_POINT ( 'NONE',  ( -0.06249999999999997918, 0.0000000000000000000, 0.2183249722427783590 ) ) ;
#213 = ORIENTED_EDGE ( 'NONE', *, *, #120, .T. ) ;
#214 =( LENGTH_UNIT ( ) NAMED_UNIT ( * ) SI_UNIT ( $, .METRE. ) );
#215 = AXIS2_PLACEMENT_3D ( 'NONE', #144, #143, #84 ) ;
#216 = CARTESIAN_POINT ( 'NONE',  ( 0.0000000000000000000, 0.0000000000000000000, 0.0000000000000000000 ) ) ;
#217 = SURFACE_STYLE_FILL_AREA ( #78 ) ;
#218 = AXIS2_PLACEMENT_3D ( 'NONE', #49, #124, #204 ) ;
#219 = ORIENTED_EDGE ( 'NONE', *, *, #173, .T. ) ;
#220 = ADVANCED_FACE ( 'NONE', ( #36 ), #187, .T. ) ;
#221 = FILL_AREA_STYLE_COLOUR ( '', #180 ) ;
#222 = CONICAL_SURFACE ( 'NONE', #27, 0.003999999999999999216, 0.2617993877991504625 ) ;
#223 = CARTESIAN_POINT ( 'NONE',  ( 0.0000000000000000000, 0.0000000000000000000, 3.000000000000000444 ) ) ;
#224 = EDGE_CURVE ( 'NONE', #116, #77, #246, .T. ) ;
#225 = DIRECTION ( 'NONE',  ( -0.2588190451025217387, 3.169619151431776651E-17, 0.9659258262890679791 ) ) ;
#226 = DIRECTION ( 'NONE',  ( 1.000000000000000000, 0.0000000000000000000, 0.0000000000000000000 ) ) ;
#227 = CONICAL_SURFACE ( 'NONE', #188, 0.003999999999999999216, 0.2617993877991504625 ) ;
#228 = DIRECTION ( 'NONE',  ( -1.000000000000000000, 0.0000000000000000000, 0.0000000000000000000 ) ) ;
#229 = CYLINDRICAL_SURFACE ( 'NONE', #113, 0.06249999999999997918 ) ;
#230 = SURFACE_STYLE_FILL_AREA ( #192 ) ;
#231 = AXIS2_PLACEMENT_3D ( 'NONE', #208, #67, #228 ) ;
#232 = FILL_AREA_STYLE_COLOUR ( '', #35 ) ;
#233 = PRESENTATION_LAYER_ASSIGNMENT (  '', '', ( #141 ) ) ;
#234 = ADVANCED_FACE ( 'NONE', ( #18 ), #222, .T. ) ;
#235 = ORIENTED_EDGE ( 'NONE', *, *, #109, .T. ) ;
#236 = SURFACE_STYLE_USAGE ( .BOTH. , #122 ) ;
#237 =( CONVERSION_BASED_UNIT ( 'INCH', #90 ) LENGTH_UNIT ( ) NAMED_UNIT ( #207 ) );
#238 = CONICAL_SURFACE ( 'NONE', #242, 0.04750000000000186712, 0.7853981633974499443 ) ;
#239 = VERTEX_POINT ( 'NONE', #89 ) ;
#240 = DIRECTION ( 'NONE',  ( -0.0000000000000000000, -0.0000000000000000000, -1.000000000000000000 ) ) ;
#241 = CARTESIAN_POINT ( 'NONE',  ( 0.003999999999999999216, 0.0000000000000000000, 0.0000000000000000000 ) ) ;
#242 = AXIS2_PLACEMENT_3D ( 'NONE', #105, #165, #203 ) ;
#243 = DIRECTION ( 'NONE',  ( 0.7071067811865486830, 8.659560562354947649E-17, -0.7071067811865463515 ) ) ;
#244 = DIRECTION ( 'NONE',  ( -0.0000000000000000000, -0.0000000000000000000, -1.000000000000000000 ) ) ;
#245 = CARTESIAN_POINT ( 'NONE',  ( 0.06249999999999997918, 7.654042494670954463E-18, 0.2183249722427783590 ) ) ;
#246 = CIRCLE ( 'NONE', #132, 0.04750000000000186712 ) ;
#247 = FACE_OUTER_BOUND ( 'NONE', #111, .T. ) ;
#248 =( NAMED_UNIT ( * ) SI_UNIT ( $, .STERADIAN. ) SOLID_ANGLE_UNIT ( ) );
#249 = AXIS2_PLACEMENT_3D ( 'NONE', #223, #13, #226 ) ;
ENDSEC;
END-ISO-10303-21;
