ISO-10303-21;
HEADER;
FILE_DESCRIPTION (( 'STEP AP214' ),
    '1' );
FILE_NAME ('30122.STEP',
    '2023-06-22T17:58:08',
    ( '' ),
    ( '' ),
    'SwSTEP 2.0',
    'SolidWorks 2023',
    '' );
FILE_SCHEMA (( 'AUTOMOTIVE_DESIGN' ));
ENDSEC;

DATA;
#1 = DIRECTION ( 'NONE',  ( 0.000000000000000000, 0.000000000000000000, -1.000000000000000000 ) ) ;
#2 = UNCERTAINTY_MEASURE_WITH_UNIT (LENGTH_MEASURE( 1.000000000000000082E-05 ), #54, 'distance_accuracy_value', 'NONE');
#3 = LENGTH_MEASURE_WITH_UNIT ( LENGTH_MEASURE( 0.02539999999999999897 ), #225 );
#4 = STYLED_ITEM ( 'NONE', ( #116 ), #143 ) ;
#5 = CIRCLE ( 'NONE', #63, 0.1249999999999999306 ) ;
#6 = SURFACE_STYLE_USAGE ( .BOTH. , #298 ) ;
#7 = ORIENTED_EDGE ( 'NONE', *, *, #32, .F. ) ;
#8 = ADVANCED_FACE ( 'NONE', ( #283 ), #262, .T. ) ;
#9 = COLOUR_RGB ( '',1.000000000000000000, 0.000000000000000000, 0.000000000000000000 ) ;
#10 = SURFACE_STYLE_USAGE ( .BOTH. , #47 ) ;
#11 = ORIENTED_EDGE ( 'NONE', *, *, #118, .T. ) ;
#12 = DIRECTION ( 'NONE',  ( -0.000000000000000000, -1.000000000000000000, -0.000000000000000000 ) ) ;
#13 = FACE_OUTER_BOUND ( 'NONE', #155, .T. ) ;
#14 = PRESENTATION_STYLE_ASSIGNMENT (( #264 ) ) ;
#15 = DIRECTION ( 'NONE',  ( -1.000000000000000000, 0.000000000000000000, 0.000000000000000000 ) ) ;
#16 = ORIENTED_EDGE ( 'NONE', *, *, #184, .T. ) ;
#17 = SURFACE_SIDE_STYLE ('',( #40 ) ) ;
#18 = MECHANICAL_DESIGN_GEOMETRIC_PRESENTATION_REPRESENTATION (  '', ( #105 ), #270 ) ;
#19 = LINE ( 'NONE', #267, #353 ) ;
#20 = VECTOR ( 'NONE', #229, 39.37007874015748143 ) ;
#21 = CYLINDRICAL_SURFACE ( 'NONE', #315, 0.1249999999999999584 ) ;
#22 = DIRECTION ( 'NONE',  ( -2.968840725205704707E-17, 1.000000000000000000, 0.000000000000000000 ) ) ;
#23 =( LENGTH_UNIT ( ) NAMED_UNIT ( * ) SI_UNIT ( $, .METRE. ) );
#24 = ADVANCED_FACE ( 'NONE', ( #248 ), #328, .T. ) ;
#25 = UNCERTAINTY_MEASURE_WITH_UNIT (LENGTH_MEASURE( 1.000000000000000082E-05 ), #320, 'distance_accuracy_value', 'NONE');
#26 = CARTESIAN_POINT ( 'NONE',  ( 0.1249999999999999306, 0.4804980216144644212, 1.530808498934190585E-17 ) ) ;
#27 =( NAMED_UNIT ( * ) PLANE_ANGLE_UNIT ( ) SI_UNIT ( $, .RADIAN. ) );
#28 = VECTOR ( 'NONE', #137, 39.37007874015748143 ) ;
#29 = EDGE_CURVE ( 'NONE', #117, #64, #51, .T. ) ;
#30 = PRODUCT_CONTEXT ( 'NONE', #89, 'mechanical' ) ;
#31 = APPLICATION_CONTEXT ( 'automotive_design' ) ;
#32 = EDGE_CURVE ( 'NONE', #351, #230, #62, .T. ) ;
#33 = UNCERTAINTY_MEASURE_WITH_UNIT (LENGTH_MEASURE( 1.000000000000000082E-05 ), #65, 'distance_accuracy_value', 'NONE');
#34 = FILL_AREA_STYLE_COLOUR ( '', #57 ) ;
#35 = UNCERTAINTY_MEASURE_WITH_UNIT (LENGTH_MEASURE( 1.000000000000000082E-05 ), #246, 'distance_accuracy_value', 'NONE');
#36 = ORIENTED_EDGE ( 'NONE', *, *, #187, .T. ) ;
#37 = EDGE_CURVE ( 'NONE', #233, #44, #250, .T. ) ;
#38 = AXIS2_PLACEMENT_3D ( 'NONE', #156, #106, #324 ) ;
#39 =( LENGTH_UNIT ( ) NAMED_UNIT ( * ) SI_UNIT ( $, .METRE. ) );
#40 = SURFACE_STYLE_FILL_AREA ( #76 ) ;
#41 = EDGE_CURVE ( 'NONE', #132, #346, #344, .T. ) ;
#42 = DIRECTION ( 'NONE',  ( 0.000000000000000000, 0.000000000000000000, -1.000000000000000000 ) ) ;
#43 = ORIENTED_EDGE ( 'NONE', *, *, #29, .T. ) ;
#44 = VERTEX_POINT ( 'NONE', #190 ) ;
#45 = AXIS2_PLACEMENT_3D ( 'NONE', #306, #72, #15 ) ;
#46 = CARTESIAN_POINT ( 'NONE',  ( 0.000000000000000000, 0.4375000000000000000, -0.1093499999999999889 ) ) ;
#47 = SURFACE_SIDE_STYLE ('',( #288 ) ) ;
#48 = EDGE_LOOP ( 'NONE', ( #174, #307, #289, #266 ) ) ;
#49 = EDGE_CURVE ( 'NONE', #44, #233, #138, .T. ) ;
#50 = FILL_AREA_STYLE ('',( #157 ) ) ;
#51 = CIRCLE ( 'NONE', #358, 0.1250000000000000000 ) ;
#52 = DIRECTION ( 'NONE',  ( -2.968840725205704707E-17, 1.000000000000000000, -0.000000000000000000 ) ) ;
#53 = DIRECTION ( 'NONE',  ( 0.000000000000000000, 0.000000000000000000, -1.000000000000000000 ) ) ;
#54 =( CONVERSION_BASED_UNIT ( 'INCH', #188 ) LENGTH_UNIT ( ) NAMED_UNIT ( #257 ) );
#55 =( NAMED_UNIT ( * ) SI_UNIT ( $, .STERADIAN. ) SOLID_ANGLE_UNIT ( ) );
#56 = DIRECTION ( 'NONE',  ( -2.968840725205704707E-17, 1.000000000000000000, -0.000000000000000000 ) ) ;
#57 = COLOUR_RGB ( '',0.7921568627450980005, 0.8196078431372548767, 0.9333333333333333481 ) ;
#58 =( GEOMETRIC_REPRESENTATION_CONTEXT ( 3 ) GLOBAL_UNCERTAINTY_ASSIGNED_CONTEXT ( ( #25 ) ) GLOBAL_UNIT_ASSIGNED_CONTEXT ( ( #320, #110, #191 ) ) REPRESENTATION_CONTEXT ( 'NONE', 'WORKASPACE' ) );
#59 = ADVANCED_FACE ( 'NONE', ( #186 ), #245, .T. ) ;
#60 =( NAMED_UNIT ( * ) PLANE_ANGLE_UNIT ( ) SI_UNIT ( $, .RADIAN. ) );
#61 =( LENGTH_UNIT ( ) NAMED_UNIT ( * ) SI_UNIT ( $, .METRE. ) );
#62 = CIRCLE ( 'NONE', #227, 0.1249999999999999306 ) ;
#63 = AXIS2_PLACEMENT_3D ( 'NONE', #352, #194, #218 ) ;
#64 = VERTEX_POINT ( 'NONE', #291 ) ;
#65 =( CONVERSION_BASED_UNIT ( 'INCH', #339 ) LENGTH_UNIT ( ) NAMED_UNIT ( #221 ) );
#66 = ORIENTED_EDGE ( 'NONE', *, *, #184, .F. ) ;
#67 = STYLED_ITEM ( 'NONE', ( #292 ), #349 ) ;
#68 = APPLICATION_PROTOCOL_DEFINITION ( 'draft international standard', 'automotive_design', 1998, #31 ) ;
#69 = DIRECTION ( 'NONE',  ( -2.968840725205704707E-17, 1.000000000000000000, -0.000000000000000000 ) ) ;
#70 = FACE_OUTER_BOUND ( 'NONE', #48, .T. ) ;
#71 = ORIENTED_EDGE ( 'NONE', *, *, #41, .F. ) ;
#72 = DIRECTION ( 'NONE',  ( -2.968840725205704707E-17, 1.000000000000000000, -0.000000000000000000 ) ) ;
#73 = EDGE_LOOP ( 'NONE', ( #16, #286, #207, #104 ) ) ;
#74 =( GEOMETRIC_REPRESENTATION_CONTEXT ( 3 ) GLOBAL_UNCERTAINTY_ASSIGNED_CONTEXT ( ( #198 ) ) GLOBAL_UNIT_ASSIGNED_CONTEXT ( ( #90, #278, #177 ) ) REPRESENTATION_CONTEXT ( 'NONE', 'WORKASPACE' ) );
#75 = LINE ( 'NONE', #206, #20 ) ;
#76 = FILL_AREA_STYLE ('',( #317 ) ) ;
#77 = PLANE ( 'NONE',  #301 ) ;
#78 = DIRECTION ( 'NONE',  ( -2.968840725205704707E-17, 1.000000000000000000, -0.000000000000000000 ) ) ;
#79 = CARTESIAN_POINT ( 'NONE',  ( 4.819062838834133551E-35, 0.4375000000000000000, 0.000000000000000000 ) ) ;
#80 = DIRECTION ( 'NONE',  ( 0.000000000000000000, -1.000000000000000000, -0.000000000000000000 ) ) ;
#81 = STYLED_ITEM ( 'NONE', ( #14 ), #8 ) ;
#82 = DIRECTION ( 'NONE',  ( -1.000000000000000000, 0.000000000000000000, 0.000000000000000000 ) ) ;
#83 = EDGE_CURVE ( 'NONE', #44, #107, #109, .T. ) ;
#84 = DIRECTION ( 'NONE',  ( -2.968840725205704707E-17, 1.000000000000000000, -0.000000000000000000 ) ) ;
#85 = SURFACE_STYLE_FILL_AREA ( #50 ) ;
#86 = AXIS2_PLACEMENT_3D ( 'NONE', #272, #78, #112 ) ;
#87 = FILL_AREA_STYLE ('',( #330 ) ) ;
#88 = AXIS2_PLACEMENT_3D ( 'NONE', #247, #293, #356 ) ;
#89 = APPLICATION_CONTEXT ( 'automotive_design' ) ;
#90 =( CONVERSION_BASED_UNIT ( 'INCH', #3 ) LENGTH_UNIT ( ) NAMED_UNIT ( #94 ) );
#91 = ORIENTED_EDGE ( 'NONE', *, *, #329, .T. ) ;
#92 = COLOUR_RGB ( '',0.7921568627450980005, 0.8196078431372548767, 0.9333333333333333481 ) ;
#93 = DIMENSIONAL_EXPONENTS ( 1.000000000000000000, 0.000000000000000000, 0.000000000000000000, 0.000000000000000000, 0.000000000000000000, 0.000000000000000000, 0.000000000000000000 ) ;
#94 = DIMENSIONAL_EXPONENTS ( 1.000000000000000000, 0.000000000000000000, 0.000000000000000000, 0.000000000000000000, 0.000000000000000000, 0.000000000000000000, 0.000000000000000000 ) ;
#95 = CARTESIAN_POINT ( 'NONE',  ( -0.1249999999999999306, 0.4804980216144644212, 0.000000000000000000 ) ) ;
#96 =( CONVERSION_BASED_UNIT ( 'INCH', #124 ) LENGTH_UNIT ( ) NAMED_UNIT ( #93 ) );
#97 = ADVANCED_FACE ( 'NONE', ( #321 ), #21, .T. ) ;
#98 = PRESENTATION_LAYER_ASSIGNMENT (  '', '', ( #4 ) ) ;
#99 =( GEOMETRIC_REPRESENTATION_CONTEXT ( 3 ) GLOBAL_UNCERTAINTY_ASSIGNED_CONTEXT ( ( #35 ) ) GLOBAL_UNIT_ASSIGNED_CONTEXT ( ( #246, #219, #55 ) ) REPRESENTATION_CONTEXT ( 'NONE', 'WORKASPACE' ) );
#100 = DIRECTION ( 'NONE',  ( -1.000000000000000000, 0.000000000000000000, 0.000000000000000000 ) ) ;
#101 = ORIENTED_EDGE ( 'NONE', *, *, #29, .F. ) ;
#102 =( NAMED_UNIT ( * ) SI_UNIT ( $, .STERADIAN. ) SOLID_ANGLE_UNIT ( ) );
#103 = CARTESIAN_POINT ( 'NONE',  ( -0.1093499999999999889, 0.4374999999999998890, 0.000000000000000000 ) ) ;
#104 = ORIENTED_EDGE ( 'NONE', *, *, #217, .F. ) ;
#105 = STYLED_ITEM ( 'NONE', ( #280 ), #113 ) ;
#106 = DIRECTION ( 'NONE',  ( -0.000000000000000000, -1.000000000000000000, -0.000000000000000000 ) ) ;
#107 = VERTEX_POINT ( 'NONE', #325 ) ;
#108 = LENGTH_MEASURE_WITH_UNIT ( LENGTH_MEASURE( 0.02539999999999999897 ), #163 );
#109 = LINE ( 'NONE', #273, #28 ) ;
#110 =( NAMED_UNIT ( * ) PLANE_ANGLE_UNIT ( ) SI_UNIT ( $, .RADIAN. ) );
#111 = CIRCLE ( 'NONE', #139, 0.1093500000000000028 ) ;
#112 = DIRECTION ( 'NONE',  ( -1.000000000000000000, 0.000000000000000000, 0.000000000000000000 ) ) ;
#113 = MANIFOLD_SOLID_BREP ( 'Revolve - Tool Body (Reduced Cut Diameter)', #205 ) ;
#114 =( LENGTH_UNIT ( ) NAMED_UNIT ( * ) SI_UNIT ( $, .METRE. ) );
#115 = MECHANICAL_DESIGN_GEOMETRIC_PRESENTATION_REPRESENTATION (  '', ( #67 ), #58 ) ;
#116 = PRESENTATION_STYLE_ASSIGNMENT (( #6 ) ) ;
#117 = VERTEX_POINT ( 'NONE', #170 ) ;
#118 = EDGE_CURVE ( 'NONE', #233, #130, #193, .T. ) ;
#119 =( CONVERSION_BASED_UNIT ( 'INCH', #255 ) LENGTH_UNIT ( ) NAMED_UNIT ( #340 ) );
#120 = PRODUCT ( '30122', '30122', '', ( #30 ) ) ;
#121 = VECTOR ( 'NONE', #128, 39.37007874015748143 ) ;
#122 = LINE ( 'NONE', #103, #121 ) ;
#123 = PRODUCT_DEFINITION ( 'UNKNOWN', '', #282, #144 ) ;
#124 = LENGTH_MEASURE_WITH_UNIT ( LENGTH_MEASURE( 0.02539999999999999897 ), #146 );
#125 = FILL_AREA_STYLE_COLOUR ( '', #9 ) ;
#126 = ORIENTED_EDGE ( 'NONE', *, *, #311, .F. ) ;
#127 =( GEOMETRIC_REPRESENTATION_CONTEXT ( 3 ) GLOBAL_UNCERTAINTY_ASSIGNED_CONTEXT ( ( #308 ) ) GLOBAL_UNIT_ASSIGNED_CONTEXT ( ( #96, #348, #102 ) ) REPRESENTATION_CONTEXT ( 'NONE', 'WORKASPACE' ) );
#128 = DIRECTION ( 'NONE',  ( -0.3420201433256700452, 0.9396926207859079838, 0.000000000000000000 ) ) ;
#129 = LINE ( 'NONE', #350, #182 ) ;
#130 = VERTEX_POINT ( 'NONE', #335 ) ;
#131 = SURFACE_STYLE_USAGE ( .BOTH. , #327 ) ;
#132 = VERTEX_POINT ( 'NONE', #251 ) ;
#133 = MECHANICAL_DESIGN_GEOMETRIC_PRESENTATION_REPRESENTATION (  '', ( #195 ), #332 ) ;
#134 = CARTESIAN_POINT ( 'NONE',  ( 0.000000000000000000, 0.4375000000000000000, 0.000000000000000000 ) ) ;
#135 = SURFACE_SIDE_STYLE ('',( #85 ) ) ;
#136 = LENGTH_MEASURE_WITH_UNIT ( LENGTH_MEASURE( 0.02539999999999999897 ), #114 );
#137 = DIRECTION ( 'NONE',  ( -0.000000000000000000, -1.000000000000000000, -0.000000000000000000 ) ) ;
#138 = CIRCLE ( 'NONE', #172, 0.1093499999999999889 ) ;
#139 = AXIS2_PLACEMENT_3D ( 'NONE', #209, #12, #42 ) ;
#140 = DIMENSIONAL_EXPONENTS ( 1.000000000000000000, 0.000000000000000000, 0.000000000000000000, 0.000000000000000000, 0.000000000000000000, 0.000000000000000000, 0.000000000000000000 ) ;
#141 = DIRECTION ( 'NONE',  ( -0.000000000000000000, -1.000000000000000000, -0.000000000000000000 ) ) ;
#142 = AXIS2_PLACEMENT_3D ( 'NONE', #276, #341, #243 ) ;
#143 = ADVANCED_FACE ( 'NONE', ( #199 ), #167, .T. ) ;
#144 = PRODUCT_DEFINITION_CONTEXT ( 'detailed design', #31, 'design' ) ;
#145 =( NAMED_UNIT ( * ) PLANE_ANGLE_UNIT ( ) SI_UNIT ( $, .RADIAN. ) );
#146 =( LENGTH_UNIT ( ) NAMED_UNIT ( * ) SI_UNIT ( $, .METRE. ) );
#147 = ORIENTED_EDGE ( 'NONE', *, *, #32, .T. ) ;
#148 = DIRECTION ( 'NONE',  ( 0.000000000000000000, -0.000000000000000000, 1.000000000000000000 ) ) ;
#149 = ADVANCED_FACE ( 'NONE', ( #309 ), #345, .F. ) ;
#150 = EDGE_LOOP ( 'NONE', ( #253, #310, #11, #153 ) ) ;
#151 = COLOUR_RGB ( '',1.000000000000000000, 0.000000000000000000, 0.000000000000000000 ) ;
#152 = CARTESIAN_POINT ( 'NONE',  ( 0.000000000000000000, 0.4375000000000000000, 0.000000000000000000 ) ) ;
#153 = ORIENTED_EDGE ( 'NONE', *, *, #226, .F. ) ;
#154 = PRESENTATION_STYLE_ASSIGNMENT (( #10 ) ) ;
#155 = EDGE_LOOP ( 'NONE', ( #126, #343, #169, #7 ) ) ;
#156 = CARTESIAN_POINT ( 'NONE',  ( 0.000000000000000000, 0.000000000000000000, 0.000000000000000000 ) ) ;
#157 = FILL_AREA_STYLE_COLOUR ( '', #274 ) ;
#158 = COLOUR_RGB ( '',1.000000000000000000, 0.000000000000000000, 0.000000000000000000 ) ;
#159 = PRODUCT_RELATED_PRODUCT_CATEGORY ( 'part', '', ( #120 ) ) ;
#160 = CARTESIAN_POINT ( 'NONE',  ( -6.123233995736766036E-17, 2.500000000000000000, 0.000000000000000000 ) ) ;
#161 = FACE_OUTER_BOUND ( 'NONE', #210, .T. ) ;
#162 = CARTESIAN_POINT ( 'NONE',  ( 0.000000000000000000, 0.000000000000000000, 0.000000000000000000 ) ) ;
#163 =( LENGTH_UNIT ( ) NAMED_UNIT ( * ) SI_UNIT ( $, .METRE. ) );
#164 = CIRCLE ( 'NONE', #173, 0.1093500000000000028 ) ;
#165 = CARTESIAN_POINT ( 'NONE',  ( 0.000000000000000000, 0.4375000000000000000, 0.000000000000000000 ) ) ;
#166 = CLOSED_SHELL ( 'NONE', ( #319, #143, #24, #8 ) ) ;
#167 = PLANE ( 'NONE',  #256 ) ;
#168 = AXIS2_PLACEMENT_3D ( 'NONE', #303, #235, #265 ) ;
#169 = ORIENTED_EDGE ( 'NONE', *, *, #217, .T. ) ;
#170 = CARTESIAN_POINT ( 'NONE',  ( 0.1249999999999999445, 2.500000000000000000, 1.530808498934191509E-17 ) ) ;
#171 = DIRECTION ( 'NONE',  ( -2.968840725205704707E-17, 1.000000000000000000, -0.000000000000000000 ) ) ;
#172 = AXIS2_PLACEMENT_3D ( 'NONE', #134, #213, #53 ) ;
#173 = AXIS2_PLACEMENT_3D ( 'NONE', #175, #347, #204 ) ;
#174 = ORIENTED_EDGE ( 'NONE', *, *, #37, .T. ) ;
#175 = CARTESIAN_POINT ( 'NONE',  ( 0.000000000000000000, 0.000000000000000000, 0.000000000000000000 ) ) ;
#176 = EDGE_LOOP ( 'NONE', ( #313, #36, #354, #178 ) ) ;
#177 =( NAMED_UNIT ( * ) SI_UNIT ( $, .STERADIAN. ) SOLID_ANGLE_UNIT ( ) );
#178 = ORIENTED_EDGE ( 'NONE', *, *, #329, .F. ) ;
#179 = DIRECTION ( 'NONE',  ( -2.968840725205704707E-17, 1.000000000000000000, -0.000000000000000000 ) ) ;
#180 = ORIENTED_EDGE ( 'NONE', *, *, #187, .F. ) ;
#181 = MECHANICAL_DESIGN_GEOMETRIC_PRESENTATION_REPRESENTATION (  '', ( #216 ), #294 ) ;
#182 = VECTOR ( 'NONE', #171, 39.37007874015748143 ) ;
#183 = DIRECTION ( 'NONE',  ( -1.000000000000000000, 0.000000000000000000, 0.000000000000000000 ) ) ;
#184 = EDGE_CURVE ( 'NONE', #346, #132, #201, .T. ) ;
#185 =( NAMED_UNIT ( * ) SI_UNIT ( $, .STERADIAN. ) SOLID_ANGLE_UNIT ( ) );
#186 = FACE_OUTER_BOUND ( 'NONE', #73, .T. ) ;
#187 = EDGE_CURVE ( 'NONE', #351, #117, #129, .T. ) ;
#188 = LENGTH_MEASURE_WITH_UNIT ( LENGTH_MEASURE( 0.02539999999999999897 ), #23 );
#189 = AXIS2_PLACEMENT_3D ( 'NONE', #239, #214, #215 ) ;
#190 = CARTESIAN_POINT ( 'NONE',  ( 1.339151274867630478E-17, 0.4375000000000000000, 0.1093499999999999889 ) ) ;
#191 =( NAMED_UNIT ( * ) SI_UNIT ( $, .STERADIAN. ) SOLID_ANGLE_UNIT ( ) );
#192 = ADVANCED_FACE ( 'NONE', ( #342 ), #259, .T. ) ;
#193 = LINE ( 'NONE', #281, #305 ) ;
#194 = DIRECTION ( 'NONE',  ( -2.968840725205704707E-17, 1.000000000000000000, -0.000000000000000000 ) ) ;
#195 = STYLED_ITEM ( 'NONE', ( #154 ), #319 ) ;
#196 = SURFACE_STYLE_FILL_AREA ( #87 ) ;
#197 = PRODUCT_DEFINITION_SHAPE ( 'NONE', 'NONE',  #123 ) ;
#198 = UNCERTAINTY_MEASURE_WITH_UNIT (LENGTH_MEASURE( 1.000000000000000082E-05 ), #90, 'distance_accuracy_value', 'NONE');
#199 = FACE_OUTER_BOUND ( 'NONE', #236, .T. ) ;
#200 = AXIS2_PLACEMENT_3D ( 'NONE', #165, #141, #1 ) ;
#201 = CIRCLE ( 'NONE', #45, 0.1093499999999999889 ) ;
#202 = ADVANCED_FACE ( 'NONE', ( #13 ), #297, .T. ) ;
#203 = CYLINDRICAL_SURFACE ( 'NONE', #38, 0.1093499999999999889 ) ;
#204 = DIRECTION ( 'NONE',  ( 0.000000000000000000, 0.000000000000000000, -1.000000000000000000 ) ) ;
#205 = CLOSED_SHELL ( 'NONE', ( #97, #59, #333, #202, #192, #149 ) ) ;
#206 = CARTESIAN_POINT ( 'NONE',  ( 0.1093499999999999889, 0.4374999999999998890, 1.339151274867630478E-17 ) ) ;
#207 = ORIENTED_EDGE ( 'NONE', *, *, #322, .F. ) ;
#208 = EDGE_LOOP ( 'NONE', ( #237, #43 ) ) ;
#209 = CARTESIAN_POINT ( 'NONE',  ( 0.000000000000000000, 0.000000000000000000, 0.000000000000000000 ) ) ;
#210 = EDGE_LOOP ( 'NONE', ( #66, #71 ) ) ;
#211 = PRESENTATION_LAYER_ASSIGNMENT (  '', '', ( #81 ) ) ;
#212 = PRESENTATION_LAYER_ASSIGNMENT (  '', '', ( #67 ) ) ;
#213 = DIRECTION ( 'NONE',  ( -0.000000000000000000, -1.000000000000000000, -0.000000000000000000 ) ) ;
#214 = DIRECTION ( 'NONE',  ( -2.968840725205704707E-17, 1.000000000000000000, -0.000000000000000000 ) ) ;
#215 = DIRECTION ( 'NONE',  ( -1.000000000000000000, 0.000000000000000000, 0.000000000000000000 ) ) ;
#216 = STYLED_ITEM ( 'NONE', ( #275 ), #24 ) ;
#217 = EDGE_CURVE ( 'NONE', #346, #230, #122, .T. ) ;
#218 = DIRECTION ( 'NONE',  ( -1.000000000000000000, 0.000000000000000000, 0.000000000000000000 ) ) ;
#219 =( NAMED_UNIT ( * ) PLANE_ANGLE_UNIT ( ) SI_UNIT ( $, .RADIAN. ) );
#220 = DIRECTION ( 'NONE',  ( -1.000000000000000000, 0.000000000000000000, 0.000000000000000000 ) ) ;
#221 = DIMENSIONAL_EXPONENTS ( 1.000000000000000000, 0.000000000000000000, 0.000000000000000000, 0.000000000000000000, 0.000000000000000000, 0.000000000000000000, 0.000000000000000000 ) ;
#222 = SURFACE_SIDE_STYLE ('',( #338 ) ) ;
#223 = AXIS2_PLACEMENT_3D ( 'NONE', #263, #69, #314 ) ;
#224 = UNCERTAINTY_MEASURE_WITH_UNIT (LENGTH_MEASURE( 1.000000000000000082E-05 ), #119, 'distance_accuracy_value', 'NONE');
#225 =( LENGTH_UNIT ( ) NAMED_UNIT ( * ) SI_UNIT ( $, .METRE. ) );
#226 = EDGE_CURVE ( 'NONE', #107, #130, #111, .T. ) ;
#227 = AXIS2_PLACEMENT_3D ( 'NONE', #318, #84, #220 ) ;
#228 = SURFACE_STYLE_USAGE ( .BOTH. , #222 ) ;
#229 = DIRECTION ( 'NONE',  ( 0.3420201433256699342, 0.9396926207859079838, 4.188538737677007172E-17 ) ) ;
#230 = VERTEX_POINT ( 'NONE', #95 ) ;
#231 = MECHANICAL_DESIGN_GEOMETRIC_PRESENTATION_REPRESENTATION (  '', ( #4 ), #74 ) ;
#232 = PRESENTATION_LAYER_ASSIGNMENT (  '', '', ( #195 ) ) ;
#233 = VERTEX_POINT ( 'NONE', #46 ) ;
#234 = DIRECTION ( 'NONE',  ( 0.000000000000000000, 1.000000000000000000, 0.000000000000000000 ) ) ;
#235 = DIRECTION ( 'NONE',  ( 2.968840725205704707E-17, -1.000000000000000000, 0.000000000000000000 ) ) ;
#236 = EDGE_LOOP ( 'NONE', ( #336, #285 ) ) ;
#237 = ORIENTED_EDGE ( 'NONE', *, *, #277, .T. ) ;
#238 = SURFACE_STYLE_FILL_AREA ( #242 ) ;
#239 = CARTESIAN_POINT ( 'NONE',  ( 7.582401355855259480E-33, 0.4374999999999998890, 0.000000000000000000 ) ) ;
#240 = CARTESIAN_POINT ( 'NONE',  ( -0.1093499999999999889, 0.4374999999999998890, 0.000000000000000000 ) ) ;
#241 = CARTESIAN_POINT ( 'NONE',  ( -6.123233995736766036E-17, 2.500000000000000000, 0.000000000000000000 ) ) ;
#242 = FILL_AREA_STYLE ('',( #269 ) ) ;
#243 = DIRECTION ( 'NONE',  ( 1.000000000000000000, 0.000000000000000000, 0.000000000000000000 ) ) ;
#244 = DIRECTION ( 'NONE',  ( -2.968840725205704707E-17, 1.000000000000000000, -0.000000000000000000 ) ) ;
#245 = CONICAL_SURFACE ( 'NONE', #189, 0.1093499999999999889, 0.3490658503988672279 ) ;
#246 =( CONVERSION_BASED_UNIT ( 'INCH', #108 ) LENGTH_UNIT ( ) NAMED_UNIT ( #140 ) );
#247 = CARTESIAN_POINT ( 'NONE',  ( 0.000000000000000000, 0.000000000000000000, 0.000000000000000000 ) ) ;
#248 = FACE_OUTER_BOUND ( 'NONE', #150, .T. ) ;
#249 =( NAMED_UNIT ( * ) SI_UNIT ( $, .STERADIAN. ) SOLID_ANGLE_UNIT ( ) );
#250 = CIRCLE ( 'NONE', #200, 0.1093499999999999889 ) ;
#251 = CARTESIAN_POINT ( 'NONE',  ( 0.1093499999999999889, 0.4374999999999998890, 1.434979886900910686E-17 ) ) ;
#252 = EDGE_LOOP ( 'NONE', ( #180, #147, #91, #101 ) ) ;
#253 = ORIENTED_EDGE ( 'NONE', *, *, #83, .F. ) ;
#254 = AXIS2_PLACEMENT_3D ( 'NONE', #162, #80, #295 ) ;
#255 = LENGTH_MEASURE_WITH_UNIT ( LENGTH_MEASURE( 0.02539999999999999897 ), #61 );
#256 = AXIS2_PLACEMENT_3D ( 'NONE', #152, #234, #148 ) ;
#257 = DIMENSIONAL_EXPONENTS ( 1.000000000000000000, 0.000000000000000000, 0.000000000000000000, 0.000000000000000000, 0.000000000000000000, 0.000000000000000000, 0.000000000000000000 ) ;
#258 = ADVANCED_BREP_SHAPE_REPRESENTATION ( '30122', ( #349, #113, #142 ), #99 ) ;
#259 = CYLINDRICAL_SURFACE ( 'NONE', #316, 0.1249999999999999584 ) ;
#260 = EDGE_CURVE ( 'NONE', #130, #107, #164, .T. ) ;
#261 = CARTESIAN_POINT ( 'NONE',  ( -6.123233995736766036E-17, 2.500000000000000000, 0.000000000000000000 ) ) ;
#262 = PLANE ( 'NONE',  #254 ) ;
#263 = CARTESIAN_POINT ( 'NONE',  ( -6.123233995736766036E-17, 2.500000000000000000, 0.000000000000000000 ) ) ;
#264 = SURFACE_STYLE_USAGE ( .BOTH. , #17 ) ;
#265 = DIRECTION ( 'NONE',  ( 1.000000000000000000, 2.968840725205704707E-17, 0.000000000000000000 ) ) ;
#266 = ORIENTED_EDGE ( 'NONE', *, *, #118, .F. ) ;
#267 = CARTESIAN_POINT ( 'NONE',  ( -0.1250000000000000278, 2.500000000000000000, 0.000000000000000000 ) ) ;
#268 = ORIENTED_EDGE ( 'NONE', *, *, #226, .T. ) ;
#269 = FILL_AREA_STYLE_COLOUR ( '', #92 ) ;
#270 =( GEOMETRIC_REPRESENTATION_CONTEXT ( 3 ) GLOBAL_UNCERTAINTY_ASSIGNED_CONTEXT ( ( #224 ) ) GLOBAL_UNIT_ASSIGNED_CONTEXT ( ( #119, #60, #249 ) ) REPRESENTATION_CONTEXT ( 'NONE', 'WORKASPACE' ) );
#271 = CIRCLE ( 'NONE', #223, 0.1250000000000000000 ) ;
#272 = CARTESIAN_POINT ( 'NONE',  ( 7.582401355855259480E-33, 0.4374999999999998890, 0.000000000000000000 ) ) ;
#273 = CARTESIAN_POINT ( 'NONE',  ( 1.339151274867630478E-17, 0.000000000000000000, 0.1093499999999999889 ) ) ;
#274 = COLOUR_RGB ( '',1.000000000000000000, 0.000000000000000000, 0.000000000000000000 ) ;
#275 = PRESENTATION_STYLE_ASSIGNMENT (( #359 ) ) ;
#276 = CARTESIAN_POINT ( 'NONE',  ( 0.000000000000000000, 0.000000000000000000, 0.000000000000000000 ) ) ;
#277 = EDGE_CURVE ( 'NONE', #64, #117, #271, .T. ) ;
#278 =( NAMED_UNIT ( * ) PLANE_ANGLE_UNIT ( ) SI_UNIT ( $, .RADIAN. ) );
#279 = ORIENTED_EDGE ( 'NONE', *, *, #260, .T. ) ;
#280 = PRESENTATION_STYLE_ASSIGNMENT (( #228 ) ) ;
#281 = CARTESIAN_POINT ( 'NONE',  ( 0.000000000000000000, 0.000000000000000000, -0.1093499999999999889 ) ) ;
#282 = PRODUCT_DEFINITION_FORMATION_WITH_SPECIFIED_SOURCE ( 'ANY', '', #120, .NOT_KNOWN. ) ;
#283 = FACE_OUTER_BOUND ( 'NONE', #304, .T. ) ;
#284 = FILL_AREA_STYLE ('',( #125 ) ) ;
#285 = ORIENTED_EDGE ( 'NONE', *, *, #49, .F. ) ;
#286 = ORIENTED_EDGE ( 'NONE', *, *, #311, .T. ) ;
#287 = CARTESIAN_POINT ( 'NONE',  ( 7.582401355855259480E-33, 0.4374999999999998890, 0.000000000000000000 ) ) ;
#288 = SURFACE_STYLE_FILL_AREA ( #284 ) ;
#289 = ORIENTED_EDGE ( 'NONE', *, *, #260, .F. ) ;
#290 = DIRECTION ( 'NONE',  ( -1.000000000000000000, -2.968840725205704707E-17, 0.000000000000000000 ) ) ;
#291 = CARTESIAN_POINT ( 'NONE',  ( -0.1250000000000000555, 2.500000000000000000, 0.000000000000000000 ) ) ;
#292 = PRESENTATION_STYLE_ASSIGNMENT (( #131 ) ) ;
#293 = DIRECTION ( 'NONE',  ( -0.000000000000000000, -1.000000000000000000, -0.000000000000000000 ) ) ;
#294 =( GEOMETRIC_REPRESENTATION_CONTEXT ( 3 ) GLOBAL_UNCERTAINTY_ASSIGNED_CONTEXT ( ( #2 ) ) GLOBAL_UNIT_ASSIGNED_CONTEXT ( ( #54, #27, #296 ) ) REPRESENTATION_CONTEXT ( 'NONE', 'WORKASPACE' ) );
#295 = DIRECTION ( 'NONE',  ( 0.000000000000000000, 0.000000000000000000, -1.000000000000000000 ) ) ;
#296 =( NAMED_UNIT ( * ) SI_UNIT ( $, .STERADIAN. ) SOLID_ANGLE_UNIT ( ) );
#297 = CONICAL_SURFACE ( 'NONE', #326, 0.1093499999999999889, 0.3490658503988672279 ) ;
#298 = SURFACE_SIDE_STYLE ('',( #196 ) ) ;
#299 = FILL_AREA_STYLE ('',( #34 ) ) ;
#300 = MECHANICAL_DESIGN_GEOMETRIC_PRESENTATION_REPRESENTATION (  '', ( #81 ), #127 ) ;
#301 = AXIS2_PLACEMENT_3D ( 'NONE', #79, #22, #290 ) ;
#302 = DIMENSIONAL_EXPONENTS ( 1.000000000000000000, 0.000000000000000000, 0.000000000000000000, 0.000000000000000000, 0.000000000000000000, 0.000000000000000000, 0.000000000000000000 ) ;
#303 = CARTESIAN_POINT ( 'NONE',  ( 0.1249999999999999306, 2.500000000000000000, 0.000000000000000000 ) ) ;
#304 = EDGE_LOOP ( 'NONE', ( #279, #268 ) ) ;
#305 = VECTOR ( 'NONE', #334, 39.37007874015748143 ) ;
#306 = CARTESIAN_POINT ( 'NONE',  ( 7.582401355855259480E-33, 0.4374999999999998890, 0.000000000000000000 ) ) ;
#307 = ORIENTED_EDGE ( 'NONE', *, *, #83, .T. ) ;
#308 = UNCERTAINTY_MEASURE_WITH_UNIT (LENGTH_MEASURE( 1.000000000000000082E-05 ), #96, 'distance_accuracy_value', 'NONE');
#309 = FACE_OUTER_BOUND ( 'NONE', #208, .T. ) ;
#310 = ORIENTED_EDGE ( 'NONE', *, *, #49, .T. ) ;
#311 = EDGE_CURVE ( 'NONE', #132, #351, #75, .T. ) ;
#312 = DIRECTION ( 'NONE',  ( -2.968840725205704707E-17, 1.000000000000000000, -0.000000000000000000 ) ) ;
#313 = ORIENTED_EDGE ( 'NONE', *, *, #322, .T. ) ;
#314 = DIRECTION ( 'NONE',  ( -1.000000000000000000, 0.000000000000000000, 0.000000000000000000 ) ) ;
#315 = AXIS2_PLACEMENT_3D ( 'NONE', #241, #244, #357 ) ;
#316 = AXIS2_PLACEMENT_3D ( 'NONE', #261, #179, #100 ) ;
#317 = FILL_AREA_STYLE_COLOUR ( '', #151 ) ;
#318 = CARTESIAN_POINT ( 'NONE',  ( -1.276542776722964990E-18, 0.4804980216144644212, 0.000000000000000000 ) ) ;
#319 = ADVANCED_FACE ( 'NONE', ( #70 ), #203, .T. ) ;
#320 =( CONVERSION_BASED_UNIT ( 'INCH', #136 ) LENGTH_UNIT ( ) NAMED_UNIT ( #302 ) );
#321 = FACE_OUTER_BOUND ( 'NONE', #176, .T. ) ;
#322 = EDGE_CURVE ( 'NONE', #230, #351, #5, .T. ) ;
#323 = SHAPE_DEFINITION_REPRESENTATION ( #197, #258 ) ;
#324 = DIRECTION ( 'NONE',  ( 0.000000000000000000, 0.000000000000000000, -1.000000000000000000 ) ) ;
#325 = CARTESIAN_POINT ( 'NONE',  ( 1.339151274867630941E-17, 0.000000000000000000, 0.1093500000000000028 ) ) ;
#326 = AXIS2_PLACEMENT_3D ( 'NONE', #287, #312, #183 ) ;
#327 = SURFACE_SIDE_STYLE ('',( #238 ) ) ;
#328 = CYLINDRICAL_SURFACE ( 'NONE', #88, 0.1093499999999999889 ) ;
#329 = EDGE_CURVE ( 'NONE', #230, #64, #19, .T. ) ;
#330 = FILL_AREA_STYLE_COLOUR ( '', #158 ) ;
#331 = PRESENTATION_LAYER_ASSIGNMENT (  '', '', ( #105 ) ) ;
#332 =( GEOMETRIC_REPRESENTATION_CONTEXT ( 3 ) GLOBAL_UNCERTAINTY_ASSIGNED_CONTEXT ( ( #33 ) ) GLOBAL_UNIT_ASSIGNED_CONTEXT ( ( #65, #145, #185 ) ) REPRESENTATION_CONTEXT ( 'NONE', 'WORKASPACE' ) );
#333 = ADVANCED_FACE ( 'NONE', ( #161 ), #77, .F. ) ;
#334 = DIRECTION ( 'NONE',  ( -0.000000000000000000, -1.000000000000000000, -0.000000000000000000 ) ) ;
#335 = CARTESIAN_POINT ( 'NONE',  ( 0.000000000000000000, 0.000000000000000000, -0.1093500000000000028 ) ) ;
#336 = ORIENTED_EDGE ( 'NONE', *, *, #37, .F. ) ;
#337 = PRESENTATION_LAYER_ASSIGNMENT (  '', '', ( #216 ) ) ;
#338 = SURFACE_STYLE_FILL_AREA ( #299 ) ;
#339 = LENGTH_MEASURE_WITH_UNIT ( LENGTH_MEASURE( 0.02539999999999999897 ), #39 );
#340 = DIMENSIONAL_EXPONENTS ( 1.000000000000000000, 0.000000000000000000, 0.000000000000000000, 0.000000000000000000, 0.000000000000000000, 0.000000000000000000, 0.000000000000000000 ) ;
#341 = DIRECTION ( 'NONE',  ( 0.000000000000000000, 0.000000000000000000, 1.000000000000000000 ) ) ;
#342 = FACE_OUTER_BOUND ( 'NONE', #252, .T. ) ;
#343 = ORIENTED_EDGE ( 'NONE', *, *, #41, .T. ) ;
#344 = CIRCLE ( 'NONE', #86, 0.1093499999999999889 ) ;
#345 = PLANE ( 'NONE',  #168 ) ;
#346 = VERTEX_POINT ( 'NONE', #240 ) ;
#347 = DIRECTION ( 'NONE',  ( -0.000000000000000000, -1.000000000000000000, -0.000000000000000000 ) ) ;
#348 =( NAMED_UNIT ( * ) PLANE_ANGLE_UNIT ( ) SI_UNIT ( $, .RADIAN. ) );
#349 = MANIFOLD_SOLID_BREP ( 'Revolve - Cutting Edge', #166 ) ;
#350 = CARTESIAN_POINT ( 'NONE',  ( 0.1249999999999999029, 2.500000000000000000, 1.530808498934191201E-17 ) ) ;
#351 = VERTEX_POINT ( 'NONE', #26 ) ;
#352 = CARTESIAN_POINT ( 'NONE',  ( -1.276542776722964990E-18, 0.4804980216144644212, 0.000000000000000000 ) ) ;
#353 = VECTOR ( 'NONE', #52, 39.37007874015748143 ) ;
#354 = ORIENTED_EDGE ( 'NONE', *, *, #277, .F. ) ;
#355 = APPLICATION_PROTOCOL_DEFINITION ( 'draft international standard', 'automotive_design', 1998, #89 ) ;
#356 = DIRECTION ( 'NONE',  ( 0.000000000000000000, 0.000000000000000000, -1.000000000000000000 ) ) ;
#357 = DIRECTION ( 'NONE',  ( -1.000000000000000000, 0.000000000000000000, 0.000000000000000000 ) ) ;
#358 = AXIS2_PLACEMENT_3D ( 'NONE', #160, #56, #82 ) ;
#359 = SURFACE_STYLE_USAGE ( .BOTH. , #135 ) ;
ENDSEC;
END-ISO-10303-21;
