ISO-10303-21;
HEADER;
FILE_DESCRIPTION (( 'STEP AP214' ),
    '1' );
FILE_NAME ('Micro_RNCM-080-1.STEP',
    '2021-09-03T17:42:15',
    ( '' ),
    ( '' ),
    'SwSTEP 2.0',
    'SolidWorks 2020',
    '' );
FILE_SCHEMA (( 'AUTOMOTIVE_DESIGN' ));
ENDSEC;

DATA;
#1 = ORIENTED_EDGE ( 'NONE', *, *, #220, .F. ) ;
#2 =( GEOMETRIC_REPRESENTATION_CONTEXT ( 3 ) GLOBAL_UNCERTAINTY_ASSIGNED_CONTEXT ( ( #62 ) ) GLOBAL_UNIT_ASSIGNED_CONTEXT ( ( #222, #57, #125 ) ) REPRESENTATION_CONTEXT ( 'NONE', 'WORKASPACE' ) );
#3 = AXIS2_PLACEMENT_3D ( 'NONE', #73, #164, #113 ) ;
#4 = ORIENTED_EDGE ( 'NONE', *, *, #70, .T. ) ;
#5 = AXIS2_PLACEMENT_3D ( 'NONE', #55, #35, #165 ) ;
#6 = CARTESIAN_POINT ( 'NONE',  ( 0.003936999999999995191, 0.0000000000000000000, 0.0000000000000000000 ) ) ;
#7 = AXIS2_PLACEMENT_3D ( 'NONE', #233, #191, #96 ) ;
#8 = ORIENTED_EDGE ( 'NONE', *, *, #143, .T. ) ;
#9 = EDGE_CURVE ( 'NONE', #51, #153, #82, .T. ) ;
#10 = CARTESIAN_POINT ( 'NONE',  ( -0.003936999999999995191, 4.821434448243123477E-19, 0.0000000000000000000 ) ) ;
#11 = ORIENTED_EDGE ( 'NONE', *, *, #177, .F. ) ;
#12 = CARTESIAN_POINT ( 'NONE',  ( -0.1574804999999999955, 0.0000000000000000000, 0.1535434999999993610 ) ) ;
#13 = EDGE_CURVE ( 'NONE', #23, #112, #161, .T. ) ;
#14 = MECHANICAL_DESIGN_GEOMETRIC_PRESENTATION_REPRESENTATION (  '', ( #176 ), #2 ) ;
#15 = DIRECTION ( 'NONE',  ( 0.0000000000000000000, 0.0000000000000000000, -1.000000000000000000 ) ) ;
#16 = LINE ( 'NONE', #76, #139 ) ;
#17 = ORIENTED_EDGE ( 'NONE', *, *, #120, .F. ) ;
#18 = EDGE_LOOP ( 'NONE', ( #11, #224, #91, #178 ) ) ;
#19 = DIRECTION ( 'NONE',  ( -0.0000000000000000000, -0.0000000000000000000, -1.000000000000000000 ) ) ;
#20 = PRODUCT_DEFINITION ( 'UNKNOWN', '', #133, #238 ) ;
#21 = AXIS2_PLACEMENT_3D ( 'NONE', #147, #148, #108 ) ;
#22 = CYLINDRICAL_SURFACE ( 'NONE', #30, 0.1574804999999999955 ) ;
#23 = VERTEX_POINT ( 'NONE', #80 ) ;
#24 = DIRECTION ( 'NONE',  ( 1.000000000000000000, 0.0000000000000000000, 0.0000000000000000000 ) ) ;
#25 = FILL_AREA_STYLE ('',( #142 ) ) ;
#26 = CIRCLE ( 'NONE', #74, 0.003936999999999995191 ) ;
#27 = CYLINDRICAL_SURFACE ( 'NONE', #5, 0.1574804999999999955 ) ;
#28 = FACE_OUTER_BOUND ( 'NONE', #18, .T. ) ;
#29 = FILL_AREA_STYLE ('',( #69 ) ) ;
#30 = AXIS2_PLACEMENT_3D ( 'NONE', #61, #184, #138 ) ;
#31 = CARTESIAN_POINT ( 'NONE',  ( 0.0000000000000000000, 0.0000000000000000000, 0.0000000000000000000 ) ) ;
#32 = CARTESIAN_POINT ( 'NONE',  ( -0.1424804999999990940, 0.0000000000000000000, 2.480315000000000047 ) ) ;
#33 = ADVANCED_FACE ( 'NONE', ( #205 ), #27, .T. ) ;
#34 = ORIENTED_EDGE ( 'NONE', *, *, #201, .F. ) ;
#35 = DIRECTION ( 'NONE',  ( -0.0000000000000000000, -0.0000000000000000000, -1.000000000000000000 ) ) ;
#36 = AXIS2_PLACEMENT_3D ( 'NONE', #135, #155, #207 ) ;
#37 = AXIS2_PLACEMENT_3D ( 'NONE', #244, #167, #170 ) ;
#38 = PRODUCT ( 'Micro_RNCM-080-1', 'Micro_RNCM-080-1', '', ( #72 ) ) ;
#39 =( GEOMETRIC_REPRESENTATION_CONTEXT ( 3 ) GLOBAL_UNCERTAINTY_ASSIGNED_CONTEXT ( ( #219 ) ) GLOBAL_UNIT_ASSIGNED_CONTEXT ( ( #68, #85, #45 ) ) REPRESENTATION_CONTEXT ( 'NONE', 'WORKASPACE' ) );
#40 = EDGE_CURVE ( 'NONE', #227, #112, #121, .T. ) ;
#41 = ADVANCED_FACE ( 'NONE', ( #75 ), #151, .T. ) ;
#42 = AXIS2_PLACEMENT_3D ( 'NONE', #214, #232, #249 ) ;
#43 =( LENGTH_UNIT ( ) NAMED_UNIT ( * ) SI_UNIT ( $, .METRE. ) );
#44 = PRODUCT_RELATED_PRODUCT_CATEGORY ( 'part', '', ( #38 ) ) ;
#45 =( NAMED_UNIT ( * ) SI_UNIT ( $, .STERADIAN. ) SOLID_ANGLE_UNIT ( ) );
#46 = FACE_OUTER_BOUND ( 'NONE', #162, .T. ) ;
#47 = ORIENTED_EDGE ( 'NONE', *, *, #58, .T. ) ;
#48 = ADVANCED_FACE ( 'NONE', ( #28 ), #218, .T. ) ;
#49 = VERTEX_POINT ( 'NONE', #247 ) ;
#50 = DIRECTION ( 'NONE',  ( 0.0000000000000000000, 0.0000000000000000000, -1.000000000000000000 ) ) ;
#51 = VERTEX_POINT ( 'NONE', #137 ) ;
#52 = ADVANCED_FACE ( 'NONE', ( #209 ), #87, .T. ) ;
#53 = CARTESIAN_POINT ( 'NONE',  ( 0.0000000000000000000, 0.0000000000000000000, 2.480315000000000047 ) ) ;
#54 = ORIENTED_EDGE ( 'NONE', *, *, #237, .T. ) ;
#55 = CARTESIAN_POINT ( 'NONE',  ( 0.0000000000000000000, 0.0000000000000000000, 2.480315000000000047 ) ) ;
#56 = APPLICATION_PROTOCOL_DEFINITION ( 'draft international standard', 'automotive_design', 1998, #123 ) ;
#57 =( NAMED_UNIT ( * ) PLANE_ANGLE_UNIT ( ) SI_UNIT ( $, .RADIAN. ) );
#58 = EDGE_CURVE ( 'NONE', #153, #51, #122, .T. ) ;
#59 = CIRCLE ( 'NONE', #37, 0.003936999999999995191 ) ;
#60 = ORIENTED_EDGE ( 'NONE', *, *, #216, .F. ) ;
#61 = CARTESIAN_POINT ( 'NONE',  ( 0.0000000000000000000, 0.0000000000000000000, 2.480315000000000047 ) ) ;
#62 = UNCERTAINTY_MEASURE_WITH_UNIT (LENGTH_MEASURE( 1.000000000000000082E-05 ), #222, 'distance_accuracy_value', 'NONE');
#63 = ADVANCED_FACE ( 'NONE', ( #66 ), #22, .T. ) ;
#64 = LENGTH_MEASURE_WITH_UNIT ( LENGTH_MEASURE( 0.02539999999999999897 ), #86 );
#65 = CIRCLE ( 'NONE', #110, 0.1424804999999990940 ) ;
#66 = FACE_OUTER_BOUND ( 'NONE', #93, .T. ) ;
#67 = SURFACE_STYLE_USAGE ( .BOTH. , #202 ) ;
#68 =( CONVERSION_BASED_UNIT ( 'INCH', #198 ) LENGTH_UNIT ( ) NAMED_UNIT ( #199 ) );
#69 = FILL_AREA_STYLE_COLOUR ( '', #150 ) ;
#70 = EDGE_CURVE ( 'NONE', #243, #49, #26, .T. ) ;
#71 = ORIENTED_EDGE ( 'NONE', *, *, #201, .T. ) ;
#72 = PRODUCT_CONTEXT ( 'NONE', #193, 'mechanical' ) ;
#73 = CARTESIAN_POINT ( 'NONE',  ( 0.0000000000000000000, 0.0000000000000000000, 2.480315000000000047 ) ) ;
#74 = AXIS2_PLACEMENT_3D ( 'NONE', #206, #228, #211 ) ;
#75 = FACE_OUTER_BOUND ( 'NONE', #156, .T. ) ;
#76 = CARTESIAN_POINT ( 'NONE',  ( -0.1424804999999990940, 0.0000000000000000000, 2.480315000000000047 ) ) ;
#77 = ORIENTED_EDGE ( 'NONE', *, *, #143, .F. ) ;
#78 = CARTESIAN_POINT ( 'NONE',  ( -0.1574804999999999955, 0.0000000000000000000, 2.480315000000000047 ) ) ;
#79 = DIRECTION ( 'NONE',  ( 0.0000000000000000000, 0.0000000000000000000, -1.000000000000000000 ) ) ;
#80 = CARTESIAN_POINT ( 'NONE',  ( -0.1574804999999999955, 0.0000000000000000000, 2.465314999999999923 ) ) ;
#81 = DIRECTION ( 'NONE',  ( -1.000000000000000000, 0.0000000000000000000, 0.0000000000000000000 ) ) ;
#82 = CIRCLE ( 'NONE', #42, 0.1574804999999999955 ) ;
#83 = ORIENTED_EDGE ( 'NONE', *, *, #216, .T. ) ;
#84 = PRESENTATION_LAYER_ASSIGNMENT (  '', '', ( #182 ) ) ;
#85 =( NAMED_UNIT ( * ) PLANE_ANGLE_UNIT ( ) SI_UNIT ( $, .RADIAN. ) );
#86 =( LENGTH_UNIT ( ) NAMED_UNIT ( * ) SI_UNIT ( $, .METRE. ) );
#87 = CONICAL_SURFACE ( 'NONE', #116, 0.003936999999999995191, 0.7853981633974503884 ) ;
#88 = DIRECTION ( 'NONE',  ( 1.000000000000000000, 0.0000000000000000000, 0.0000000000000000000 ) ) ;
#89 = CARTESIAN_POINT ( 'NONE',  ( 0.0000000000000000000, 0.0000000000000000000, 2.465314999999999923 ) ) ;
#90 = DIRECTION ( 'NONE',  ( -0.7071067811865490160, 8.659560562354951347E-17, 0.7071067811865460184 ) ) ;
#91 = ORIENTED_EDGE ( 'NONE', *, *, #13, .F. ) ;
#92 = VECTOR ( 'NONE', #134, 39.37007874015748143 ) ;
#93 = EDGE_LOOP ( 'NONE', ( #213, #71, #189, #77 ) ) ;
#94 = CARTESIAN_POINT ( 'NONE',  ( 0.1574804999999999955, 1.928579902531247412E-17, 2.480315000000000047 ) ) ;
#95 = ORIENTED_EDGE ( 'NONE', *, *, #9, .F. ) ;
#96 = DIRECTION ( 'NONE',  ( 1.000000000000000000, 0.0000000000000000000, 0.0000000000000000000 ) ) ;
#97 = ORIENTED_EDGE ( 'NONE', *, *, #70, .F. ) ;
#98 = MECHANICAL_DESIGN_GEOMETRIC_PRESENTATION_REPRESENTATION (  '', ( #182 ), #159 ) ;
#99 = CARTESIAN_POINT ( 'NONE',  ( 0.0000000000000000000, 0.0000000000000000000, 0.1535434999999993610 ) ) ;
#100 = ADVANCED_FACE ( 'NONE', ( #46 ), #194, .T. ) ;
#101 = CIRCLE ( 'NONE', #235, 0.1574804999999999955 ) ;
#102 = VERTEX_POINT ( 'NONE', #32 ) ;
#103 = LENGTH_MEASURE_WITH_UNIT ( LENGTH_MEASURE( 0.02539999999999999897 ), #179 );
#104 =( NAMED_UNIT ( * ) SI_UNIT ( $, .STERADIAN. ) SOLID_ANGLE_UNIT ( ) );
#105 = VECTOR ( 'NONE', #90, 39.37007874015748143 ) ;
#106 = LINE ( 'NONE', #6, #231 ) ;
#107 = EDGE_LOOP ( 'NONE', ( #97, #158, #47, #229 ) ) ;
#108 = DIRECTION ( 'NONE',  ( 1.000000000000000000, 0.0000000000000000000, -0.0000000000000000000 ) ) ;
#109 = PRODUCT_DEFINITION_SHAPE ( 'NONE', 'NONE',  #20 ) ;
#110 = AXIS2_PLACEMENT_3D ( 'NONE', #53, #144, #88 ) ;
#111 = DIRECTION ( 'NONE',  ( -1.000000000000000000, 0.0000000000000000000, 0.0000000000000000000 ) ) ;
#112 = VERTEX_POINT ( 'NONE', #226 ) ;
#113 = DIRECTION ( 'NONE',  ( 1.000000000000000000, 0.0000000000000000000, 0.0000000000000000000 ) ) ;
#114 = ORIENTED_EDGE ( 'NONE', *, *, #220, .T. ) ;
#115 = SURFACE_SIDE_STYLE ('',( #131 ) ) ;
#116 = AXIS2_PLACEMENT_3D ( 'NONE', #31, #117, #192 ) ;
#117 = DIRECTION ( 'NONE',  ( 0.0000000000000000000, 0.0000000000000000000, 1.000000000000000000 ) ) ;
#118 = LINE ( 'NONE', #10, #105 ) ;
#119 = ORIENTED_EDGE ( 'NONE', *, *, #9, .T. ) ;
#120 = EDGE_CURVE ( 'NONE', #243, #153, #118, .T. ) ;
#121 = LINE ( 'NONE', #185, #124 ) ;
#122 = CIRCLE ( 'NONE', #221, 0.1574804999999999955 ) ;
#123 = APPLICATION_CONTEXT ( 'automotive_design' ) ;
#124 = VECTOR ( 'NONE', #245, 39.37007874015748854 ) ;
#125 =( NAMED_UNIT ( * ) SI_UNIT ( $, .STERADIAN. ) SOLID_ANGLE_UNIT ( ) );
#126 = PLANE ( 'NONE',  #21 ) ;
#127 = UNCERTAINTY_MEASURE_WITH_UNIT (LENGTH_MEASURE( 1.000000000000000082E-05 ), #200, 'distance_accuracy_value', 'NONE');
#128 = DIRECTION ( 'NONE',  ( 0.7071067811865490160, 0.0000000000000000000, 0.7071067811865460184 ) ) ;
#129 = ORIENTED_EDGE ( 'NONE', *, *, #157, .F. ) ;
#130 = SURFACE_STYLE_FILL_AREA ( #25 ) ;
#131 = SURFACE_STYLE_FILL_AREA ( #29 ) ;
#132 = COLOUR_RGB ( '',0.7921568627450980005, 0.8196078431372548767, 0.9333333333333333481 ) ;
#133 = PRODUCT_DEFINITION_FORMATION_WITH_SPECIFIED_SOURCE ( 'ANY', '', #38, .NOT_KNOWN. ) ;
#134 = DIRECTION ( 'NONE',  ( -0.0000000000000000000, -0.0000000000000000000, -1.000000000000000000 ) ) ;
#135 = CARTESIAN_POINT ( 'NONE',  ( 0.0000000000000000000, 0.0000000000000000000, 2.480315000000000047 ) ) ;
#136 = DIRECTION ( 'NONE',  ( -0.7071067811865627828, 0.0000000000000000000, -0.7071067811865321406 ) ) ;
#137 = CARTESIAN_POINT ( 'NONE',  ( 0.1574804999999999955, 1.928579902531247412E-17, 0.1535434999999993610 ) ) ;
#138 = DIRECTION ( 'NONE',  ( -1.000000000000000000, 0.0000000000000000000, 0.0000000000000000000 ) ) ;
#139 = VECTOR ( 'NONE', #136, 39.37007874015748854 ) ;
#140 = ORIENTED_EDGE ( 'NONE', *, *, #177, .T. ) ;
#141 = ORIENTED_EDGE ( 'NONE', *, *, #157, .T. ) ;
#142 = FILL_AREA_STYLE_COLOUR ( '', #132 ) ;
#143 = EDGE_CURVE ( 'NONE', #23, #153, #172, .T. ) ;
#144 = DIRECTION ( 'NONE',  ( 0.0000000000000000000, 0.0000000000000000000, 1.000000000000000000 ) ) ;
#145 = CARTESIAN_POINT ( 'NONE',  ( 0.1424804999999990940, 1.836731392595189962E-17, 2.480315000000000047 ) ) ;
#146 = AXIS2_PLACEMENT_3D ( 'NONE', #89, #79, #168 ) ;
#147 = CARTESIAN_POINT ( 'NONE',  ( 0.0000000000000000000, 0.0000000000000000000, 0.0000000000000000000 ) ) ;
#148 = DIRECTION ( 'NONE',  ( 0.0000000000000000000, 0.0000000000000000000, 1.000000000000000000 ) ) ;
#149 = EDGE_LOOP ( 'NONE', ( #34, #83, #8, #95 ) ) ;
#150 = COLOUR_RGB ( '',0.7921568627450980005, 0.8196078431372548767, 0.9333333333333333481 ) ;
#151 = PLANE ( 'NONE',  #36 ) ;
#152 = DIRECTION ( 'NONE',  ( 0.0000000000000000000, 0.0000000000000000000, -1.000000000000000000 ) ) ;
#153 = VERTEX_POINT ( 'NONE', #12 ) ;
#154 = PRESENTATION_STYLE_ASSIGNMENT (( #248 ) ) ;
#155 = DIRECTION ( 'NONE',  ( 0.0000000000000000000, 0.0000000000000000000, 1.000000000000000000 ) ) ;
#156 = EDGE_LOOP ( 'NONE', ( #114, #140 ) ) ;
#157 = EDGE_CURVE ( 'NONE', #49, #243, #59, .T. ) ;
#158 = ORIENTED_EDGE ( 'NONE', *, *, #120, .T. ) ;
#159 =( GEOMETRIC_REPRESENTATION_CONTEXT ( 3 ) GLOBAL_UNCERTAINTY_ASSIGNED_CONTEXT ( ( #127 ) ) GLOBAL_UNIT_ASSIGNED_CONTEXT ( ( #200, #160, #104 ) ) REPRESENTATION_CONTEXT ( 'NONE', 'WORKASPACE' ) );
#160 =( NAMED_UNIT ( * ) PLANE_ANGLE_UNIT ( ) SI_UNIT ( $, .RADIAN. ) );
#161 = CIRCLE ( 'NONE', #146, 0.1574804999999999955 ) ;
#162 = EDGE_LOOP ( 'NONE', ( #230, #1, #174, #60 ) ) ;
#163 = DIRECTION ( 'NONE',  ( 0.0000000000000000000, 0.0000000000000000000, 1.000000000000000000 ) ) ;
#164 = DIRECTION ( 'NONE',  ( 0.0000000000000000000, 0.0000000000000000000, 1.000000000000000000 ) ) ;
#165 = DIRECTION ( 'NONE',  ( -1.000000000000000000, 0.0000000000000000000, 0.0000000000000000000 ) ) ;
#166 = FACE_OUTER_BOUND ( 'NONE', #107, .T. ) ;
#167 = DIRECTION ( 'NONE',  ( -0.0000000000000000000, -0.0000000000000000000, -1.000000000000000000 ) ) ;
#168 = DIRECTION ( 'NONE',  ( 1.000000000000000000, 0.0000000000000000000, 0.0000000000000000000 ) ) ;
#169 = AXIS2_PLACEMENT_3D ( 'NONE', #246, #50, #111 ) ;
#170 = DIRECTION ( 'NONE',  ( -1.000000000000000000, 0.0000000000000000000, 0.0000000000000000000 ) ) ;
#171 = DIRECTION ( 'NONE',  ( -1.000000000000000000, 0.0000000000000000000, 0.0000000000000000000 ) ) ;
#172 = LINE ( 'NONE', #78, #203 ) ;
#173 = DIMENSIONAL_EXPONENTS ( 1.000000000000000000, 0.0000000000000000000, 0.0000000000000000000, 0.0000000000000000000, 0.0000000000000000000, 0.0000000000000000000, 0.0000000000000000000 ) ;
#174 = ORIENTED_EDGE ( 'NONE', *, *, #195, .T. ) ;
#175 = EDGE_LOOP ( 'NONE', ( #141, #4 ) ) ;
#176 = STYLED_ITEM ( 'NONE', ( #154 ), #217 ) ;
#177 = EDGE_CURVE ( 'NONE', #227, #102, #188, .T. ) ;
#178 = ORIENTED_EDGE ( 'NONE', *, *, #195, .F. ) ;
#179 =( LENGTH_UNIT ( ) NAMED_UNIT ( * ) SI_UNIT ( $, .METRE. ) );
#180 = PRESENTATION_LAYER_ASSIGNMENT (  '', '', ( #176 ) ) ;
#181 = CARTESIAN_POINT ( 'NONE',  ( -0.003936999999999995191, 9.883971235068392752E-18, 0.0000000000000000000 ) ) ;
#182 = STYLED_ITEM ( 'NONE', ( #241 ), #236 ) ;
#183 = APPLICATION_PROTOCOL_DEFINITION ( 'draft international standard', 'automotive_design', 1998, #193 ) ;
#184 = DIRECTION ( 'NONE',  ( -0.0000000000000000000, -0.0000000000000000000, -1.000000000000000000 ) ) ;
#185 = CARTESIAN_POINT ( 'NONE',  ( 0.1424804999999990940, 1.744882882659133128E-17, 2.480315000000000047 ) ) ;
#186 = CARTESIAN_POINT ( 'NONE',  ( 0.0000000000000000000, 0.0000000000000000000, 2.465314999999999923 ) ) ;
#187 = CARTESIAN_POINT ( 'NONE',  ( 0.0000000000000000000, 0.0000000000000000000, 2.480315000000000047 ) ) ;
#188 = CIRCLE ( 'NONE', #3, 0.1424804999999990940 ) ;
#189 = ORIENTED_EDGE ( 'NONE', *, *, #58, .F. ) ;
#190 = EDGE_LOOP ( 'NONE', ( #17, #129, #54, #119 ) ) ;
#191 = DIRECTION ( 'NONE',  ( 0.0000000000000000000, 0.0000000000000000000, 1.000000000000000000 ) ) ;
#192 = DIRECTION ( 'NONE',  ( 1.000000000000000000, 0.0000000000000000000, 0.0000000000000000000 ) ) ;
#193 = APPLICATION_CONTEXT ( 'automotive_design' ) ;
#194 = CONICAL_SURFACE ( 'NONE', #169, 0.1424804999999990940, 0.7853981633974699283 ) ;
#195 = EDGE_CURVE ( 'NONE', #102, #23, #16, .T. ) ;
#196 = CARTESIAN_POINT ( 'NONE',  ( 0.0000000000000000000, 0.0000000000000000000, 0.0000000000000000000 ) ) ;
#197 = AXIS2_PLACEMENT_3D ( 'NONE', #187, #15, #171 ) ;
#198 = LENGTH_MEASURE_WITH_UNIT ( LENGTH_MEASURE( 0.02539999999999999897 ), #43 );
#199 = DIMENSIONAL_EXPONENTS ( 1.000000000000000000, 0.0000000000000000000, 0.0000000000000000000, 0.0000000000000000000, 0.0000000000000000000, 0.0000000000000000000, 0.0000000000000000000 ) ;
#200 =( CONVERSION_BASED_UNIT ( 'INCH', #64 ) LENGTH_UNIT ( ) NAMED_UNIT ( #212 ) );
#201 = EDGE_CURVE ( 'NONE', #112, #51, #242, .T. ) ;
#202 = SURFACE_SIDE_STYLE ('',( #130 ) ) ;
#203 = VECTOR ( 'NONE', #204, 39.37007874015748143 ) ;
#204 = DIRECTION ( 'NONE',  ( -0.0000000000000000000, -0.0000000000000000000, -1.000000000000000000 ) ) ;
#205 = FACE_OUTER_BOUND ( 'NONE', #149, .T. ) ;
#206 = CARTESIAN_POINT ( 'NONE',  ( 0.0000000000000000000, 0.0000000000000000000, 0.0000000000000000000 ) ) ;
#207 = DIRECTION ( 'NONE',  ( 1.000000000000000000, 0.0000000000000000000, -0.0000000000000000000 ) ) ;
#208 = DIRECTION ( 'NONE',  ( 1.000000000000000000, 0.0000000000000000000, 0.0000000000000000000 ) ) ;
#209 = FACE_OUTER_BOUND ( 'NONE', #190, .T. ) ;
#210 = CONICAL_SURFACE ( 'NONE', #240, 0.003936999999999995191, 0.7853981633974503884 ) ;
#211 = DIRECTION ( 'NONE',  ( -1.000000000000000000, 0.0000000000000000000, 0.0000000000000000000 ) ) ;
#212 = DIMENSIONAL_EXPONENTS ( 1.000000000000000000, 0.0000000000000000000, 0.0000000000000000000, 0.0000000000000000000, 0.0000000000000000000, 0.0000000000000000000, 0.0000000000000000000 ) ;
#213 = ORIENTED_EDGE ( 'NONE', *, *, #13, .T. ) ;
#214 = CARTESIAN_POINT ( 'NONE',  ( 0.0000000000000000000, 0.0000000000000000000, 0.1535434999999993610 ) ) ;
#215 = CLOSED_SHELL ( 'NONE', ( #223, #48, #63, #33, #41, #100, #52, #234 ) ) ;
#216 = EDGE_CURVE ( 'NONE', #112, #23, #101, .T. ) ;
#217 = MANIFOLD_SOLID_BREP ( 'Cut-Revolve1', #215 ) ;
#218 = CONICAL_SURFACE ( 'NONE', #197, 0.1424804999999990940, 0.7853981633974699283 ) ;
#219 = UNCERTAINTY_MEASURE_WITH_UNIT (LENGTH_MEASURE( 1.000000000000000082E-05 ), #68, 'distance_accuracy_value', 'NONE');
#220 = EDGE_CURVE ( 'NONE', #102, #227, #65, .T. ) ;
#221 = AXIS2_PLACEMENT_3D ( 'NONE', #99, #19, #81 ) ;
#222 =( CONVERSION_BASED_UNIT ( 'INCH', #103 ) LENGTH_UNIT ( ) NAMED_UNIT ( #173 ) );
#223 = ADVANCED_FACE ( 'NONE', ( #166 ), #210, .T. ) ;
#224 = ORIENTED_EDGE ( 'NONE', *, *, #40, .T. ) ;
#225 = SHAPE_DEFINITION_REPRESENTATION ( #109, #236 ) ;
#226 = CARTESIAN_POINT ( 'NONE',  ( 0.1574804999999999955, 1.928579902531247412E-17, 2.465314999999999923 ) ) ;
#227 = VERTEX_POINT ( 'NONE', #145 ) ;
#228 = DIRECTION ( 'NONE',  ( -0.0000000000000000000, -0.0000000000000000000, -1.000000000000000000 ) ) ;
#229 = ORIENTED_EDGE ( 'NONE', *, *, #237, .F. ) ;
#230 = ORIENTED_EDGE ( 'NONE', *, *, #40, .F. ) ;
#231 = VECTOR ( 'NONE', #128, 39.37007874015748143 ) ;
#232 = DIRECTION ( 'NONE',  ( -0.0000000000000000000, -0.0000000000000000000, -1.000000000000000000 ) ) ;
#233 = CARTESIAN_POINT ( 'NONE',  ( 0.0000000000000000000, 0.0000000000000000000, 0.0000000000000000000 ) ) ;
#234 = ADVANCED_FACE ( 'NONE', ( #239 ), #126, .F. ) ;
#235 = AXIS2_PLACEMENT_3D ( 'NONE', #186, #152, #208 ) ;
#236 = ADVANCED_BREP_SHAPE_REPRESENTATION ( 'Micro_RNCM-080-1', ( #217, #7 ), #39 ) ;
#237 = EDGE_CURVE ( 'NONE', #49, #51, #106, .T. ) ;
#238 = PRODUCT_DEFINITION_CONTEXT ( 'detailed design', #123, 'design' ) ;
#239 = FACE_OUTER_BOUND ( 'NONE', #175, .T. ) ;
#240 = AXIS2_PLACEMENT_3D ( 'NONE', #196, #163, #24 ) ;
#241 = PRESENTATION_STYLE_ASSIGNMENT (( #67 ) ) ;
#242 = LINE ( 'NONE', #94, #92 ) ;
#243 = VERTEX_POINT ( 'NONE', #181 ) ;
#244 = CARTESIAN_POINT ( 'NONE',  ( 0.0000000000000000000, 0.0000000000000000000, 0.0000000000000000000 ) ) ;
#245 = DIRECTION ( 'NONE',  ( 0.7071067811865627828, 8.659560562355118980E-17, -0.7071067811865321406 ) ) ;
#246 = CARTESIAN_POINT ( 'NONE',  ( 0.0000000000000000000, 0.0000000000000000000, 2.480315000000000047 ) ) ;
#247 = CARTESIAN_POINT ( 'NONE',  ( 0.003936999999999995191, 0.0000000000000000000, 0.0000000000000000000 ) ) ;
#248 = SURFACE_STYLE_USAGE ( .BOTH. , #115 ) ;
#249 = DIRECTION ( 'NONE',  ( -1.000000000000000000, 0.0000000000000000000, 0.0000000000000000000 ) ) ;
ENDSEC;
END-ISO-10303-21;
