ISO-10303-21;
HEADER;
FILE_DESCRIPTION (( 'STEP AP214' ),
    '1' );
FILE_NAME ('Micro_SBMM-040-420.STEP',
    '2021-09-02T17:10:33',
    ( '' ),
    ( '' ),
    'SwSTEP 2.0',
    'SolidWorks 2020',
    '' );
FILE_SCHEMA (( 'AUTOMOTIVE_DESIGN' ));
ENDSEC;

DATA;
#1 = EDGE_LOOP ( 'NONE', ( #309, #236, #10, #338 ) ) ;
#2 = CARTESIAN_POINT ( 'NONE',  ( 0.1031099999999991745, 1.354581824536882559E-17, 2.952755999999999936 ) ) ;
#3 = ORIENTED_EDGE ( 'NONE', *, *, #68, .T. ) ;
#4 = DIRECTION ( 'NONE',  ( -1.000000000000000000, 0.0000000000000000000, 0.0000000000000000000 ) ) ;
#5 = AXIS2_PLACEMENT_3D ( 'NONE', #119, #164, #186 ) ;
#6 = EDGE_CURVE ( 'NONE', #260, #327, #123, .T. ) ;
#7 = DIRECTION ( 'NONE',  ( 1.000000000000000000, 0.0000000000000000000, 0.0000000000000000000 ) ) ;
#8 = ADVANCED_FACE ( 'NONE', ( #187 ), #333, .T. ) ;
#9 = DIRECTION ( 'NONE',  ( 1.000000000000000000, 0.0000000000000000000, 0.0000000000000000000 ) ) ;
#10 = ORIENTED_EDGE ( 'NONE', *, *, #276, .F. ) ;
#11 = CARTESIAN_POINT ( 'NONE',  ( 0.0000000000000000000, 0.0000000000000000000, 2.952755999999999936 ) ) ;
#12 = PRODUCT_DEFINITION_CONTEXT ( 'detailed design', #316, 'design' ) ;
#13 = DIRECTION ( 'NONE',  ( 1.000000000000000000, 0.0000000000000000000, -0.0000000000000000000 ) ) ;
#14 = AXIS2_PLACEMENT_3D ( 'NONE', #257, #281, #53 ) ;
#15 = ORIENTED_EDGE ( 'NONE', *, *, #233, .F. ) ;
#16 =( CONVERSION_BASED_UNIT ( 'INCH', #146 ) LENGTH_UNIT ( ) NAMED_UNIT ( #247 ) );
#17 = ORIENTED_EDGE ( 'NONE', *, *, #288, .T. ) ;
#18 = ADVANCED_FACE ( 'NONE', ( #297 ), #168, .T. ) ;
#19 = CONICAL_SURFACE ( 'NONE', #280, 0.1031099999999991745, 0.7853981633974500554 ) ;
#20 = AXIS2_PLACEMENT_3D ( 'NONE', #86, #211, #332 ) ;
#21 = DIRECTION ( 'NONE',  ( 0.0000000000000000000, 0.0000000000000000000, 1.000000000000000000 ) ) ;
#22 = EDGE_CURVE ( 'NONE', #260, #300, #126, .T. ) ;
#23 = ORIENTED_EDGE ( 'NONE', *, *, #291, .F. ) ;
#24 =( GEOMETRIC_REPRESENTATION_CONTEXT ( 3 ) GLOBAL_UNCERTAINTY_ASSIGNED_CONTEXT ( ( #98 ) ) GLOBAL_UNIT_ASSIGNED_CONTEXT ( ( #28, #317, #113 ) ) REPRESENTATION_CONTEXT ( 'NONE', 'WORKASPACE' ) );
#25 = CARTESIAN_POINT ( 'NONE',  ( 0.05314949999999995373, 6.508936505128219101E-18, 0.0000000000000000000 ) ) ;
#26 = PRESENTATION_STYLE_ASSIGNMENT (( #204 ) ) ;
#27 = CARTESIAN_POINT ( 'NONE',  ( 0.0000000000000000000, 0.0000000000000000000, 0.1368357679160022988 ) ) ;
#28 =( CONVERSION_BASED_UNIT ( 'INCH', #134 ) LENGTH_UNIT ( ) NAMED_UNIT ( #337 ) );
#29 = ORIENTED_EDGE ( 'NONE', *, *, #274, .F. ) ;
#30 =( LENGTH_UNIT ( ) NAMED_UNIT ( * ) SI_UNIT ( $, .METRE. ) );
#31 = DIRECTION ( 'NONE',  ( 1.000000000000000000, 0.0000000000000000000, 0.0000000000000000000 ) ) ;
#32 = ORIENTED_EDGE ( 'NONE', *, *, #195, .T. ) ;
#33 = LINE ( 'NONE', #140, #101 ) ;
#34 = AXIS2_PLACEMENT_3D ( 'NONE', #283, #278, #203 ) ;
#35 = ORIENTED_EDGE ( 'NONE', *, *, #266, .T. ) ;
#36 = MECHANICAL_DESIGN_GEOMETRIC_PRESENTATION_REPRESENTATION (  '', ( #304 ), #256 ) ;
#37 = DIRECTION ( 'NONE',  ( 0.0000000000000000000, 0.0000000000000000000, -1.000000000000000000 ) ) ;
#38 = VERTEX_POINT ( 'NONE', #127 ) ;
#39 = CARTESIAN_POINT ( 'NONE',  ( 0.0000000000000000000, 0.0000000000000000000, 0.07874000000000000443 ) ) ;
#40 = CARTESIAN_POINT ( 'NONE',  ( 0.0000000000000000000, 0.0000000000000000000, 0.0000000000000000000 ) ) ;
#41 = SURFACE_SIDE_STYLE ('',( #301 ) ) ;
#42 = CARTESIAN_POINT ( 'NONE',  ( -0.05314949999999995373, 0.0000000000000000000, 0.0000000000000000000 ) ) ;
#43 = CIRCLE ( 'NONE', #77, 0.05314949999999998842 ) ;
#44 = VERTEX_POINT ( 'NONE', #226 ) ;
#45 = EDGE_CURVE ( 'NONE', #38, #172, #112, .T. ) ;
#46 = SHAPE_DEFINITION_REPRESENTATION ( #133, #104 ) ;
#47 = AXIS2_PLACEMENT_3D ( 'NONE', #341, #180, #156 ) ;
#48 = AXIS2_PLACEMENT_3D ( 'NONE', #264, #243, #9 ) ;
#49 = PRODUCT_RELATED_PRODUCT_CATEGORY ( 'part', '', ( #65 ) ) ;
#50 = ORIENTED_EDGE ( 'NONE', *, *, #291, .T. ) ;
#51 = STYLED_ITEM ( 'NONE', ( #26 ), #71 ) ;
#52 = FILL_AREA_STYLE_COLOUR ( '', #82 ) ;
#53 = DIRECTION ( 'NONE',  ( -1.000000000000000000, 0.0000000000000000000, 0.0000000000000000000 ) ) ;
#54 = ADVANCED_FACE ( 'NONE', ( #110 ), #222, .T. ) ;
#55 = EDGE_CURVE ( 'NONE', #327, #89, #95, .T. ) ;
#56 = LINE ( 'NONE', #25, #189 ) ;
#57 = AXIS2_PLACEMENT_3D ( 'NONE', #11, #92, #293 ) ;
#58 = DIRECTION ( 'NONE',  ( 0.0000000000000000000, 0.0000000000000000000, 1.000000000000000000 ) ) ;
#59 = EDGE_LOOP ( 'NONE', ( #285, #72, #272, #216, #251 ) ) ;
#60 = DIRECTION ( 'NONE',  ( 1.000000000000000000, 0.0000000000000000000, 0.0000000000000000000 ) ) ;
#61 = CARTESIAN_POINT ( 'NONE',  ( -0.05314949999999998842, 0.0000000000000000000, 0.1368357679160022988 ) ) ;
#62 = VECTOR ( 'NONE', #296, 39.37007874015748143 ) ;
#63 = ORIENTED_EDGE ( 'NONE', *, *, #308, .F. ) ;
#64 = DIRECTION ( 'NONE',  ( -1.000000000000000000, 0.0000000000000000000, 0.0000000000000000000 ) ) ;
#65 = PRODUCT ( 'Micro_SBMM-040-420', 'Micro_SBMM-040-420', '', ( #148 ) ) ;
#66 = ORIENTED_EDGE ( 'NONE', *, *, #195, .F. ) ;
#67 = CARTESIAN_POINT ( 'NONE',  ( 0.0000000000000000000, 0.0000000000000000000, 0.0000000000000000000 ) ) ;
#68 = EDGE_CURVE ( 'NONE', #177, #183, #56, .T. ) ;
#69 = ORIENTED_EDGE ( 'NONE', *, *, #55, .T. ) ;
#70 =( LENGTH_UNIT ( ) NAMED_UNIT ( * ) SI_UNIT ( $, .METRE. ) );
#71 = MANIFOLD_SOLID_BREP ( 'Cut-Revolve3', #87 ) ;
#72 = ORIENTED_EDGE ( 'NONE', *, *, #233, .T. ) ;
#73 = AXIS2_PLACEMENT_3D ( 'NONE', #40, #271, #147 ) ;
#74 = CIRCLE ( 'NONE', #263, 0.1181100000000000344 ) ;
#75 = APPLICATION_PROTOCOL_DEFINITION ( 'draft international standard', 'automotive_design', 1998, #325 ) ;
#76 = CARTESIAN_POINT ( 'NONE',  ( 0.0000000000000000000, 0.0000000000000000000, 0.0000000000000000000 ) ) ;
#77 = AXIS2_PLACEMENT_3D ( 'NONE', #282, #108, #205 ) ;
#78 = CARTESIAN_POINT ( 'NONE',  ( -0.1181100000000000344, 0.0000000000000000000, 2.952755999999999936 ) ) ;
#79 = ORIENTED_EDGE ( 'NONE', *, *, #330, .T. ) ;
#80 = SURFACE_STYLE_FILL_AREA ( #310 ) ;
#81 = SPHERICAL_SURFACE ( 'NONE', #339, 0.07873999999999999055 ) ;
#82 = COLOUR_RGB ( '',0.7921568627450980005, 0.8196078431372548767, 0.9333333333333333481 ) ;
#83 = FACE_OUTER_BOUND ( 'NONE', #321, .T. ) ;
#84 = SURFACE_SIDE_STYLE ('',( #80 ) ) ;
#85 = CARTESIAN_POINT ( 'NONE',  ( 0.0000000000000000000, 0.0000000000000000000, 2.937755999999999368 ) ) ;
#86 = CARTESIAN_POINT ( 'NONE',  ( 0.0000000000000000000, 0.0000000000000000000, 2.952755999999999936 ) ) ;
#87 = CLOSED_SHELL ( 'NONE', ( #214, #111, #154, #160, #239, #131, #18, #224, #54, #109, #8 ) ) ;
#88 = EDGE_CURVE ( 'NONE', #183, #38, #255, .T. ) ;
#89 = VERTEX_POINT ( 'NONE', #179 ) ;
#90 = CARTESIAN_POINT ( 'NONE',  ( 0.0000000000000000000, 0.0000000000000000000, 2.937755999999999368 ) ) ;
#91 = EDGE_LOOP ( 'NONE', ( #145, #238, #254, #50 ) ) ;
#92 = DIRECTION ( 'NONE',  ( -0.0000000000000000000, -0.0000000000000000000, -1.000000000000000000 ) ) ;
#93 = EDGE_LOOP ( 'NONE', ( #66, #63, #99, #289 ) ) ;
#94 = CARTESIAN_POINT ( 'NONE',  ( 0.05314949999999990515, 0.0000000000000000000, 0.7874019999999999353 ) ) ;
#95 = CIRCLE ( 'NONE', #228, 0.1181100000000000344 ) ;
#96 = CARTESIAN_POINT ( 'NONE',  ( -0.1299209999999998422, 1.591073367920230651E-17, 1.531854090909089194 ) ) ;
#97 = LINE ( 'NONE', #290, #303 ) ;
#98 = UNCERTAINTY_MEASURE_WITH_UNIT (LENGTH_MEASURE( 1.000000000000000082E-05 ), #28, 'distance_accuracy_value', 'NONE');
#99 = ORIENTED_EDGE ( 'NONE', *, *, #163, .T. ) ;
#100 = DIRECTION ( 'NONE',  ( 1.000000000000000000, 1.224646799147353207E-16, -0.0000000000000000000 ) ) ;
#101 = VECTOR ( 'NONE', #267, 39.37007874015748143 ) ;
#102 = AXIS2_PLACEMENT_3D ( 'NONE', #27, #235, #135 ) ;
#103 = AXIS2_PLACEMENT_3D ( 'NONE', #39, #120, #217 ) ;
#104 = ADVANCED_BREP_SHAPE_REPRESENTATION ( 'Micro_SBMM-040-420', ( #71, #248 ), #162 ) ;
#105 = EDGE_LOOP ( 'NONE', ( #170, #15, #35, #142 ) ) ;
#106 = VECTOR ( 'NONE', #223, 39.37007874015748143 ) ;
#107 = CIRCLE ( 'NONE', #103, 0.07873999999999996280 ) ;
#108 = DIRECTION ( 'NONE',  ( -0.0000000000000000000, -0.0000000000000000000, -1.000000000000000000 ) ) ;
#109 = ADVANCED_FACE ( 'NONE', ( #311 ), #81, .T. ) ;
#110 = FACE_OUTER_BOUND ( 'NONE', #105, .T. ) ;
#111 = ADVANCED_FACE ( 'NONE', ( #340 ), #114, .T. ) ;
#112 = CIRCLE ( 'NONE', #241, 0.07873999999999999055 ) ;
#113 =( NAMED_UNIT ( * ) SI_UNIT ( $, .STERADIAN. ) SOLID_ANGLE_UNIT ( ) );
#114 = SPHERICAL_SURFACE ( 'NONE', #196, 0.07873999999999999055 ) ;
#115 = ORIENTED_EDGE ( 'NONE', *, *, #284, .F. ) ;
#116 = DIRECTION ( 'NONE',  ( -0.0000000000000000000, -0.0000000000000000000, -1.000000000000000000 ) ) ;
#117 = EDGE_LOOP ( 'NONE', ( #292, #193, #212, #23 ) ) ;
#118 = EDGE_CURVE ( 'NONE', #300, #200, #43, .T. ) ;
#119 = CARTESIAN_POINT ( 'NONE',  ( 0.0000000000000000000, 0.0000000000000000000, 0.7874019999999999353 ) ) ;
#120 = DIRECTION ( 'NONE',  ( -1.000000000000000000, 0.0000000000000000000, 0.0000000000000000000 ) ) ;
#121 = ORIENTED_EDGE ( 'NONE', *, *, #150, .F. ) ;
#122 = FACE_OUTER_BOUND ( 'NONE', #132, .T. ) ;
#123 = LINE ( 'NONE', #96, #344 ) ;
#124 = CYLINDRICAL_SURFACE ( 'NONE', #262, 0.05314949999999995373 ) ;
#125 = PRESENTATION_LAYER_ASSIGNMENT (  '', '', ( #51 ) ) ;
#126 = LINE ( 'NONE', #42, #106 ) ;
#127 = CARTESIAN_POINT ( 'NONE',  ( 6.508936505128221412E-18, -0.05314949999999997454, 0.1368357679160022988 ) ) ;
#128 = EDGE_CURVE ( 'NONE', #294, #44, #230, .T. ) ;
#129 = ORIENTED_EDGE ( 'NONE', *, *, #284, .T. ) ;
#130 = APPLICATION_PROTOCOL_DEFINITION ( 'draft international standard', 'automotive_design', 1998, #316 ) ;
#131 = ADVANCED_FACE ( 'NONE', ( #83 ), #137, .T. ) ;
#132 = EDGE_LOOP ( 'NONE', ( #29, #32, #115, #324 ) ) ;
#133 = PRODUCT_DEFINITION_SHAPE ( 'NONE', 'NONE',  #319 ) ;
#134 = LENGTH_MEASURE_WITH_UNIT ( LENGTH_MEASURE( 0.02539999999999999897 ), #30 );
#135 = DIRECTION ( 'NONE',  ( -1.000000000000000000, 0.0000000000000000000, 0.0000000000000000000 ) ) ;
#136 = CIRCLE ( 'NONE', #331, 0.05314949999999998842 ) ;
#137 = CYLINDRICAL_SURFACE ( 'NONE', #14, 0.1181100000000000344 ) ;
#138 = FACE_OUTER_BOUND ( 'NONE', #93, .T. ) ;
#139 = DIRECTION ( 'NONE',  ( -1.000000000000000000, 0.0000000000000000000, 0.0000000000000000000 ) ) ;
#140 = CARTESIAN_POINT ( 'NONE',  ( 0.1181100000000000344, 1.446430334472939084E-17, 2.952755999999999936 ) ) ;
#141 = DIRECTION ( 'NONE',  ( 0.0000000000000000000, 0.0000000000000000000, 1.000000000000000000 ) ) ;
#142 = ORIENTED_EDGE ( 'NONE', *, *, #55, .F. ) ;
#143 = CARTESIAN_POINT ( 'NONE',  ( 0.0000000000000000000, 0.0000000000000000000, 0.1368357679160022988 ) ) ;
#144 = ORIENTED_EDGE ( 'NONE', *, *, #128, .T. ) ;
#145 = ORIENTED_EDGE ( 'NONE', *, *, #45, .F. ) ;
#146 = LENGTH_MEASURE_WITH_UNIT ( LENGTH_MEASURE( 0.02539999999999999897 ), #70 );
#147 = DIRECTION ( 'NONE',  ( -1.000000000000000000, 0.0000000000000000000, 0.0000000000000000000 ) ) ;
#148 = PRODUCT_CONTEXT ( 'NONE', #325, 'mechanical' ) ;
#149 = COLOUR_RGB ( '',0.7921568627450980005, 0.8196078431372548767, 0.9333333333333333481 ) ;
#150 = EDGE_CURVE ( 'NONE', #200, #183, #201, .T. ) ;
#151 = EDGE_LOOP ( 'NONE', ( #265, #218 ) ) ;
#152 = AXIS2_PLACEMENT_3D ( 'NONE', #269, #246, #13 ) ;
#153 = CIRCLE ( 'NONE', #5, 0.05314949999999990515 ) ;
#154 = ADVANCED_FACE ( 'NONE', ( #345 ), #314, .T. ) ;
#155 = DIRECTION ( 'NONE',  ( 0.0000000000000000000, 1.000000000000000000, 0.0000000000000000000 ) ) ;
#156 = DIRECTION ( 'NONE',  ( -1.000000000000000000, 0.0000000000000000000, 0.0000000000000000000 ) ) ;
#157 = AXIS2_PLACEMENT_3D ( 'NONE', #85, #313, #229 ) ;
#158 = DIRECTION ( 'NONE',  ( -0.0000000000000000000, -0.0000000000000000000, -1.000000000000000000 ) ) ;
#159 = DIRECTION ( 'NONE',  ( -1.000000000000000000, 0.0000000000000000000, 0.0000000000000000000 ) ) ;
#160 = ADVANCED_FACE ( 'NONE', ( #122 ), #165, .T. ) ;
#161 = DIRECTION ( 'NONE',  ( 1.000000000000000000, 0.0000000000000000000, 0.0000000000000000000 ) ) ;
#162 =( GEOMETRIC_REPRESENTATION_CONTEXT ( 3 ) GLOBAL_UNCERTAINTY_ASSIGNED_CONTEXT ( ( #268 ) ) GLOBAL_UNIT_ASSIGNED_CONTEXT ( ( #305, #307, #306 ) ) REPRESENTATION_CONTEXT ( 'NONE', 'WORKASPACE' ) );
#163 = EDGE_CURVE ( 'NONE', #329, #44, #97, .T. ) ;
#164 = DIRECTION ( 'NONE',  ( -0.0000000000000000000, -0.0000000000000000000, -1.000000000000000000 ) ) ;
#165 = CONICAL_SURFACE ( 'NONE', #20, 0.1031099999999991745, 0.7853981633974500554 ) ;
#166 = VERTEX_POINT ( 'NONE', #2 ) ;
#167 = CARTESIAN_POINT ( 'NONE',  ( 0.0000000000000000000, 0.0000000000000000000, 1.417323000000000333 ) ) ;
#168 = PLANE ( 'NONE',  #152 ) ;
#169 = DIRECTION ( 'NONE',  ( -0.0000000000000000000, -0.0000000000000000000, -1.000000000000000000 ) ) ;
#170 = ORIENTED_EDGE ( 'NONE', *, *, #6, .F. ) ;
#171 = LINE ( 'NONE', #78, #206 ) ;
#172 = VERTEX_POINT ( 'NONE', #320 ) ;
#173 = CARTESIAN_POINT ( 'NONE',  ( -0.1031099999999991745, 0.0000000000000000000, 2.952755999999999936 ) ) ;
#174 =( NAMED_UNIT ( * ) SI_UNIT ( $, .STERADIAN. ) SOLID_ANGLE_UNIT ( ) );
#175 = EDGE_CURVE ( 'NONE', #260, #177, #207, .T. ) ;
#176 = FILL_AREA_STYLE ('',( #199 ) ) ;
#177 = VERTEX_POINT ( 'NONE', #94 ) ;
#178 = CARTESIAN_POINT ( 'NONE',  ( 0.0000000000000000000, 0.0000000000000000000, 0.07874000000000000443 ) ) ;
#179 = CARTESIAN_POINT ( 'NONE',  ( 0.1181100000000000344, 1.446430334472939084E-17, 1.417323000000000333 ) ) ;
#180 = DIRECTION ( 'NONE',  ( -0.0000000000000000000, -0.0000000000000000000, -1.000000000000000000 ) ) ;
#181 = DIRECTION ( 'NONE',  ( 1.000000000000000000, 0.0000000000000000000, 0.0000000000000000000 ) ) ;
#182 = LINE ( 'NONE', #192, #275 ) ;
#183 = VERTEX_POINT ( 'NONE', #184 ) ;
#184 = CARTESIAN_POINT ( 'NONE',  ( 0.05314949999999998842, 6.508936505128223723E-18, 0.1368357679160022988 ) ) ;
#185 = EDGE_LOOP ( 'NONE', ( #220, #3, #121, #277, #244 ) ) ;
#186 = DIRECTION ( 'NONE',  ( -1.000000000000000000, 0.0000000000000000000, 0.0000000000000000000 ) ) ;
#187 = FACE_OUTER_BOUND ( 'NONE', #59, .T. ) ;
#188 = DIRECTION ( 'NONE',  ( -0.7071067811865486830, 0.0000000000000000000, -0.7071067811865462405 ) ) ;
#189 = VECTOR ( 'NONE', #158, 39.37007874015748143 ) ;
#190 = PRODUCT_DEFINITION_FORMATION_WITH_SPECIFIED_SOURCE ( 'ANY', '', #65, .NOT_KNOWN. ) ;
#191 = DIRECTION ( 'NONE',  ( -0.1025808190807222103, 1.256252717411202019E-17, 0.9947246732421630711 ) ) ;
#192 = CARTESIAN_POINT ( 'NONE',  ( 0.1031099999999991745, 1.262733314600825725E-17, 2.952755999999999936 ) ) ;
#193 = ORIENTED_EDGE ( 'NONE', *, *, #88, .T. ) ;
#194 = ORIENTED_EDGE ( 'NONE', *, *, #330, .F. ) ;
#195 = EDGE_CURVE ( 'NONE', #166, #294, #182, .T. ) ;
#196 = AXIS2_PLACEMENT_3D ( 'NONE', #209, #342, #155 ) ;
#197 = DIRECTION ( 'NONE',  ( 1.000000000000000000, 0.0000000000000000000, 0.0000000000000000000 ) ) ;
#198 = SURFACE_STYLE_USAGE ( .BOTH. , #41 ) ;
#199 = FILL_AREA_STYLE_COLOUR ( '', #149 ) ;
#200 = VERTEX_POINT ( 'NONE', #221 ) ;
#201 = CIRCLE ( 'NONE', #102, 0.05314949999999998842 ) ;
#202 = CIRCLE ( 'NONE', #48, 0.1031099999999991745 ) ;
#203 = DIRECTION ( 'NONE',  ( 1.000000000000000000, 0.0000000000000000000, 0.0000000000000000000 ) ) ;
#204 = SURFACE_STYLE_USAGE ( .BOTH. , #84 ) ;
#205 = DIRECTION ( 'NONE',  ( -1.000000000000000000, 0.0000000000000000000, 0.0000000000000000000 ) ) ;
#206 = VECTOR ( 'NONE', #253, 39.37007874015748143 ) ;
#207 = CIRCLE ( 'NONE', #234, 0.05314949999999990515 ) ;
#208 = AXIS2_PLACEMENT_3D ( 'NONE', #167, #141, #161 ) ;
#209 = CARTESIAN_POINT ( 'NONE',  ( 0.0000000000000000000, 0.0000000000000000000, 0.07874000000000000443 ) ) ;
#210 = EDGE_CURVE ( 'NONE', #38, #300, #136, .T. ) ;
#211 = DIRECTION ( 'NONE',  ( 0.0000000000000000000, 0.0000000000000000000, -1.000000000000000000 ) ) ;
#212 = ORIENTED_EDGE ( 'NONE', *, *, #45, .T. ) ;
#213 = AXIS2_PLACEMENT_3D ( 'NONE', #232, #58, #31 ) ;
#214 = ADVANCED_FACE ( 'NONE', ( #219 ), #124, .T. ) ;
#215 = FACE_OUTER_BOUND ( 'NONE', #227, .T. ) ;
#216 = ORIENTED_EDGE ( 'NONE', *, *, #210, .F. ) ;
#217 = DIRECTION ( 'NONE',  ( 0.0000000000000000000, 0.0000000000000000000, 1.000000000000000000 ) ) ;
#218 = ORIENTED_EDGE ( 'NONE', *, *, #274, .T. ) ;
#219 = FACE_OUTER_BOUND ( 'NONE', #185, .T. ) ;
#220 = ORIENTED_EDGE ( 'NONE', *, *, #175, .T. ) ;
#221 = CARTESIAN_POINT ( 'NONE',  ( 0.0000000000000000000, 0.05314949999999997454, 0.1368357679160022988 ) ) ;
#222 = CONICAL_SURFACE ( 'NONE', #34, 0.1299209999999998422, 0.1027615830204128555 ) ;
#223 = DIRECTION ( 'NONE',  ( -0.0000000000000000000, -0.0000000000000000000, -1.000000000000000000 ) ) ;
#224 = ADVANCED_FACE ( 'NONE', ( #138 ), #19, .T. ) ;
#225 = CARTESIAN_POINT ( 'NONE',  ( -0.1181100000000000344, 0.0000000000000000000, 1.417323000000000333 ) ) ;
#226 = CARTESIAN_POINT ( 'NONE',  ( -0.1181100000000000344, 0.0000000000000000000, 2.937755999999999368 ) ) ;
#227 = EDGE_LOOP ( 'NONE', ( #129, #17, #249, #194 ) ) ;
#228 = AXIS2_PLACEMENT_3D ( 'NONE', #315, #258, #181 ) ;
#229 = DIRECTION ( 'NONE',  ( 1.000000000000000000, 0.0000000000000000000, 0.0000000000000000000 ) ) ;
#230 = CIRCLE ( 'NONE', #157, 0.1181100000000000344 ) ;
#231 = DIRECTION ( 'NONE',  ( 0.0000000000000000000, 1.000000000000000000, 0.0000000000000000000 ) ) ;
#232 = CARTESIAN_POINT ( 'NONE',  ( 0.0000000000000000000, 0.0000000000000000000, 1.531854090909089194 ) ) ;
#233 = EDGE_CURVE ( 'NONE', #177, #260, #153, .T. ) ;
#234 = AXIS2_PLACEMENT_3D ( 'NONE', #287, #116, #64 ) ;
#235 = DIRECTION ( 'NONE',  ( -0.0000000000000000000, -0.0000000000000000000, -1.000000000000000000 ) ) ;
#236 = ORIENTED_EDGE ( 'NONE', *, *, #6, .T. ) ;
#237 = CYLINDRICAL_SURFACE ( 'NONE', #57, 0.1181100000000000344 ) ;
#238 = ORIENTED_EDGE ( 'NONE', *, *, #210, .T. ) ;
#239 = ADVANCED_FACE ( 'NONE', ( #215 ), #237, .T. ) ;
#240 = DIRECTION ( 'NONE',  ( 0.0000000000000000000, 0.0000000000000000000, -1.000000000000000000 ) ) ;
#241 = AXIS2_PLACEMENT_3D ( 'NONE', #336, #100, #302 ) ;
#242 = DIRECTION ( 'NONE',  ( -0.0000000000000000000, -0.0000000000000000000, -1.000000000000000000 ) ) ;
#243 = DIRECTION ( 'NONE',  ( 0.0000000000000000000, 0.0000000000000000000, 1.000000000000000000 ) ) ;
#244 = ORIENTED_EDGE ( 'NONE', *, *, #22, .F. ) ;
#245 = DIRECTION ( 'NONE',  ( 0.0000000000000000000, 0.0000000000000000000, 1.000000000000000000 ) ) ;
#246 = DIRECTION ( 'NONE',  ( 0.0000000000000000000, 0.0000000000000000000, 1.000000000000000000 ) ) ;
#247 = DIMENSIONAL_EXPONENTS ( 1.000000000000000000, 0.0000000000000000000, 0.0000000000000000000, 0.0000000000000000000, 0.0000000000000000000, 0.0000000000000000000, 0.0000000000000000000 ) ;
#248 = AXIS2_PLACEMENT_3D ( 'NONE', #76, #21, #197 ) ;
#249 = ORIENTED_EDGE ( 'NONE', *, *, #276, .T. ) ;
#250 =( NAMED_UNIT ( * ) PLANE_ANGLE_UNIT ( ) SI_UNIT ( $, .RADIAN. ) );
#251 = ORIENTED_EDGE ( 'NONE', *, *, #88, .F. ) ;
#252 = PRESENTATION_STYLE_ASSIGNMENT (( #198 ) ) ;
#253 = DIRECTION ( 'NONE',  ( -0.0000000000000000000, -0.0000000000000000000, -1.000000000000000000 ) ) ;
#254 = ORIENTED_EDGE ( 'NONE', *, *, #118, .T. ) ;
#255 = CIRCLE ( 'NONE', #47, 0.05314949999999998842 ) ;
#256 =( GEOMETRIC_REPRESENTATION_CONTEXT ( 3 ) GLOBAL_UNCERTAINTY_ASSIGNED_CONTEXT ( ( #299 ) ) GLOBAL_UNIT_ASSIGNED_CONTEXT ( ( #16, #250, #174 ) ) REPRESENTATION_CONTEXT ( 'NONE', 'WORKASPACE' ) );
#257 = CARTESIAN_POINT ( 'NONE',  ( 0.0000000000000000000, 0.0000000000000000000, 2.952755999999999936 ) ) ;
#258 = DIRECTION ( 'NONE',  ( 0.0000000000000000000, 0.0000000000000000000, 1.000000000000000000 ) ) ;
#259 = CARTESIAN_POINT ( 'NONE',  ( 0.0000000000000000000, 0.0000000000000000000, 2.952755999999999936 ) ) ;
#260 = VERTEX_POINT ( 'NONE', #328 ) ;
#261 = CARTESIAN_POINT ( 'NONE',  ( 0.0000000000000000000, 0.0000000000000000000, 2.952755999999999936 ) ) ;
#262 = AXIS2_PLACEMENT_3D ( 'NONE', #67, #169, #139 ) ;
#263 = AXIS2_PLACEMENT_3D ( 'NONE', #90, #37, #60 ) ;
#264 = CARTESIAN_POINT ( 'NONE',  ( 0.0000000000000000000, 0.0000000000000000000, 2.952755999999999936 ) ) ;
#265 = ORIENTED_EDGE ( 'NONE', *, *, #308, .T. ) ;
#266 = EDGE_CURVE ( 'NONE', #177, #89, #298, .T. ) ;
#267 = DIRECTION ( 'NONE',  ( -0.0000000000000000000, -0.0000000000000000000, -1.000000000000000000 ) ) ;
#268 = UNCERTAINTY_MEASURE_WITH_UNIT (LENGTH_MEASURE( 1.000000000000000082E-05 ), #305, 'distance_accuracy_value', 'NONE');
#269 = CARTESIAN_POINT ( 'NONE',  ( 0.0000000000000000000, 0.0000000000000000000, 2.952755999999999936 ) ) ;
#270 = DIRECTION ( 'NONE',  ( 0.7071067811865486830, 8.659560562354947649E-17, -0.7071067811865462405 ) ) ;
#271 = DIRECTION ( 'NONE',  ( -0.0000000000000000000, -0.0000000000000000000, -1.000000000000000000 ) ) ;
#272 = ORIENTED_EDGE ( 'NONE', *, *, #22, .T. ) ;
#273 = LENGTH_MEASURE_WITH_UNIT ( LENGTH_MEASURE( 0.02539999999999999897 ), #334 );
#274 = EDGE_CURVE ( 'NONE', #166, #329, #322, .T. ) ;
#275 = VECTOR ( 'NONE', #270, 39.37007874015748854 ) ;
#276 = EDGE_CURVE ( 'NONE', #89, #327, #295, .T. ) ;
#277 = ORIENTED_EDGE ( 'NONE', *, *, #118, .F. ) ;
#278 = DIRECTION ( 'NONE',  ( 0.0000000000000000000, 0.0000000000000000000, 1.000000000000000000 ) ) ;
#279 = MECHANICAL_DESIGN_GEOMETRIC_PRESENTATION_REPRESENTATION (  '', ( #51 ), #24 ) ;
#280 = AXIS2_PLACEMENT_3D ( 'NONE', #259, #240, #4 ) ;
#281 = DIRECTION ( 'NONE',  ( -0.0000000000000000000, -0.0000000000000000000, -1.000000000000000000 ) ) ;
#282 = CARTESIAN_POINT ( 'NONE',  ( 0.0000000000000000000, 0.0000000000000000000, 0.1368357679160022988 ) ) ;
#283 = CARTESIAN_POINT ( 'NONE',  ( 0.0000000000000000000, 0.0000000000000000000, 1.531854090909089194 ) ) ;
#284 = EDGE_CURVE ( 'NONE', #44, #294, #74, .T. ) ;
#285 = ORIENTED_EDGE ( 'NONE', *, *, #68, .F. ) ;
#286 = PRESENTATION_LAYER_ASSIGNMENT (  '', '', ( #304 ) ) ;
#287 = CARTESIAN_POINT ( 'NONE',  ( 0.0000000000000000000, 0.0000000000000000000, 0.7874019999999999353 ) ) ;
#288 = EDGE_CURVE ( 'NONE', #294, #89, #33, .T. ) ;
#289 = ORIENTED_EDGE ( 'NONE', *, *, #128, .F. ) ;
#290 = CARTESIAN_POINT ( 'NONE',  ( -0.1031099999999991745, 0.0000000000000000000, 2.952755999999999936 ) ) ;
#291 = EDGE_CURVE ( 'NONE', #200, #172, #107, .T. ) ;
#292 = ORIENTED_EDGE ( 'NONE', *, *, #150, .T. ) ;
#293 = DIRECTION ( 'NONE',  ( -1.000000000000000000, 0.0000000000000000000, 0.0000000000000000000 ) ) ;
#294 = VERTEX_POINT ( 'NONE', #326 ) ;
#295 = CIRCLE ( 'NONE', #208, 0.1181100000000000344 ) ;
#296 = DIRECTION ( 'NONE',  ( 0.1025808190807222103, 0.0000000000000000000, 0.9947246732421630711 ) ) ;
#297 = FACE_OUTER_BOUND ( 'NONE', #151, .T. ) ;
#298 = LINE ( 'NONE', #323, #62 ) ;
#299 = UNCERTAINTY_MEASURE_WITH_UNIT (LENGTH_MEASURE( 1.000000000000000082E-05 ), #16, 'distance_accuracy_value', 'NONE');
#300 = VERTEX_POINT ( 'NONE', #61 ) ;
#301 = SURFACE_STYLE_FILL_AREA ( #176 ) ;
#302 = DIRECTION ( 'NONE',  ( -1.224646799147352961E-16, 1.000000000000000000, 0.0000000000000000000 ) ) ;
#303 = VECTOR ( 'NONE', #188, 39.37007874015748854 ) ;
#304 = STYLED_ITEM ( 'NONE', ( #252 ), #104 ) ;
#305 =( CONVERSION_BASED_UNIT ( 'INCH', #273 ) LENGTH_UNIT ( ) NAMED_UNIT ( #335 ) );
#306 =( NAMED_UNIT ( * ) SI_UNIT ( $, .STERADIAN. ) SOLID_ANGLE_UNIT ( ) );
#307 =( NAMED_UNIT ( * ) PLANE_ANGLE_UNIT ( ) SI_UNIT ( $, .RADIAN. ) );
#308 = EDGE_CURVE ( 'NONE', #329, #166, #202, .T. ) ;
#309 = ORIENTED_EDGE ( 'NONE', *, *, #175, .F. ) ;
#310 = FILL_AREA_STYLE ('',( #52 ) ) ;
#311 = FACE_OUTER_BOUND ( 'NONE', #91, .T. ) ;
#312 = AXIS2_PLACEMENT_3D ( 'NONE', #261, #245, #7 ) ;
#313 = DIRECTION ( 'NONE',  ( 0.0000000000000000000, 0.0000000000000000000, -1.000000000000000000 ) ) ;
#314 = CONICAL_SURFACE ( 'NONE', #213, 0.1299209999999998422, 0.1027615830204128555 ) ;
#315 = CARTESIAN_POINT ( 'NONE',  ( 0.0000000000000000000, 0.0000000000000000000, 1.417323000000000333 ) ) ;
#316 = APPLICATION_CONTEXT ( 'automotive_design' ) ;
#317 =( NAMED_UNIT ( * ) PLANE_ANGLE_UNIT ( ) SI_UNIT ( $, .RADIAN. ) );
#318 = ORIENTED_EDGE ( 'NONE', *, *, #288, .F. ) ;
#319 = PRODUCT_DEFINITION ( 'UNKNOWN', '', #190, #12 ) ;
#320 = CARTESIAN_POINT ( 'NONE',  ( 0.0000000000000000000, 4.821434448243128484E-18, 1.707404996040164512E-17 ) ) ;
#321 = EDGE_LOOP ( 'NONE', ( #318, #144, #79, #69 ) ) ;
#322 = CIRCLE ( 'NONE', #312, 0.1031099999999991745 ) ;
#323 = CARTESIAN_POINT ( 'NONE',  ( 0.1299209999999998422, 0.0000000000000000000, 1.531854090909089194 ) ) ;
#324 = ORIENTED_EDGE ( 'NONE', *, *, #163, .F. ) ;
#325 = APPLICATION_CONTEXT ( 'automotive_design' ) ;
#326 = CARTESIAN_POINT ( 'NONE',  ( 0.1181100000000000344, 1.446430334472939084E-17, 2.937755999999999368 ) ) ;
#327 = VERTEX_POINT ( 'NONE', #225 ) ;
#328 = CARTESIAN_POINT ( 'NONE',  ( -0.05314949999999990515, 1.048661992492880112E-17, 0.7874019999999999353 ) ) ;
#329 = VERTEX_POINT ( 'NONE', #173 ) ;
#330 = EDGE_CURVE ( 'NONE', #44, #327, #171, .T. ) ;
#331 = AXIS2_PLACEMENT_3D ( 'NONE', #143, #242, #159 ) ;
#332 = DIRECTION ( 'NONE',  ( -1.000000000000000000, 0.0000000000000000000, 0.0000000000000000000 ) ) ;
#333 = CYLINDRICAL_SURFACE ( 'NONE', #73, 0.05314949999999995373 ) ;
#334 =( LENGTH_UNIT ( ) NAMED_UNIT ( * ) SI_UNIT ( $, .METRE. ) );
#335 = DIMENSIONAL_EXPONENTS ( 1.000000000000000000, 0.0000000000000000000, 0.0000000000000000000, 0.0000000000000000000, 0.0000000000000000000, 0.0000000000000000000, 0.0000000000000000000 ) ;
#336 = CARTESIAN_POINT ( 'NONE',  ( 0.0000000000000000000, 0.0000000000000000000, 0.07874000000000000443 ) ) ;
#337 = DIMENSIONAL_EXPONENTS ( 1.000000000000000000, 0.0000000000000000000, 0.0000000000000000000, 0.0000000000000000000, 0.0000000000000000000, 0.0000000000000000000, 0.0000000000000000000 ) ;
#338 = ORIENTED_EDGE ( 'NONE', *, *, #266, .F. ) ;
#339 = AXIS2_PLACEMENT_3D ( 'NONE', #178, #343, #231 ) ;
#340 = FACE_OUTER_BOUND ( 'NONE', #117, .T. ) ;
#341 = CARTESIAN_POINT ( 'NONE',  ( 0.0000000000000000000, 0.0000000000000000000, 0.1368357679160022988 ) ) ;
#342 = DIRECTION ( 'NONE',  ( 1.000000000000000000, 0.0000000000000000000, 0.0000000000000000000 ) ) ;
#343 = DIRECTION ( 'NONE',  ( 1.000000000000000000, 0.0000000000000000000, 0.0000000000000000000 ) ) ;
#344 = VECTOR ( 'NONE', #191, 39.37007874015748143 ) ;
#345 = FACE_OUTER_BOUND ( 'NONE', #1, .T. ) ;
ENDSEC;
END-ISO-10303-21;
