ISO-10303-21;
HEADER;
FILE_DESCRIPTION (( 'STEP AP214' ),
    '1' );
FILE_NAME ('44402W.STEP',
    '2023-06-22T20:30:26',
    ( '' ),
    ( '' ),
    'SwSTEP 2.0',
    'SolidWorks 2023',
    '' );
FILE_SCHEMA (( 'AUTOMOTIVE_DESIGN' ));
ENDSEC;

DATA;
#1 =( GEOMETRIC_REPRESENTATION_CONTEXT ( 3 ) GLOBAL_UNCERTAINTY_ASSIGNED_CONTEXT ( ( #281 ) ) GLOBAL_UNIT_ASSIGNED_CONTEXT ( ( #5, #224, #140 ) ) REPRESENTATION_CONTEXT ( 'NONE', 'WORKASPACE' ) );
#2 = FACE_OUTER_BOUND ( 'NONE', #298, .T. ) ;
#3 = FILL_AREA_STYLE_COLOUR ( '', #199 ) ;
#4 = DIRECTION ( 'NONE',  ( -0.000000000000000000, -1.000000000000000000, -0.000000000000000000 ) ) ;
#5 =( CONVERSION_BASED_UNIT ( 'INCH', #112 ) LENGTH_UNIT ( ) NAMED_UNIT ( #38 ) );
#6 = AXIS2_PLACEMENT_3D ( 'NONE', #307, #110, #62 ) ;
#7 = DIMENSIONAL_EXPONENTS ( 1.000000000000000000, 0.000000000000000000, 0.000000000000000000, 0.000000000000000000, 0.000000000000000000, 0.000000000000000000, 0.000000000000000000 ) ;
#8 = DIRECTION ( 'NONE',  ( -4.453261087808560759E-17, 1.000000000000000000, -0.000000000000000000 ) ) ;
#9 = PLANE ( 'NONE',  #213 ) ;
#10 = CARTESIAN_POINT ( 'NONE',  ( 4.592425496802575451E-17, 0.000000000000000000, 0.3750000000000000555 ) ) ;
#11 =( CONVERSION_BASED_UNIT ( 'INCH', #219 ) LENGTH_UNIT ( ) NAMED_UNIT ( #7 ) );
#12 = CARTESIAN_POINT ( 'NONE',  ( 4.592425496802575451E-17, 0.000000000000000000, 0.3750000000000000555 ) ) ;
#13 = CYLINDRICAL_SURFACE ( 'NONE', #203, 0.3750000000000001110 ) ;
#14 = PRESENTATION_LAYER_ASSIGNMENT (  '', '', ( #127 ) ) ;
#15 = ADVANCED_FACE ( 'NONE', ( #220 ), #13, .T. ) ;
#16 = CARTESIAN_POINT ( 'NONE',  ( -0.3750000000000002220, 6.000000000000000888, 0.000000000000000000 ) ) ;
#17 = EDGE_LOOP ( 'NONE', ( #302, #20, #60, #126 ) ) ;
#18 = PRODUCT_CONTEXT ( 'NONE', #235, 'mechanical' ) ;
#19 = FILL_AREA_STYLE ('',( #42 ) ) ;
#20 = ORIENTED_EDGE ( 'NONE', *, *, #63, .T. ) ;
#21 = AXIS2_PLACEMENT_3D ( 'NONE', #84, #230, #153 ) ;
#22 = EDGE_LOOP ( 'NONE', ( #304, #196 ) ) ;
#23 = SURFACE_SIDE_STYLE ('',( #231 ) ) ;
#24 = DIRECTION ( 'NONE',  ( -0.000000000000000000, -1.000000000000000000, -0.000000000000000000 ) ) ;
#25 = AXIS2_PLACEMENT_3D ( 'NONE', #129, #80, #280 ) ;
#26 = CIRCLE ( 'NONE', #137, 0.3750000000000001665 ) ;
#27 = CARTESIAN_POINT ( 'NONE',  ( 0.000000000000000000, 3.250000000000000000, 0.000000000000000000 ) ) ;
#28 = DIRECTION ( 'NONE',  ( -1.000000000000000000, -4.453261087808560759E-17, 0.000000000000000000 ) ) ;
#29 = ADVANCED_BREP_SHAPE_REPRESENTATION ( '44402W', ( #209, #109, #147 ), #173 ) ;
#30 = DIRECTION ( 'NONE',  ( -4.453261087808560759E-17, 1.000000000000000000, -0.000000000000000000 ) ) ;
#31 = CARTESIAN_POINT ( 'NONE',  ( -0.3750000000000002776, 6.000000000000000888, 0.000000000000000000 ) ) ;
#32 = CARTESIAN_POINT ( 'NONE',  ( -1.224646799147354440E-16, 6.000000000000000888, 0.000000000000000000 ) ) ;
#33 = COLOUR_RGB ( '',0.7921568627450980005, 0.8196078431372548767, 0.9333333333333333481 ) ;
#34 = UNCERTAINTY_MEASURE_WITH_UNIT (LENGTH_MEASURE( 1.000000000000000082E-05 ), #139, 'distance_accuracy_value', 'NONE');
#35 = DIRECTION ( 'NONE',  ( -1.000000000000000000, 0.000000000000000000, 0.000000000000000000 ) ) ;
#36 = LINE ( 'NONE', #10, #295 ) ;
#37 = ADVANCED_FACE ( 'NONE', ( #2 ), #284, .T. ) ;
#38 = DIMENSIONAL_EXPONENTS ( 1.000000000000000000, 0.000000000000000000, 0.000000000000000000, 0.000000000000000000, 0.000000000000000000, 0.000000000000000000, 0.000000000000000000 ) ;
#39 = SHAPE_DEFINITION_REPRESENTATION ( #85, #29 ) ;
#40 = ORIENTED_EDGE ( 'NONE', *, *, #182, .T. ) ;
#41 = ADVANCED_FACE ( 'NONE', ( #260 ), #204, .T. ) ;
#42 = FILL_AREA_STYLE_COLOUR ( '', #33 ) ;
#43 = SURFACE_STYLE_FILL_AREA ( #134 ) ;
#44 = ORIENTED_EDGE ( 'NONE', *, *, #76, .T. ) ;
#45 = AXIS2_PLACEMENT_3D ( 'NONE', #240, #72, #138 ) ;
#46 = DIRECTION ( 'NONE',  ( 0.000000000000000000, 0.000000000000000000, -1.000000000000000000 ) ) ;
#47 =( LENGTH_UNIT ( ) NAMED_UNIT ( * ) SI_UNIT ( $, .METRE. ) );
#48 = CIRCLE ( 'NONE', #244, 0.3750000000000000555 ) ;
#49 = EDGE_CURVE ( 'NONE', #103, #78, #183, .T. ) ;
#50 = DIRECTION ( 'NONE',  ( -1.000000000000000000, 0.000000000000000000, 0.000000000000000000 ) ) ;
#51 = SURFACE_STYLE_FILL_AREA ( #188 ) ;
#52 = VECTOR ( 'NONE', #155, 39.37007874015748143 ) ;
#53 =( CONVERSION_BASED_UNIT ( 'INCH', #187 ) LENGTH_UNIT ( ) NAMED_UNIT ( #272 ) );
#54 = CLOSED_SHELL ( 'NONE', ( #15, #303, #291, #107 ) ) ;
#55 = UNCERTAINTY_MEASURE_WITH_UNIT (LENGTH_MEASURE( 1.000000000000000082E-05 ), #166, 'distance_accuracy_value', 'NONE');
#56 = VERTEX_POINT ( 'NONE', #262 ) ;
#57 = APPLICATION_PROTOCOL_DEFINITION ( 'draft international standard', 'automotive_design', 1998, #235 ) ;
#58 = ORIENTED_EDGE ( 'NONE', *, *, #99, .T. ) ;
#59 = VERTEX_POINT ( 'NONE', #133 ) ;
#60 = ORIENTED_EDGE ( 'NONE', *, *, #286, .T. ) ;
#61 = AXIS2_PLACEMENT_3D ( 'NONE', #294, #94, #28 ) ;
#62 = DIRECTION ( 'NONE',  ( -1.000000000000000000, 0.000000000000000000, 0.000000000000000000 ) ) ;
#63 = EDGE_CURVE ( 'NONE', #56, #59, #170, .T. ) ;
#64 = AXIS2_PLACEMENT_3D ( 'NONE', #151, #83, #308 ) ;
#65 = AXIS2_PLACEMENT_3D ( 'NONE', #115, #180, #35 ) ;
#66 = SURFACE_STYLE_USAGE ( .BOTH. , #23 ) ;
#67 = SURFACE_STYLE_USAGE ( .BOTH. , #82 ) ;
#68 = PRESENTATION_STYLE_ASSIGNMENT (( #238 ) ) ;
#69 = FILL_AREA_STYLE ('',( #292 ) ) ;
#70 = AXIS2_PLACEMENT_3D ( 'NONE', #255, #24, #237 ) ;
#71 =( LENGTH_UNIT ( ) NAMED_UNIT ( * ) SI_UNIT ( $, .METRE. ) );
#72 = DIRECTION ( 'NONE',  ( 4.453261087808560759E-17, -1.000000000000000000, 0.000000000000000000 ) ) ;
#73 = SURFACE_STYLE_USAGE ( .BOTH. , #178 ) ;
#74 = CYLINDRICAL_SURFACE ( 'NONE', #208, 0.3750000000000001110 ) ;
#75 = PRESENTATION_LAYER_ASSIGNMENT (  '', '', ( #207 ) ) ;
#76 = EDGE_CURVE ( 'NONE', #121, #124, #135, .T. ) ;
#77 = LENGTH_MEASURE_WITH_UNIT ( LENGTH_MEASURE( 0.02539999999999999897 ), #164 );
#78 = VERTEX_POINT ( 'NONE', #12 ) ;
#79 = ORIENTED_EDGE ( 'NONE', *, *, #146, .F. ) ;
#80 = DIRECTION ( 'NONE',  ( -0.000000000000000000, -1.000000000000000000, -0.000000000000000000 ) ) ;
#81 = FILL_AREA_STYLE_COLOUR ( '', #105 ) ;
#82 = SURFACE_SIDE_STYLE ('',( #202 ) ) ;
#83 = DIRECTION ( 'NONE',  ( 0.000000000000000000, 1.000000000000000000, 0.000000000000000000 ) ) ;
#84 = CARTESIAN_POINT ( 'NONE',  ( 0.000000000000000000, 0.000000000000000000, 0.000000000000000000 ) ) ;
#85 = PRODUCT_DEFINITION_SHAPE ( 'NONE', 'NONE',  #128 ) ;
#86 =( NAMED_UNIT ( * ) PLANE_ANGLE_UNIT ( ) SI_UNIT ( $, .RADIAN. ) );
#87 = CARTESIAN_POINT ( 'NONE',  ( -1.224646799147354440E-16, 6.000000000000000888, 0.000000000000000000 ) ) ;
#88 = PRODUCT_DEFINITION_CONTEXT ( 'detailed design', #251, 'design' ) ;
#89 = SURFACE_SIDE_STYLE ('',( #210 ) ) ;
#90 = COLOUR_RGB ( '',0.7921568627450980005, 0.8196078431372548767, 0.9333333333333333481 ) ;
#91 =( GEOMETRIC_REPRESENTATION_CONTEXT ( 3 ) GLOBAL_UNCERTAINTY_ASSIGNED_CONTEXT ( ( #34 ) ) GLOBAL_UNIT_ASSIGNED_CONTEXT ( ( #139, #217, #297 ) ) REPRESENTATION_CONTEXT ( 'NONE', 'WORKASPACE' ) );
#92 = MECHANICAL_DESIGN_GEOMETRIC_PRESENTATION_REPRESENTATION (  '', ( #116 ), #306 ) ;
#93 = FACE_OUTER_BOUND ( 'NONE', #22, .T. ) ;
#94 = DIRECTION ( 'NONE',  ( -4.453261087808560759E-17, 1.000000000000000000, 0.000000000000000000 ) ) ;
#95 = FACE_OUTER_BOUND ( 'NONE', #17, .T. ) ;
#96 = PRESENTATION_STYLE_ASSIGNMENT (( #299 ) ) ;
#97 = PRESENTATION_LAYER_ASSIGNMENT (  '', '', ( #275 ) ) ;
#98 = DIRECTION ( 'NONE',  ( -4.453261087808560759E-17, 1.000000000000000000, -0.000000000000000000 ) ) ;
#99 = EDGE_CURVE ( 'NONE', #300, #121, #236, .T. ) ;
#100 = ORIENTED_EDGE ( 'NONE', *, *, #163, .F. ) ;
#101 = APPLICATION_PROTOCOL_DEFINITION ( 'draft international standard', 'automotive_design', 1998, #251 ) ;
#102 =( GEOMETRIC_REPRESENTATION_CONTEXT ( 3 ) GLOBAL_UNCERTAINTY_ASSIGNED_CONTEXT ( ( #119 ) ) GLOBAL_UNIT_ASSIGNED_CONTEXT ( ( #108, #205, #309 ) ) REPRESENTATION_CONTEXT ( 'NONE', 'WORKASPACE' ) );
#103 = VERTEX_POINT ( 'NONE', #234 ) ;
#104 = ORIENTED_EDGE ( 'NONE', *, *, #130, .F. ) ;
#105 = COLOUR_RGB ( '',1.000000000000000000, 0.000000000000000000, 0.000000000000000000 ) ;
#106 = AXIS2_PLACEMENT_3D ( 'NONE', #181, #265, #211 ) ;
#107 = ADVANCED_FACE ( 'NONE', ( #214 ), #227, .F. ) ;
#108 =( CONVERSION_BASED_UNIT ( 'INCH', #174 ) LENGTH_UNIT ( ) NAMED_UNIT ( #120 ) );
#109 = MANIFOLD_SOLID_BREP ( 'Revolve - Tool Body (Straight Shanked)', #54 ) ;
#110 = DIRECTION ( 'NONE',  ( -4.453261087808560759E-17, 1.000000000000000000, -0.000000000000000000 ) ) ;
#111 = CARTESIAN_POINT ( 'NONE',  ( 0.000000000000000000, 0.000000000000000000, 0.000000000000000000 ) ) ;
#112 = LENGTH_MEASURE_WITH_UNIT ( LENGTH_MEASURE( 0.02539999999999999897 ), #285 );
#113 =( LENGTH_UNIT ( ) NAMED_UNIT ( * ) SI_UNIT ( $, .METRE. ) );
#114 = DIRECTION ( 'NONE',  ( -1.000000000000000000, 0.000000000000000000, 0.000000000000000000 ) ) ;
#115 = CARTESIAN_POINT ( 'NONE',  ( -1.224646799147354440E-16, 6.000000000000000888, 0.000000000000000000 ) ) ;
#116 = STYLED_ITEM ( 'NONE', ( #96 ), #192 ) ;
#117 = CARTESIAN_POINT ( 'NONE',  ( 0.3750000000000000555, 3.250000000000000000, 4.592425496802576684E-17 ) ) ;
#118 = CYLINDRICAL_SURFACE ( 'NONE', #161, 0.3750000000000000555 ) ;
#119 = UNCERTAINTY_MEASURE_WITH_UNIT (LENGTH_MEASURE( 1.000000000000000082E-05 ), #108, 'distance_accuracy_value', 'NONE');
#120 = DIMENSIONAL_EXPONENTS ( 1.000000000000000000, 0.000000000000000000, 0.000000000000000000, 0.000000000000000000, 0.000000000000000000, 0.000000000000000000, 0.000000000000000000 ) ;
#121 = VERTEX_POINT ( 'NONE', #143 ) ;
#122 = ORIENTED_EDGE ( 'NONE', *, *, #49, .F. ) ;
#123 = ORIENTED_EDGE ( 'NONE', *, *, #76, .F. ) ;
#124 = VERTEX_POINT ( 'NONE', #31 ) ;
#125 = AXIS2_PLACEMENT_3D ( 'NONE', #177, #172, #46 ) ;
#126 = ORIENTED_EDGE ( 'NONE', *, *, #197, .F. ) ;
#127 = STYLED_ITEM ( 'NONE', ( #159 ), #209 ) ;
#128 = PRODUCT_DEFINITION ( 'UNKNOWN', '', #269, #88 ) ;
#129 = CARTESIAN_POINT ( 'NONE',  ( 0.000000000000000000, 0.000000000000000000, 0.000000000000000000 ) ) ;
#130 = EDGE_CURVE ( 'NONE', #300, #167, #141, .T. ) ;
#131 = STYLED_ITEM ( 'NONE', ( #232 ), #41 ) ;
#132 =( LENGTH_UNIT ( ) NAMED_UNIT ( * ) SI_UNIT ( $, .METRE. ) );
#133 = CARTESIAN_POINT ( 'NONE',  ( 0.000000000000000000, 3.250000000000000000, -0.3750000000000000555 ) ) ;
#134 = FILL_AREA_STYLE ('',( #154 ) ) ;
#135 = LINE ( 'NONE', #16, #160 ) ;
#136 =( GEOMETRIC_REPRESENTATION_CONTEXT ( 3 ) GLOBAL_UNCERTAINTY_ASSIGNED_CONTEXT ( ( #179 ) ) GLOBAL_UNIT_ASSIGNED_CONTEXT ( ( #256, #258, #233 ) ) REPRESENTATION_CONTEXT ( 'NONE', 'WORKASPACE' ) );
#137 = AXIS2_PLACEMENT_3D ( 'NONE', #87, #30, #114 ) ;
#138 = DIRECTION ( 'NONE',  ( 1.000000000000000000, 4.453261087808560759E-17, 0.000000000000000000 ) ) ;
#139 =( CONVERSION_BASED_UNIT ( 'INCH', #246 ) LENGTH_UNIT ( ) NAMED_UNIT ( #266 ) );
#140 =( NAMED_UNIT ( * ) SI_UNIT ( $, .STERADIAN. ) SOLID_ANGLE_UNIT ( ) );
#141 = LINE ( 'NONE', #241, #52 ) ;
#142 = PRODUCT_RELATED_PRODUCT_CATEGORY ( 'part', '', ( #176 ) ) ;
#143 = CARTESIAN_POINT ( 'NONE',  ( -0.3750000000000000555, 3.250000000000000000, 0.000000000000000000 ) ) ;
#144 = MECHANICAL_DESIGN_GEOMETRIC_PRESENTATION_REPRESENTATION (  '', ( #127 ), #91 ) ;
#145 =( LENGTH_UNIT ( ) NAMED_UNIT ( * ) SI_UNIT ( $, .METRE. ) );
#146 = EDGE_CURVE ( 'NONE', #124, #167, #222, .T. ) ;
#147 = AXIS2_PLACEMENT_3D ( 'NONE', #271, #273, #195 ) ;
#148 = ORIENTED_EDGE ( 'NONE', *, *, #146, .T. ) ;
#149 = MECHANICAL_DESIGN_GEOMETRIC_PRESENTATION_REPRESENTATION (  '', ( #131 ), #102 ) ;
#150 = EDGE_LOOP ( 'NONE', ( #201, #276, #122, #226 ) ) ;
#151 = CARTESIAN_POINT ( 'NONE',  ( 0.000000000000000000, 3.250000000000000000, 0.000000000000000000 ) ) ;
#152 = FILL_AREA_STYLE ('',( #278 ) ) ;
#153 = DIRECTION ( 'NONE',  ( 0.000000000000000000, 0.000000000000000000, -1.000000000000000000 ) ) ;
#154 = FILL_AREA_STYLE_COLOUR ( '', #253 ) ;
#155 = DIRECTION ( 'NONE',  ( -4.453261087808560759E-17, 1.000000000000000000, -0.000000000000000000 ) ) ;
#156 = MECHANICAL_DESIGN_GEOMETRIC_PRESENTATION_REPRESENTATION (  '', ( #243 ), #136 ) ;
#157 = DIRECTION ( 'NONE',  ( 0.000000000000000000, 0.000000000000000000, -1.000000000000000000 ) ) ;
#158 = SURFACE_SIDE_STYLE ('',( #247 ) ) ;
#159 = PRESENTATION_STYLE_ASSIGNMENT (( #162 ) ) ;
#160 = VECTOR ( 'NONE', #206, 39.37007874015748143 ) ;
#161 = AXIS2_PLACEMENT_3D ( 'NONE', #111, #4, #186 ) ;
#162 = SURFACE_STYLE_USAGE ( .BOTH. , #158 ) ;
#163 = EDGE_CURVE ( 'NONE', #59, #56, #48, .T. ) ;
#164 =( LENGTH_UNIT ( ) NAMED_UNIT ( * ) SI_UNIT ( $, .METRE. ) );
#165 = ORIENTED_EDGE ( 'NONE', *, *, #279, .T. ) ;
#166 =( CONVERSION_BASED_UNIT ( 'INCH', #77 ) LENGTH_UNIT ( ) NAMED_UNIT ( #184 ) );
#167 = VERTEX_POINT ( 'NONE', #215 ) ;
#168 = DIRECTION ( 'NONE',  ( 0.000000000000000000, -1.000000000000000000, -0.000000000000000000 ) ) ;
#169 = ORIENTED_EDGE ( 'NONE', *, *, #279, .F. ) ;
#170 = CIRCLE ( 'NONE', #125, 0.3750000000000000555 ) ;
#171 = ADVANCED_FACE ( 'NONE', ( #95 ), #118, .T. ) ;
#172 = DIRECTION ( 'NONE',  ( -0.000000000000000000, -1.000000000000000000, -0.000000000000000000 ) ) ;
#173 =( GEOMETRIC_REPRESENTATION_CONTEXT ( 3 ) GLOBAL_UNCERTAINTY_ASSIGNED_CONTEXT ( ( #264 ) ) GLOBAL_UNIT_ASSIGNED_CONTEXT ( ( #11, #293, #268 ) ) REPRESENTATION_CONTEXT ( 'NONE', 'WORKASPACE' ) );
#174 = LENGTH_MEASURE_WITH_UNIT ( LENGTH_MEASURE( 0.02539999999999999897 ), #132 );
#175 = PRESENTATION_STYLE_ASSIGNMENT (( #66 ) ) ;
#176 = PRODUCT ( '44402W', '44402W', '', ( #18 ) ) ;
#177 = CARTESIAN_POINT ( 'NONE',  ( 0.000000000000000000, 3.250000000000000000, 0.000000000000000000 ) ) ;
#178 = SURFACE_SIDE_STYLE ('',( #51 ) ) ;
#179 = UNCERTAINTY_MEASURE_WITH_UNIT (LENGTH_MEASURE( 1.000000000000000082E-05 ), #256, 'distance_accuracy_value', 'NONE');
#180 = DIRECTION ( 'NONE',  ( -4.453261087808560759E-17, 1.000000000000000000, -0.000000000000000000 ) ) ;
#181 = CARTESIAN_POINT ( 'NONE',  ( 0.000000000000000000, 3.250000000000000000, 0.000000000000000000 ) ) ;
#182 = EDGE_CURVE ( 'NONE', #167, #124, #26, .T. ) ;
#183 = CIRCLE ( 'NONE', #21, 0.3750000000000000555 ) ;
#184 = DIMENSIONAL_EXPONENTS ( 1.000000000000000000, 0.000000000000000000, 0.000000000000000000, 0.000000000000000000, 0.000000000000000000, 0.000000000000000000, 0.000000000000000000 ) ;
#185 = FACE_OUTER_BOUND ( 'NONE', #249, .T. ) ;
#186 = DIRECTION ( 'NONE',  ( 0.000000000000000000, 0.000000000000000000, -1.000000000000000000 ) ) ;
#187 = LENGTH_MEASURE_WITH_UNIT ( LENGTH_MEASURE( 0.02539999999999999897 ), #71 );
#188 = FILL_AREA_STYLE ('',( #3 ) ) ;
#189 = FACE_OUTER_BOUND ( 'NONE', #277, .T. ) ;
#190 =( GEOMETRIC_REPRESENTATION_CONTEXT ( 3 ) GLOBAL_UNCERTAINTY_ASSIGNED_CONTEXT ( ( #221 ) ) GLOBAL_UNIT_ASSIGNED_CONTEXT ( ( #53, #86, #267 ) ) REPRESENTATION_CONTEXT ( 'NONE', 'WORKASPACE' ) );
#191 = VECTOR ( 'NONE', #287, 39.37007874015748143 ) ;
#192 = ADVANCED_FACE ( 'NONE', ( #93 ), #9, .T. ) ;
#193 = DIRECTION ( 'NONE',  ( -0.000000000000000000, -1.000000000000000000, -0.000000000000000000 ) ) ;
#194 = CARTESIAN_POINT ( 'NONE',  ( -1.224646799147354440E-16, 6.000000000000000888, 0.000000000000000000 ) ) ;
#195 = DIRECTION ( 'NONE',  ( 1.000000000000000000, 0.000000000000000000, 0.000000000000000000 ) ) ;
#196 = ORIENTED_EDGE ( 'NONE', *, *, #197, .T. ) ;
#197 = EDGE_CURVE ( 'NONE', #78, #103, #289, .T. ) ;
#198 = COLOUR_RGB ( '',1.000000000000000000, 0.000000000000000000, 0.000000000000000000 ) ;
#199 = COLOUR_RGB ( '',1.000000000000000000, 0.000000000000000000, 0.000000000000000000 ) ;
#200 = ORIENTED_EDGE ( 'NONE', *, *, #182, .F. ) ;
#201 = ORIENTED_EDGE ( 'NONE', *, *, #163, .T. ) ;
#202 = SURFACE_STYLE_FILL_AREA ( #283 ) ;
#203 = AXIS2_PLACEMENT_3D ( 'NONE', #194, #98, #50 ) ;
#204 = CYLINDRICAL_SURFACE ( 'NONE', #25, 0.3750000000000000555 ) ;
#205 =( NAMED_UNIT ( * ) PLANE_ANGLE_UNIT ( ) SI_UNIT ( $, .RADIAN. ) );
#206 = DIRECTION ( 'NONE',  ( -4.453261087808560759E-17, 1.000000000000000000, -0.000000000000000000 ) ) ;
#207 = STYLED_ITEM ( 'NONE', ( #68 ), #109 ) ;
#208 = AXIS2_PLACEMENT_3D ( 'NONE', #32, #8, #290 ) ;
#209 = MANIFOLD_SOLID_BREP ( 'Revolve - Cutting Edge', #274 ) ;
#210 = SURFACE_STYLE_FILL_AREA ( #69 ) ;
#211 = DIRECTION ( 'NONE',  ( -1.000000000000000000, 0.000000000000000000, 0.000000000000000000 ) ) ;
#212 = PRESENTATION_LAYER_ASSIGNMENT (  '', '', ( #243 ) ) ;
#213 = AXIS2_PLACEMENT_3D ( 'NONE', #261, #168, #257 ) ;
#214 = FACE_OUTER_BOUND ( 'NONE', #223, .T. ) ;
#215 = CARTESIAN_POINT ( 'NONE',  ( 0.3750000000000000555, 6.000000000000000888, 4.592425496802576684E-17 ) ) ;
#216 = PLANE ( 'NONE',  #61 ) ;
#217 =( NAMED_UNIT ( * ) PLANE_ANGLE_UNIT ( ) SI_UNIT ( $, .RADIAN. ) );
#218 =( NAMED_UNIT ( * ) SI_UNIT ( $, .STERADIAN. ) SOLID_ANGLE_UNIT ( ) );
#219 = LENGTH_MEASURE_WITH_UNIT ( LENGTH_MEASURE( 0.02539999999999999897 ), #113 );
#220 = FACE_OUTER_BOUND ( 'NONE', #225, .T. ) ;
#221 = UNCERTAINTY_MEASURE_WITH_UNIT (LENGTH_MEASURE( 1.000000000000000082E-05 ), #53, 'distance_accuracy_value', 'NONE');
#222 = CIRCLE ( 'NONE', #65, 0.3750000000000001665 ) ;
#223 = EDGE_LOOP ( 'NONE', ( #148, #40 ) ) ;
#224 =( NAMED_UNIT ( * ) PLANE_ANGLE_UNIT ( ) SI_UNIT ( $, .RADIAN. ) );
#225 = EDGE_LOOP ( 'NONE', ( #165, #250, #79, #123 ) ) ;
#226 = ORIENTED_EDGE ( 'NONE', *, *, #286, .F. ) ;
#227 = PLANE ( 'NONE',  #45 ) ;
#228 =( NAMED_UNIT ( * ) PLANE_ANGLE_UNIT ( ) SI_UNIT ( $, .RADIAN. ) );
#229 = ORIENTED_EDGE ( 'NONE', *, *, #63, .F. ) ;
#230 = DIRECTION ( 'NONE',  ( -0.000000000000000000, -1.000000000000000000, -0.000000000000000000 ) ) ;
#231 = SURFACE_STYLE_FILL_AREA ( #152 ) ;
#232 = PRESENTATION_STYLE_ASSIGNMENT (( #67 ) ) ;
#233 =( NAMED_UNIT ( * ) SI_UNIT ( $, .STERADIAN. ) SOLID_ANGLE_UNIT ( ) );
#234 = CARTESIAN_POINT ( 'NONE',  ( 0.000000000000000000, 0.000000000000000000, -0.3750000000000000555 ) ) ;
#235 = APPLICATION_CONTEXT ( 'automotive_design' ) ;
#236 = CIRCLE ( 'NONE', #6, 0.3750000000000000555 ) ;
#237 = DIRECTION ( 'NONE',  ( 0.000000000000000000, 0.000000000000000000, -1.000000000000000000 ) ) ;
#238 = SURFACE_STYLE_USAGE ( .BOTH. , #89 ) ;
#239 = CARTESIAN_POINT ( 'NONE',  ( 0.000000000000000000, 0.000000000000000000, -0.3750000000000000555 ) ) ;
#240 = CARTESIAN_POINT ( 'NONE',  ( 0.3750000000000000555, 6.000000000000000888, 0.000000000000000000 ) ) ;
#241 = CARTESIAN_POINT ( 'NONE',  ( 0.3749999999999999445, 6.000000000000000888, 4.592425496802576068E-17 ) ) ;
#242 = LINE ( 'NONE', #239, #191 ) ;
#243 = STYLED_ITEM ( 'NONE', ( #175 ), #37 ) ;
#244 = AXIS2_PLACEMENT_3D ( 'NONE', #27, #245, #157 ) ;
#245 = DIRECTION ( 'NONE',  ( -0.000000000000000000, -1.000000000000000000, -0.000000000000000000 ) ) ;
#246 = LENGTH_MEASURE_WITH_UNIT ( LENGTH_MEASURE( 0.02539999999999999897 ), #145 );
#247 = SURFACE_STYLE_FILL_AREA ( #19 ) ;
#248 = DIMENSIONAL_EXPONENTS ( 1.000000000000000000, 0.000000000000000000, 0.000000000000000000, 0.000000000000000000, 0.000000000000000000, 0.000000000000000000, 0.000000000000000000 ) ;
#249 = EDGE_LOOP ( 'NONE', ( #104, #58, #44, #200 ) ) ;
#250 = ORIENTED_EDGE ( 'NONE', *, *, #130, .T. ) ;
#251 = APPLICATION_CONTEXT ( 'automotive_design' ) ;
#252 = MECHANICAL_DESIGN_GEOMETRIC_PRESENTATION_REPRESENTATION (  '', ( #207 ), #190 ) ;
#253 = COLOUR_RGB ( '',1.000000000000000000, 0.000000000000000000, 0.000000000000000000 ) ;
#254 = ORIENTED_EDGE ( 'NONE', *, *, #99, .F. ) ;
#255 = CARTESIAN_POINT ( 'NONE',  ( 0.000000000000000000, 0.000000000000000000, 0.000000000000000000 ) ) ;
#256 =( CONVERSION_BASED_UNIT ( 'INCH', #305 ) LENGTH_UNIT ( ) NAMED_UNIT ( #248 ) );
#257 = DIRECTION ( 'NONE',  ( 0.000000000000000000, 0.000000000000000000, -1.000000000000000000 ) ) ;
#258 =( NAMED_UNIT ( * ) PLANE_ANGLE_UNIT ( ) SI_UNIT ( $, .RADIAN. ) );
#259 = MECHANICAL_DESIGN_GEOMETRIC_PRESENTATION_REPRESENTATION (  '', ( #275 ), #1 ) ;
#260 = FACE_OUTER_BOUND ( 'NONE', #150, .T. ) ;
#261 = CARTESIAN_POINT ( 'NONE',  ( 0.000000000000000000, 0.000000000000000000, 0.000000000000000000 ) ) ;
#262 = CARTESIAN_POINT ( 'NONE',  ( 4.592425496802575451E-17, 3.250000000000000000, 0.3750000000000000555 ) ) ;
#263 = EDGE_CURVE ( 'NONE', #56, #78, #36, .T. ) ;
#264 = UNCERTAINTY_MEASURE_WITH_UNIT (LENGTH_MEASURE( 1.000000000000000082E-05 ), #11, 'distance_accuracy_value', 'NONE');
#265 = DIRECTION ( 'NONE',  ( -4.453261087808560759E-17, 1.000000000000000000, -0.000000000000000000 ) ) ;
#266 = DIMENSIONAL_EXPONENTS ( 1.000000000000000000, 0.000000000000000000, 0.000000000000000000, 0.000000000000000000, 0.000000000000000000, 0.000000000000000000, 0.000000000000000000 ) ;
#267 =( NAMED_UNIT ( * ) SI_UNIT ( $, .STERADIAN. ) SOLID_ANGLE_UNIT ( ) );
#268 =( NAMED_UNIT ( * ) SI_UNIT ( $, .STERADIAN. ) SOLID_ANGLE_UNIT ( ) );
#269 = PRODUCT_DEFINITION_FORMATION_WITH_SPECIFIED_SOURCE ( 'ANY', '', #176, .NOT_KNOWN. ) ;
#270 = PRESENTATION_STYLE_ASSIGNMENT (( #73 ) ) ;
#271 = CARTESIAN_POINT ( 'NONE',  ( 0.000000000000000000, 0.000000000000000000, 0.000000000000000000 ) ) ;
#272 = DIMENSIONAL_EXPONENTS ( 1.000000000000000000, 0.000000000000000000, 0.000000000000000000, 0.000000000000000000, 0.000000000000000000, 0.000000000000000000, 0.000000000000000000 ) ;
#273 = DIRECTION ( 'NONE',  ( 0.000000000000000000, 0.000000000000000000, 1.000000000000000000 ) ) ;
#274 = CLOSED_SHELL ( 'NONE', ( #41, #37, #171, #192 ) ) ;
#275 = STYLED_ITEM ( 'NONE', ( #270 ), #171 ) ;
#276 = ORIENTED_EDGE ( 'NONE', *, *, #263, .T. ) ;
#277 = EDGE_LOOP ( 'NONE', ( #169, #254 ) ) ;
#278 = FILL_AREA_STYLE_COLOUR ( '', #198 ) ;
#279 = EDGE_CURVE ( 'NONE', #121, #300, #282, .T. ) ;
#280 = DIRECTION ( 'NONE',  ( 0.000000000000000000, 0.000000000000000000, -1.000000000000000000 ) ) ;
#281 = UNCERTAINTY_MEASURE_WITH_UNIT (LENGTH_MEASURE( 1.000000000000000082E-05 ), #5, 'distance_accuracy_value', 'NONE');
#282 = CIRCLE ( 'NONE', #106, 0.3750000000000000555 ) ;
#283 = FILL_AREA_STYLE ('',( #81 ) ) ;
#284 = PLANE ( 'NONE',  #64 ) ;
#285 =( LENGTH_UNIT ( ) NAMED_UNIT ( * ) SI_UNIT ( $, .METRE. ) );
#286 = EDGE_CURVE ( 'NONE', #59, #103, #242, .T. ) ;
#287 = DIRECTION ( 'NONE',  ( -0.000000000000000000, -1.000000000000000000, -0.000000000000000000 ) ) ;
#288 = PRESENTATION_LAYER_ASSIGNMENT (  '', '', ( #131 ) ) ;
#289 = CIRCLE ( 'NONE', #70, 0.3750000000000000555 ) ;
#290 = DIRECTION ( 'NONE',  ( -1.000000000000000000, 0.000000000000000000, 0.000000000000000000 ) ) ;
#291 = ADVANCED_FACE ( 'NONE', ( #185 ), #74, .T. ) ;
#292 = FILL_AREA_STYLE_COLOUR ( '', #90 ) ;
#293 =( NAMED_UNIT ( * ) PLANE_ANGLE_UNIT ( ) SI_UNIT ( $, .RADIAN. ) );
#294 = CARTESIAN_POINT ( 'NONE',  ( 3.718412684285603637E-34, 3.250000000000000000, 0.000000000000000000 ) ) ;
#295 = VECTOR ( 'NONE', #193, 39.37007874015748143 ) ;
#296 = SURFACE_SIDE_STYLE ('',( #43 ) ) ;
#297 =( NAMED_UNIT ( * ) SI_UNIT ( $, .STERADIAN. ) SOLID_ANGLE_UNIT ( ) );
#298 = EDGE_LOOP ( 'NONE', ( #100, #229 ) ) ;
#299 = SURFACE_STYLE_USAGE ( .BOTH. , #296 ) ;
#300 = VERTEX_POINT ( 'NONE', #117 ) ;
#301 = PRESENTATION_LAYER_ASSIGNMENT (  '', '', ( #116 ) ) ;
#302 = ORIENTED_EDGE ( 'NONE', *, *, #263, .F. ) ;
#303 = ADVANCED_FACE ( 'NONE', ( #189 ), #216, .F. ) ;
#304 = ORIENTED_EDGE ( 'NONE', *, *, #49, .T. ) ;
#305 = LENGTH_MEASURE_WITH_UNIT ( LENGTH_MEASURE( 0.02539999999999999897 ), #47 );
#306 =( GEOMETRIC_REPRESENTATION_CONTEXT ( 3 ) GLOBAL_UNCERTAINTY_ASSIGNED_CONTEXT ( ( #55 ) ) GLOBAL_UNIT_ASSIGNED_CONTEXT ( ( #166, #228, #218 ) ) REPRESENTATION_CONTEXT ( 'NONE', 'WORKASPACE' ) );
#307 = CARTESIAN_POINT ( 'NONE',  ( 0.000000000000000000, 3.250000000000000000, 0.000000000000000000 ) ) ;
#308 = DIRECTION ( 'NONE',  ( 0.000000000000000000, -0.000000000000000000, 1.000000000000000000 ) ) ;
#309 =( NAMED_UNIT ( * ) SI_UNIT ( $, .STERADIAN. ) SOLID_ANGLE_UNIT ( ) );
ENDSEC;
END-ISO-10303-21;
