ISO-10303-21;
HEADER;
FILE_DESCRIPTION (( 'STEP AP214' ),
    '1' );
FILE_NAME ('Micro_MMBM-030-12X.STEP',
    '2021-09-03T16:32:43',
    ( '' ),
    ( '' ),
    'SwSTEP 2.0',
    'SolidWorks 2020',
    '' );
FILE_SCHEMA (( 'AUTOMOTIVE_DESIGN' ));
ENDSEC;

DATA;
#1 = CYLINDRICAL_SURFACE ( 'NONE', #26, 0.05708650000000004693 ) ;
#2 = ORIENTED_EDGE ( 'NONE', *, *, #295, .T. ) ;
#3 = AXIS2_PLACEMENT_3D ( 'NONE', #68, #119, #170 ) ;
#4 = APPLICATION_CONTEXT ( 'automotive_design' ) ;
#5 = VERTEX_POINT ( 'NONE', #254 ) ;
#6 = STYLED_ITEM ( 'NONE', ( #29 ), #179 ) ;
#7 = DIRECTION ( 'NONE',  ( -1.000000000000000000, 0.0000000000000000000, 0.0000000000000000000 ) ) ;
#8 = CARTESIAN_POINT ( 'NONE',  ( 0.0000000000000000000, 0.0000000000000000000, 0.0000000000000000000 ) ) ;
#9 = ORIENTED_EDGE ( 'NONE', *, *, #195, .T. ) ;
#10 = VECTOR ( 'NONE', #236, 39.37007874015748143 ) ;
#11 = DIRECTION ( 'NONE',  ( -1.000000000000000000, 0.0000000000000000000, 0.0000000000000000000 ) ) ;
#12 = EDGE_LOOP ( 'NONE', ( #204, #63, #66, #42 ) ) ;
#13 = DIRECTION ( 'NONE',  ( -1.000000000000000000, 0.0000000000000000000, 0.0000000000000000000 ) ) ;
#14 = DIRECTION ( 'NONE',  ( -0.0000000000000000000, -0.0000000000000000000, -1.000000000000000000 ) ) ;
#15 = DIRECTION ( 'NONE',  ( -0.0000000000000000000, -0.0000000000000000000, -1.000000000000000000 ) ) ;
#16 =( GEOMETRIC_REPRESENTATION_CONTEXT ( 3 ) GLOBAL_UNCERTAINTY_ASSIGNED_CONTEXT ( ( #169 ) ) GLOBAL_UNIT_ASSIGNED_CONTEXT ( ( #100, #306, #79 ) ) REPRESENTATION_CONTEXT ( 'NONE', 'WORKASPACE' ) );
#17 = CARTESIAN_POINT ( 'NONE',  ( 0.0000000000000000000, 0.0000000000000000000, 2.244094000000000033 ) ) ;
#18 = LINE ( 'NONE', #314, #310 ) ;
#19 = CARTESIAN_POINT ( 'NONE',  ( -0.1031100000000002570, 0.0000000000000000000, 2.244094000000000033 ) ) ;
#20 = VECTOR ( 'NONE', #160, 39.37007874015748143 ) ;
#21 = CARTESIAN_POINT ( 'NONE',  ( 0.1181100000000000066, 1.446430334472939084E-17, 0.4724410000000000553 ) ) ;
#22 = CARTESIAN_POINT ( 'NONE',  ( 0.0000000000000000000, 0.0000000000000000000, 0.4724410000000000553 ) ) ;
#23 = FACE_BOUND ( 'NONE', #210, .T. ) ;
#24 = DIRECTION ( 'NONE',  ( 1.000000000000000000, 0.0000000000000000000, 0.0000000000000000000 ) ) ;
#25 = ORIENTED_EDGE ( 'NONE', *, *, #243, .T. ) ;
#26 = AXIS2_PLACEMENT_3D ( 'NONE', #56, #232, #122 ) ;
#27 = EDGE_CURVE ( 'NONE', #85, #157, #364, .T. ) ;
#28 =( NAMED_UNIT ( * ) SI_UNIT ( $, .STERADIAN. ) SOLID_ANGLE_UNIT ( ) );
#29 = PRESENTATION_STYLE_ASSIGNMENT (( #238 ) ) ;
#30 = ORIENTED_EDGE ( 'NONE', *, *, #195, .F. ) ;
#31 = CIRCLE ( 'NONE', #317, 0.05708650000000001917 ) ;
#32 = DIRECTION ( 'NONE',  ( 1.000000000000000000, 0.0000000000000000000, 0.0000000000000000000 ) ) ;
#33 = ORIENTED_EDGE ( 'NONE', *, *, #175, .T. ) ;
#34 = VERTEX_POINT ( 'NONE', #21 ) ;
#35 = CARTESIAN_POINT ( 'NONE',  ( 0.05708650000000005387, 6.991079949952545893E-18, 0.4724409999999999998 ) ) ;
#36 = VERTEX_POINT ( 'NONE', #19 ) ;
#37 = FACE_OUTER_BOUND ( 'NONE', #74, .T. ) ;
#38 = ORIENTED_EDGE ( 'NONE', *, *, #118, .T. ) ;
#39 = PRODUCT ( 'Micro_MMBM-030-12X', 'Micro_MMBM-030-12X', '', ( #183 ) ) ;
#40 = CONICAL_SURFACE ( 'NONE', #140, 0.1031100000000002570, 0.7853981633974318477 ) ;
#41 = CARTESIAN_POINT ( 'NONE',  ( 0.0000000000000000000, 0.0000000000000000000, 0.0000000000000000000 ) ) ;
#42 = ORIENTED_EDGE ( 'NONE', *, *, #113, .F. ) ;
#43 =( GEOMETRIC_REPRESENTATION_CONTEXT ( 3 ) GLOBAL_UNCERTAINTY_ASSIGNED_CONTEXT ( ( #196 ) ) GLOBAL_UNIT_ASSIGNED_CONTEXT ( ( #50, #256, #28 ) ) REPRESENTATION_CONTEXT ( 'NONE', 'WORKASPACE' ) );
#44 = EDGE_CURVE ( 'NONE', #104, #129, #354, .T. ) ;
#45 = SURFACE_SIDE_STYLE ('',( #377 ) ) ;
#46 = CARTESIAN_POINT ( 'NONE',  ( 0.0000000000000000000, 0.0000000000000000000, 2.244094000000000033 ) ) ;
#47 = DIRECTION ( 'NONE',  ( -0.0000000000000000000, -0.0000000000000000000, -1.000000000000000000 ) ) ;
#48 = FACE_OUTER_BOUND ( 'NONE', #151, .T. ) ;
#49 = AXIS2_PLACEMENT_3D ( 'NONE', #138, #259, #280 ) ;
#50 =( CONVERSION_BASED_UNIT ( 'INCH', #308 ) LENGTH_UNIT ( ) NAMED_UNIT ( #143 ) );
#51 = AXIS2_PLACEMENT_3D ( 'NONE', #17, #370, #345 ) ;
#52 = DIRECTION ( 'NONE',  ( 1.000000000000000000, 0.0000000000000000000, 0.0000000000000000000 ) ) ;
#53 = CARTESIAN_POINT ( 'NONE',  ( -0.1181100000000000066, 0.0000000000000000000, 2.244094000000000033 ) ) ;
#54 = ORIENTED_EDGE ( 'NONE', *, *, #149, .T. ) ;
#55 = DIRECTION ( 'NONE',  ( 0.1736481776669296095, 2.126576849575762362E-17, -0.9848077530122082424 ) ) ;
#56 = CARTESIAN_POINT ( 'NONE',  ( 0.0000000000000000000, 0.0000000000000000000, 0.0000000000000000000 ) ) ;
#57 = ORIENTED_EDGE ( 'NONE', *, *, #343, .T. ) ;
#58 = DIRECTION ( 'NONE',  ( 0.7071067811865358044, 8.659560562354788645E-17, -0.7071067811865590080 ) ) ;
#59 = ORIENTED_EDGE ( 'NONE', *, *, #27, .F. ) ;
#60 = AXIS2_PLACEMENT_3D ( 'NONE', #304, #47, #341 ) ;
#61 = ADVANCED_FACE ( 'NONE', ( #48 ), #106, .T. ) ;
#62 =( CONVERSION_BASED_UNIT ( 'INCH', #359 ) LENGTH_UNIT ( ) NAMED_UNIT ( #197 ) );
#63 = ORIENTED_EDGE ( 'NONE', *, *, #86, .T. ) ;
#64 = APPLICATION_CONTEXT ( 'automotive_design' ) ;
#65 = AXIS2_PLACEMENT_3D ( 'NONE', #371, #134, #251 ) ;
#66 = ORIENTED_EDGE ( 'NONE', *, *, #230, .T. ) ;
#67 = AXIS2_PLACEMENT_3D ( 'NONE', #22, #105, #365 ) ;
#68 = CARTESIAN_POINT ( 'NONE',  ( 0.0000000000000000000, 0.0000000000000000000, 2.244094000000000033 ) ) ;
#69 = SURFACE_STYLE_FILL_AREA ( #241 ) ;
#70 = VERTEX_POINT ( 'NONE', #367 ) ;
#71 = PRESENTATION_LAYER_ASSIGNMENT (  '', '', ( #6 ) ) ;
#72 = CARTESIAN_POINT ( 'NONE',  ( 0.0000000000000000000, 0.0000000000000000000, 0.0000000000000000000 ) ) ;
#73 = EDGE_CURVE ( 'NONE', #70, #182, #219, .T. ) ;
#74 = EDGE_LOOP ( 'NONE', ( #120, #300, #249, #324 ) ) ;
#75 = FACE_OUTER_BOUND ( 'NONE', #12, .T. ) ;
#76 = CARTESIAN_POINT ( 'NONE',  ( -0.05904909450000001003, 0.0000000000000000000, 0.1181100000000000066 ) ) ;
#77 = DIRECTION ( 'NONE',  ( 0.0000000000000000000, 0.0000000000000000000, -1.000000000000000000 ) ) ;
#78 = ADVANCED_FACE ( 'NONE', ( #227 ), #228, .T. ) ;
#79 =( NAMED_UNIT ( * ) SI_UNIT ( $, .STERADIAN. ) SOLID_ANGLE_UNIT ( ) );
#80 = DIRECTION ( 'NONE',  ( 0.0000000000000000000, 0.0000000000000000000, 1.000000000000000000 ) ) ;
#81 = FACE_OUTER_BOUND ( 'NONE', #277, .T. ) ;
#82 = AXIS2_PLACEMENT_3D ( 'NONE', #72, #186, #336 ) ;
#83 = ORIENTED_EDGE ( 'NONE', *, *, #113, .T. ) ;
#84 = CARTESIAN_POINT ( 'NONE',  ( 0.05708650000000001917, 7.111254203575000753E-18, 0.1292404265071317171 ) ) ;
#85 = VERTEX_POINT ( 'NONE', #107 ) ;
#86 = EDGE_CURVE ( 'NONE', #358, #5, #348, .T. ) ;
#87 = LINE ( 'NONE', #316, #163 ) ;
#88 = ORIENTED_EDGE ( 'NONE', *, *, #207, .T. ) ;
#89 = AXIS2_PLACEMENT_3D ( 'NONE', #46, #80, #374 ) ;
#90 = FACE_OUTER_BOUND ( 'NONE', #188, .T. ) ;
#91 = EDGE_LOOP ( 'NONE', ( #2, #327 ) ) ;
#92 = CARTESIAN_POINT ( 'NONE',  ( -0.05904909450000001003, 0.0000000000000000000, 0.0000000000000000000 ) ) ;
#93 = CARTESIAN_POINT ( 'NONE',  ( -0.05904909450000001003, 0.0000000000000000000, 0.0000000000000000000 ) ) ;
#94 = FILL_AREA_STYLE_COLOUR ( '', #289 ) ;
#95 = AXIS2_PLACEMENT_3D ( 'NONE', #185, #297, #208 ) ;
#96 = EDGE_LOOP ( 'NONE', ( #285, #25, #296, #212 ) ) ;
#97 = DIRECTION ( 'NONE',  ( -0.0000000000000000000, 0.0000000000000000000, -1.000000000000000000 ) ) ;
#98 = ORIENTED_EDGE ( 'NONE', *, *, #230, .F. ) ;
#99 = VECTOR ( 'NONE', #58, 39.37007874015748854 ) ;
#100 =( CONVERSION_BASED_UNIT ( 'INCH', #302 ) LENGTH_UNIT ( ) NAMED_UNIT ( #318 ) );
#101 = EDGE_CURVE ( 'NONE', #172, #70, #192, .T. ) ;
#102 =( GEOMETRIC_REPRESENTATION_CONTEXT ( 3 ) GLOBAL_UNCERTAINTY_ASSIGNED_CONTEXT ( ( #200 ) ) GLOBAL_UNIT_ASSIGNED_CONTEXT ( ( #62, #181, #265 ) ) REPRESENTATION_CONTEXT ( 'NONE', 'WORKASPACE' ) );
#103 = CYLINDRICAL_SURFACE ( 'NONE', #82, 0.05904909450000001003 ) ;
#104 = VERTEX_POINT ( 'NONE', #114 ) ;
#105 = DIRECTION ( 'NONE',  ( -0.0000000000000000000, -0.0000000000000000000, -1.000000000000000000 ) ) ;
#106 = CONICAL_SURFACE ( 'NONE', #65, 0.1031100000000002570, 0.7853981633974318477 ) ;
#107 = CARTESIAN_POINT ( 'NONE',  ( -0.05708650000000001917, 0.0000000000000000000, 0.1292404265071317171 ) ) ;
#108 = VECTOR ( 'NONE', #116, 39.37007874015748143 ) ;
#109 = DIRECTION ( 'NONE',  ( -0.0000000000000000000, -0.0000000000000000000, -1.000000000000000000 ) ) ;
#110 = DIRECTION ( 'NONE',  ( -0.0000000000000000000, -0.0000000000000000000, -1.000000000000000000 ) ) ;
#111 = DIRECTION ( 'NONE',  ( -1.000000000000000000, 0.0000000000000000000, 0.0000000000000000000 ) ) ;
#112 = CARTESIAN_POINT ( 'NONE',  ( 0.05904909450000001003, 7.231428457197458695E-18, 0.0000000000000000000 ) ) ;
#113 = EDGE_CURVE ( 'NONE', #157, #85, #31, .T. ) ;
#114 = CARTESIAN_POINT ( 'NONE',  ( -0.1181100000000000066, 0.0000000000000000000, 2.229093999999999465 ) ) ;
#115 = CONICAL_SURFACE ( 'NONE', #363, 0.05904909450000001003, 0.1745329251994321984 ) ;
#116 = DIRECTION ( 'NONE',  ( -0.0000000000000000000, -0.0000000000000000000, -1.000000000000000000 ) ) ;
#117 = CARTESIAN_POINT ( 'NONE',  ( 0.0000000000000000000, 0.0000000000000000000, 2.244094000000000033 ) ) ;
#118 = EDGE_CURVE ( 'NONE', #358, #157, #312, .T. ) ;
#119 = DIRECTION ( 'NONE',  ( -0.0000000000000000000, -0.0000000000000000000, -1.000000000000000000 ) ) ;
#120 = ORIENTED_EDGE ( 'NONE', *, *, #27, .T. ) ;
#121 = AXIS2_PLACEMENT_3D ( 'NONE', #319, #171, #24 ) ;
#122 = DIRECTION ( 'NONE',  ( -1.000000000000000000, 0.0000000000000000000, 0.0000000000000000000 ) ) ;
#123 = VERTEX_POINT ( 'NONE', #368 ) ;
#124 = CARTESIAN_POINT ( 'NONE',  ( 0.0000000000000000000, 0.0000000000000000000, 0.1181100000000000066 ) ) ;
#125 = ORIENTED_EDGE ( 'NONE', *, *, #343, .F. ) ;
#126 = AXIS2_PLACEMENT_3D ( 'NONE', #41, #109, #161 ) ;
#127 = ORIENTED_EDGE ( 'NONE', *, *, #73, .F. ) ;
#128 = CARTESIAN_POINT ( 'NONE',  ( 0.0000000000000000000, 0.0000000000000000000, 2.244094000000000033 ) ) ;
#129 = VERTEX_POINT ( 'NONE', #165 ) ;
#130 = CYLINDRICAL_SURFACE ( 'NONE', #291, 0.05904909450000001003 ) ;
#131 = DIRECTION ( 'NONE',  ( -1.000000000000000000, 0.0000000000000000000, 0.0000000000000000000 ) ) ;
#132 = CIRCLE ( 'NONE', #373, 0.1031100000000002570 ) ;
#133 =( LENGTH_UNIT ( ) NAMED_UNIT ( * ) SI_UNIT ( $, .METRE. ) );
#134 = DIRECTION ( 'NONE',  ( 0.0000000000000000000, 0.0000000000000000000, -1.000000000000000000 ) ) ;
#135 =( LENGTH_UNIT ( ) NAMED_UNIT ( * ) SI_UNIT ( $, .METRE. ) );
#136 = LINE ( 'NONE', #231, #150 ) ;
#137 = EDGE_CURVE ( 'NONE', #104, #320, #164, .T. ) ;
#138 = CARTESIAN_POINT ( 'NONE',  ( 0.0000000000000000000, 0.0000000000000000000, 0.0000000000000000000 ) ) ;
#139 = STYLED_ITEM ( 'NONE', ( #191 ), #282 ) ;
#140 = AXIS2_PLACEMENT_3D ( 'NONE', #117, #262, #7 ) ;
#141 = LINE ( 'NONE', #152, #278 ) ;
#142 = FILL_AREA_STYLE_COLOUR ( '', #205 ) ;
#143 = DIMENSIONAL_EXPONENTS ( 1.000000000000000000, 0.0000000000000000000, 0.0000000000000000000, 0.0000000000000000000, 0.0000000000000000000, 0.0000000000000000000, 0.0000000000000000000 ) ;
#144 = VECTOR ( 'NONE', #307, 39.37007874015748143 ) ;
#145 = CLOSED_SHELL ( 'NONE', ( #330, #247, #372, #61, #155, #173, #78, #244, #216, #187, #335, #313, #360 ) ) ;
#146 = FACE_OUTER_BOUND ( 'NONE', #315, .T. ) ;
#147 = ORIENTED_EDGE ( 'NONE', *, *, #73, .T. ) ;
#148 = EDGE_CURVE ( 'NONE', #129, #34, #18, .T. ) ;
#149 = EDGE_CURVE ( 'NONE', #85, #328, #136, .T. ) ;
#150 = VECTOR ( 'NONE', #162, 39.37007874015748143 ) ;
#151 = EDGE_LOOP ( 'NONE', ( #268, #88, #271, #178 ) ) ;
#152 = CARTESIAN_POINT ( 'NONE',  ( -0.1031100000000002570, 0.0000000000000000000, 2.244094000000000033 ) ) ;
#153 = ORIENTED_EDGE ( 'NONE', *, *, #356, .T. ) ;
#154 = EDGE_LOOP ( 'NONE', ( #239, #214, #346, #257 ) ) ;
#155 = ADVANCED_FACE ( 'NONE', ( #342 ), #279, .T. ) ;
#156 = CARTESIAN_POINT ( 'NONE',  ( 0.0000000000000000000, 0.0000000000000000000, 0.1181100000000000066 ) ) ;
#157 = VERTEX_POINT ( 'NONE', #84 ) ;
#158 = CONICAL_SURFACE ( 'NONE', #350, 0.05904909450000001003, 0.1745329251994321984 ) ;
#159 = FACE_OUTER_BOUND ( 'NONE', #362, .T. ) ;
#160 = DIRECTION ( 'NONE',  ( -0.0000000000000000000, -0.0000000000000000000, -1.000000000000000000 ) ) ;
#161 = DIRECTION ( 'NONE',  ( -1.000000000000000000, 0.0000000000000000000, 0.0000000000000000000 ) ) ;
#162 = DIRECTION ( 'NONE',  ( -0.1736481776669296095, 0.0000000000000000000, -0.9848077530122082424 ) ) ;
#163 = VECTOR ( 'NONE', #55, 39.37007874015748143 ) ;
#164 = LINE ( 'NONE', #53, #263 ) ;
#165 = CARTESIAN_POINT ( 'NONE',  ( 0.1181100000000000066, 1.446430334472939084E-17, 2.229093999999999465 ) ) ;
#166 = ORIENTED_EDGE ( 'NONE', *, *, #356, .F. ) ;
#167 = ORIENTED_EDGE ( 'NONE', *, *, #101, .F. ) ;
#168 = AXIS2_PLACEMENT_3D ( 'NONE', #340, #193, #338 ) ;
#169 = UNCERTAINTY_MEASURE_WITH_UNIT (LENGTH_MEASURE( 1.000000000000000082E-05 ), #100, 'distance_accuracy_value', 'NONE');
#170 = DIRECTION ( 'NONE',  ( -1.000000000000000000, 0.0000000000000000000, 0.0000000000000000000 ) ) ;
#171 = DIRECTION ( 'NONE',  ( 0.0000000000000000000, 0.0000000000000000000, -1.000000000000000000 ) ) ;
#172 = VERTEX_POINT ( 'NONE', #174 ) ;
#173 = ADVANCED_FACE ( 'NONE', ( #361 ), #293, .T. ) ;
#174 = CARTESIAN_POINT ( 'NONE',  ( 0.05904909450000001003, 7.231428457197458695E-18, 0.1181100000000000066 ) ) ;
#175 = EDGE_CURVE ( 'NONE', #36, #123, #221, .T. ) ;
#176 = AXIS2_PLACEMENT_3D ( 'NONE', #225, #339, #194 ) ;
#177 = CARTESIAN_POINT ( 'NONE',  ( 0.0000000000000000000, 0.0000000000000000000, 0.1181100000000000066 ) ) ;
#178 = ORIENTED_EDGE ( 'NONE', *, *, #180, .F. ) ;
#179 = ADVANCED_BREP_SHAPE_REPRESENTATION ( 'Micro_MMBM-030-12X', ( #282, #248 ), #43 ) ;
#180 = EDGE_CURVE ( 'NONE', #36, #104, #141, .T. ) ;
#181 =( NAMED_UNIT ( * ) PLANE_ANGLE_UNIT ( ) SI_UNIT ( $, .RADIAN. ) );
#182 = VERTEX_POINT ( 'NONE', #93 ) ;
#183 = PRODUCT_CONTEXT ( 'NONE', #4, 'mechanical' ) ;
#184 = ORIENTED_EDGE ( 'NONE', *, *, #379, .T. ) ;
#185 = CARTESIAN_POINT ( 'NONE',  ( 0.0000000000000000000, 0.0000000000000000000, 2.244094000000000033 ) ) ;
#186 = DIRECTION ( 'NONE',  ( -0.0000000000000000000, -0.0000000000000000000, -1.000000000000000000 ) ) ;
#187 = ADVANCED_FACE ( 'NONE', ( #90 ), #115, .T. ) ;
#188 = EDGE_LOOP ( 'NONE', ( #242, #83, #54, #275 ) ) ;
#189 = CYLINDRICAL_SURFACE ( 'NONE', #126, 0.05708650000000004693 ) ;
#190 = ORIENTED_EDGE ( 'NONE', *, *, #148, .T. ) ;
#191 = PRESENTATION_STYLE_ASSIGNMENT (( #246 ) ) ;
#192 = LINE ( 'NONE', #112, #144 ) ;
#193 = DIRECTION ( 'NONE',  ( -0.0000000000000000000, -0.0000000000000000000, -1.000000000000000000 ) ) ;
#194 = DIRECTION ( 'NONE',  ( -1.000000000000000000, 0.0000000000000000000, 0.0000000000000000000 ) ) ;
#195 = EDGE_CURVE ( 'NONE', #328, #182, #351, .T. ) ;
#196 = UNCERTAINTY_MEASURE_WITH_UNIT (LENGTH_MEASURE( 1.000000000000000082E-05 ), #50, 'distance_accuracy_value', 'NONE');
#197 = DIMENSIONAL_EXPONENTS ( 1.000000000000000000, 0.0000000000000000000, 0.0000000000000000000, 0.0000000000000000000, 0.0000000000000000000, 0.0000000000000000000, 0.0000000000000000000 ) ;
#198 = CIRCLE ( 'NONE', #357, 0.05904909450000001003 ) ;
#199 = DIRECTION ( 'NONE',  ( -0.0000000000000000000, -0.0000000000000000000, -1.000000000000000000 ) ) ;
#200 = UNCERTAINTY_MEASURE_WITH_UNIT (LENGTH_MEASURE( 1.000000000000000082E-05 ), #62, 'distance_accuracy_value', 'NONE');
#201 = ORIENTED_EDGE ( 'NONE', *, *, #137, .F. ) ;
#202 = ORIENTED_EDGE ( 'NONE', *, *, #255, .T. ) ;
#203 = DIRECTION ( 'NONE',  ( -0.0000000000000000000, -0.0000000000000000000, -1.000000000000000000 ) ) ;
#204 = ORIENTED_EDGE ( 'NONE', *, *, #118, .F. ) ;
#205 = COLOUR_RGB ( '',0.7921568627450980005, 0.8196078431372548767, 0.9333333333333333481 ) ;
#206 = LINE ( 'NONE', #349, #10 ) ;
#207 = EDGE_CURVE ( 'NONE', #123, #129, #260, .T. ) ;
#208 = DIRECTION ( 'NONE',  ( 1.000000000000000000, 0.0000000000000000000, 0.0000000000000000000 ) ) ;
#209 = APPLICATION_PROTOCOL_DEFINITION ( 'draft international standard', 'automotive_design', 1998, #4 ) ;
#210 = EDGE_LOOP ( 'NONE', ( #125, #226 ) ) ;
#211 = DIRECTION ( 'NONE',  ( 0.0000000000000000000, 0.0000000000000000000, 1.000000000000000000 ) ) ;
#212 = ORIENTED_EDGE ( 'NONE', *, *, #309, .F. ) ;
#213 = CIRCLE ( 'NONE', #344, 0.05708650000000006081 ) ;
#214 = ORIENTED_EDGE ( 'NONE', *, *, #175, .F. ) ;
#215 = CARTESIAN_POINT ( 'NONE',  ( -0.1181100000000000066, 0.0000000000000000000, 0.4724410000000000553 ) ) ;
#216 = ADVANCED_FACE ( 'NONE', ( #23, #234 ), #376, .T. ) ;
#217 = ORIENTED_EDGE ( 'NONE', *, *, #101, .T. ) ;
#218 = ORIENTED_EDGE ( 'NONE', *, *, #298, .T. ) ;
#219 = CIRCLE ( 'NONE', #49, 0.05904909450000001003 ) ;
#220 = FACE_OUTER_BOUND ( 'NONE', #266, .T. ) ;
#221 = CIRCLE ( 'NONE', #95, 0.1031100000000002570 ) ;
#222 = DIRECTION ( 'NONE',  ( -1.000000000000000000, 0.0000000000000000000, 0.0000000000000000000 ) ) ;
#223 = CARTESIAN_POINT ( 'NONE',  ( 0.0000000000000000000, 0.0000000000000000000, 0.4724409999999999998 ) ) ;
#224 = CARTESIAN_POINT ( 'NONE',  ( 0.0000000000000000000, 0.0000000000000000000, 0.1292404265071317171 ) ) ;
#225 = CARTESIAN_POINT ( 'NONE',  ( 0.0000000000000000000, 0.0000000000000000000, 0.0000000000000000000 ) ) ;
#226 = ORIENTED_EDGE ( 'NONE', *, *, #86, .F. ) ;
#227 = FACE_OUTER_BOUND ( 'NONE', #294, .T. ) ;
#228 = PLANE ( 'NONE',  #89 ) ;
#229 = CIRCLE ( 'NONE', #67, 0.1181100000000000066 ) ;
#230 = EDGE_CURVE ( 'NONE', #5, #85, #206, .T. ) ;
#231 = CARTESIAN_POINT ( 'NONE',  ( -0.05904909450000001003, 0.0000000000000000000, 0.1181100000000000066 ) ) ;
#232 = DIRECTION ( 'NONE',  ( -0.0000000000000000000, -0.0000000000000000000, -1.000000000000000000 ) ) ;
#233 = AXIS2_PLACEMENT_3D ( 'NONE', #311, #77, #52 ) ;
#234 = FACE_OUTER_BOUND ( 'NONE', #91, .T. ) ;
#235 = CIRCLE ( 'NONE', #176, 0.05904909450000001003 ) ;
#236 = DIRECTION ( 'NONE',  ( -0.0000000000000000000, -0.0000000000000000000, -1.000000000000000000 ) ) ;
#237 = AXIS2_PLACEMENT_3D ( 'NONE', #267, #97, #288 ) ;
#238 = SURFACE_STYLE_USAGE ( .BOTH. , #331 ) ;
#239 = ORIENTED_EDGE ( 'NONE', *, *, #207, .F. ) ;
#240 = DIRECTION ( 'NONE',  ( -0.7071067811865358044, 0.0000000000000000000, -0.7071067811865590080 ) ) ;
#241 = FILL_AREA_STYLE ('',( #94 ) ) ;
#242 = ORIENTED_EDGE ( 'NONE', *, *, #272, .F. ) ;
#243 = EDGE_CURVE ( 'NONE', #129, #104, #303, .T. ) ;
#244 = ADVANCED_FACE ( 'NONE', ( #378 ), #40, .T. ) ;
#245 = CIRCLE ( 'NONE', #287, 0.05904909450000001003 ) ;
#246 = SURFACE_STYLE_USAGE ( .BOTH. , #45 ) ;
#247 = ADVANCED_FACE ( 'NONE', ( #146 ), #1, .T. ) ;
#248 = AXIS2_PLACEMENT_3D ( 'NONE', #355, #211, #32 ) ;
#249 = ORIENTED_EDGE ( 'NONE', *, *, #298, .F. ) ;
#250 = DIRECTION ( 'NONE',  ( 0.0000000000000000000, 0.0000000000000000000, 1.000000000000000000 ) ) ;
#251 = DIRECTION ( 'NONE',  ( -1.000000000000000000, 0.0000000000000000000, 0.0000000000000000000 ) ) ;
#252 = DIRECTION ( 'NONE',  ( -0.0000000000000000000, -0.0000000000000000000, -1.000000000000000000 ) ) ;
#253 = CARTESIAN_POINT ( 'NONE',  ( 0.0000000000000000000, 0.0000000000000000000, 0.1292404265071317171 ) ) ;
#254 = CARTESIAN_POINT ( 'NONE',  ( -0.05708650000000006081, 0.0000000000000000000, 0.4724409999999999998 ) ) ;
#255 = EDGE_CURVE ( 'NONE', #172, #328, #198, .T. ) ;
#256 =( NAMED_UNIT ( * ) PLANE_ANGLE_UNIT ( ) SI_UNIT ( $, .RADIAN. ) );
#257 = ORIENTED_EDGE ( 'NONE', *, *, #243, .F. ) ;
#258 = PRODUCT_DEFINITION_CONTEXT ( 'detailed design', #64, 'design' ) ;
#259 = DIRECTION ( 'NONE',  ( -0.0000000000000000000, -0.0000000000000000000, -1.000000000000000000 ) ) ;
#260 = LINE ( 'NONE', #323, #99 ) ;
#261 = FILL_AREA_STYLE ('',( #142 ) ) ;
#262 = DIRECTION ( 'NONE',  ( 0.0000000000000000000, 0.0000000000000000000, -1.000000000000000000 ) ) ;
#263 = VECTOR ( 'NONE', #110, 39.37007874015748143 ) ;
#264 = CIRCLE ( 'NONE', #60, 0.1181100000000000066 ) ;
#265 =( NAMED_UNIT ( * ) SI_UNIT ( $, .STERADIAN. ) SOLID_ANGLE_UNIT ( ) );
#266 = EDGE_LOOP ( 'NONE', ( #167, #202, #9, #127 ) ) ;
#267 = CARTESIAN_POINT ( 'NONE',  ( 0.05708650000000006081, 0.0000000000000000000, 0.4724409999999999998 ) ) ;
#268 = ORIENTED_EDGE ( 'NONE', *, *, #379, .F. ) ;
#269 = PLANE ( 'NONE',  #274 ) ;
#270 = AXIS2_PLACEMENT_3D ( 'NONE', #224, #14, #131 ) ;
#271 = ORIENTED_EDGE ( 'NONE', *, *, #44, .F. ) ;
#272 = EDGE_CURVE ( 'NONE', #157, #172, #87, .T. ) ;
#273 = DIRECTION ( 'NONE',  ( -0.0000000000000000000, -0.0000000000000000000, -1.000000000000000000 ) ) ;
#274 = AXIS2_PLACEMENT_3D ( 'NONE', #8, #299, #276 ) ;
#275 = ORIENTED_EDGE ( 'NONE', *, *, #255, .F. ) ;
#276 = DIRECTION ( 'NONE',  ( 1.000000000000000000, 0.0000000000000000000, -0.0000000000000000000 ) ) ;
#277 = EDGE_LOOP ( 'NONE', ( #218, #217, #166, #30 ) ) ;
#278 = VECTOR ( 'NONE', #240, 39.37007874015748854 ) ;
#279 = CYLINDRICAL_SURFACE ( 'NONE', #51, 0.1181100000000000066 ) ;
#280 = DIRECTION ( 'NONE',  ( -1.000000000000000000, 0.0000000000000000000, 0.0000000000000000000 ) ) ;
#281 = PRODUCT_DEFINITION ( 'UNKNOWN', '', #375, #258 ) ;
#282 = MANIFOLD_SOLID_BREP ( 'Cut-Revolve1', #145 ) ;
#283 = PRODUCT_DEFINITION_SHAPE ( 'NONE', 'NONE',  #281 ) ;
#284 = DIRECTION ( 'NONE',  ( -0.0000000000000000000, -0.0000000000000000000, -1.000000000000000000 ) ) ;
#285 = ORIENTED_EDGE ( 'NONE', *, *, #148, .F. ) ;
#286 = EDGE_LOOP ( 'NONE', ( #322, #190, #332, #201 ) ) ;
#287 = AXIS2_PLACEMENT_3D ( 'NONE', #124, #15, #11 ) ;
#288 = DIRECTION ( 'NONE',  ( -1.000000000000000000, 0.0000000000000000000, 0.0000000000000000000 ) ) ;
#289 = COLOUR_RGB ( '',0.7921568627450980005, 0.8196078431372548767, 0.9333333333333333481 ) ;
#290 = DIRECTION ( 'NONE',  ( -1.000000000000000000, 0.0000000000000000000, 0.0000000000000000000 ) ) ;
#291 = AXIS2_PLACEMENT_3D ( 'NONE', #333, #252, #334 ) ;
#292 = SHAPE_DEFINITION_REPRESENTATION ( #283, #179 ) ;
#293 = CYLINDRICAL_SURFACE ( 'NONE', #3, 0.1181100000000000066 ) ;
#294 = EDGE_LOOP ( 'NONE', ( #33, #184 ) ) ;
#295 = EDGE_CURVE ( 'NONE', #320, #34, #229, .T. ) ;
#296 = ORIENTED_EDGE ( 'NONE', *, *, #137, .T. ) ;
#297 = DIRECTION ( 'NONE',  ( 0.0000000000000000000, 0.0000000000000000000, 1.000000000000000000 ) ) ;
#298 = EDGE_CURVE ( 'NONE', #328, #172, #245, .T. ) ;
#299 = DIRECTION ( 'NONE',  ( 0.0000000000000000000, 0.0000000000000000000, 1.000000000000000000 ) ) ;
#300 = ORIENTED_EDGE ( 'NONE', *, *, #272, .T. ) ;
#301 = PRODUCT_RELATED_PRODUCT_CATEGORY ( 'part', '', ( #39 ) ) ;
#302 = LENGTH_MEASURE_WITH_UNIT ( LENGTH_MEASURE( 0.02539999999999999897 ), #133 );
#303 = CIRCLE ( 'NONE', #121, 0.1181100000000000066 ) ;
#304 = CARTESIAN_POINT ( 'NONE',  ( 0.0000000000000000000, 0.0000000000000000000, 0.4724410000000000553 ) ) ;
#305 = CARTESIAN_POINT ( 'NONE',  ( 0.05708650000000004693, 6.991079949952542812E-18, 0.0000000000000000000 ) ) ;
#306 =( NAMED_UNIT ( * ) PLANE_ANGLE_UNIT ( ) SI_UNIT ( $, .RADIAN. ) );
#307 = DIRECTION ( 'NONE',  ( -0.0000000000000000000, -0.0000000000000000000, -1.000000000000000000 ) ) ;
#308 = LENGTH_MEASURE_WITH_UNIT ( LENGTH_MEASURE( 0.02539999999999999897 ), #135 );
#309 = EDGE_CURVE ( 'NONE', #34, #320, #264, .T. ) ;
#310 = VECTOR ( 'NONE', #284, 39.37007874015748143 ) ;
#311 = CARTESIAN_POINT ( 'NONE',  ( 0.0000000000000000000, 0.0000000000000000000, 2.229093999999999465 ) ) ;
#312 = LINE ( 'NONE', #305, #20 ) ;
#313 = ADVANCED_FACE ( 'NONE', ( #220 ), #103, .T. ) ;
#314 = CARTESIAN_POINT ( 'NONE',  ( 0.1181100000000000066, 1.446430334472939084E-17, 2.244094000000000033 ) ) ;
#315 = EDGE_LOOP ( 'NONE', ( #57, #38, #59, #98 ) ) ;
#316 = CARTESIAN_POINT ( 'NONE',  ( 0.05904909450000001003, 7.231428457197458695E-18, 0.1181100000000000066 ) ) ;
#317 = AXIS2_PLACEMENT_3D ( 'NONE', #253, #199, #222 ) ;
#318 = DIMENSIONAL_EXPONENTS ( 1.000000000000000000, 0.0000000000000000000, 0.0000000000000000000, 0.0000000000000000000, 0.0000000000000000000, 0.0000000000000000000, 0.0000000000000000000 ) ;
#319 = CARTESIAN_POINT ( 'NONE',  ( 0.0000000000000000000, 0.0000000000000000000, 2.229093999999999465 ) ) ;
#320 = VERTEX_POINT ( 'NONE', #215 ) ;
#321 = MECHANICAL_DESIGN_GEOMETRIC_PRESENTATION_REPRESENTATION (  '', ( #6 ), #102 ) ;
#322 = ORIENTED_EDGE ( 'NONE', *, *, #44, .T. ) ;
#323 = CARTESIAN_POINT ( 'NONE',  ( 0.1031100000000002570, 1.262733314600838667E-17, 2.244094000000000033 ) ) ;
#324 = ORIENTED_EDGE ( 'NONE', *, *, #149, .F. ) ;
#325 = MECHANICAL_DESIGN_GEOMETRIC_PRESENTATION_REPRESENTATION (  '', ( #139 ), #16 ) ;
#326 =( LENGTH_UNIT ( ) NAMED_UNIT ( * ) SI_UNIT ( $, .METRE. ) );
#327 = ORIENTED_EDGE ( 'NONE', *, *, #309, .T. ) ;
#328 = VERTEX_POINT ( 'NONE', #76 ) ;
#329 = DIRECTION ( 'NONE',  ( -0.0000000000000000000, -0.0000000000000000000, -1.000000000000000000 ) ) ;
#330 = ADVANCED_FACE ( 'NONE', ( #81 ), #130, .T. ) ;
#331 = SURFACE_SIDE_STYLE ('',( #69 ) ) ;
#332 = ORIENTED_EDGE ( 'NONE', *, *, #295, .F. ) ;
#333 = CARTESIAN_POINT ( 'NONE',  ( 0.0000000000000000000, 0.0000000000000000000, 0.0000000000000000000 ) ) ;
#334 = DIRECTION ( 'NONE',  ( -1.000000000000000000, 0.0000000000000000000, 0.0000000000000000000 ) ) ;
#335 = ADVANCED_FACE ( 'NONE', ( #75 ), #189, .T. ) ;
#336 = DIRECTION ( 'NONE',  ( -1.000000000000000000, 0.0000000000000000000, 0.0000000000000000000 ) ) ;
#337 = PRESENTATION_LAYER_ASSIGNMENT (  '', '', ( #139 ) ) ;
#338 = DIRECTION ( 'NONE',  ( -1.000000000000000000, 0.0000000000000000000, 0.0000000000000000000 ) ) ;
#339 = DIRECTION ( 'NONE',  ( -0.0000000000000000000, -0.0000000000000000000, -1.000000000000000000 ) ) ;
#340 = CARTESIAN_POINT ( 'NONE',  ( 0.0000000000000000000, 0.0000000000000000000, 0.4724409999999999998 ) ) ;
#341 = DIRECTION ( 'NONE',  ( -1.000000000000000000, 0.0000000000000000000, 0.0000000000000000000 ) ) ;
#342 = FACE_OUTER_BOUND ( 'NONE', #286, .T. ) ;
#343 = EDGE_CURVE ( 'NONE', #5, #358, #213, .T. ) ;
#344 = AXIS2_PLACEMENT_3D ( 'NONE', #223, #369, #111 ) ;
#345 = DIRECTION ( 'NONE',  ( -1.000000000000000000, 0.0000000000000000000, 0.0000000000000000000 ) ) ;
#346 = ORIENTED_EDGE ( 'NONE', *, *, #180, .T. ) ;
#347 = CARTESIAN_POINT ( 'NONE',  ( 0.0000000000000000000, 0.0000000000000000000, 0.1181100000000000066 ) ) ;
#348 = CIRCLE ( 'NONE', #168, 0.05708650000000006081 ) ;
#349 = CARTESIAN_POINT ( 'NONE',  ( -0.05708650000000004693, 0.0000000000000000000, 0.0000000000000000000 ) ) ;
#350 = AXIS2_PLACEMENT_3D ( 'NONE', #156, #273, #13 ) ;
#351 = LINE ( 'NONE', #92, #108 ) ;
#352 = APPLICATION_PROTOCOL_DEFINITION ( 'draft international standard', 'automotive_design', 1998, #64 ) ;
#353 = DIRECTION ( 'NONE',  ( -1.000000000000000000, 0.0000000000000000000, 0.0000000000000000000 ) ) ;
#354 = CIRCLE ( 'NONE', #233, 0.1181100000000000066 ) ;
#355 = CARTESIAN_POINT ( 'NONE',  ( 0.0000000000000000000, 0.0000000000000000000, 0.0000000000000000000 ) ) ;
#356 = EDGE_CURVE ( 'NONE', #182, #70, #235, .T. ) ;
#357 = AXIS2_PLACEMENT_3D ( 'NONE', #347, #329, #353 ) ;
#358 = VERTEX_POINT ( 'NONE', #35 ) ;
#359 = LENGTH_MEASURE_WITH_UNIT ( LENGTH_MEASURE( 0.02539999999999999897 ), #326 );
#360 = ADVANCED_FACE ( 'NONE', ( #159 ), #269, .F. ) ;
#361 = FACE_OUTER_BOUND ( 'NONE', #96, .T. ) ;
#362 = EDGE_LOOP ( 'NONE', ( #153, #147 ) ) ;
#363 = AXIS2_PLACEMENT_3D ( 'NONE', #177, #203, #290 ) ;
#364 = CIRCLE ( 'NONE', #270, 0.05708650000000001917 ) ;
#365 = DIRECTION ( 'NONE',  ( -1.000000000000000000, 0.0000000000000000000, 0.0000000000000000000 ) ) ;
#366 = DIRECTION ( 'NONE',  ( 1.000000000000000000, 0.0000000000000000000, 0.0000000000000000000 ) ) ;
#367 = CARTESIAN_POINT ( 'NONE',  ( 0.05904909450000001003, 7.231428457197458695E-18, 0.0000000000000000000 ) ) ;
#368 = CARTESIAN_POINT ( 'NONE',  ( 0.1031100000000002570, 1.354581824536888722E-17, 2.244094000000000033 ) ) ;
#369 = DIRECTION ( 'NONE',  ( -0.0000000000000000000, -0.0000000000000000000, -1.000000000000000000 ) ) ;
#370 = DIRECTION ( 'NONE',  ( -0.0000000000000000000, -0.0000000000000000000, -1.000000000000000000 ) ) ;
#371 = CARTESIAN_POINT ( 'NONE',  ( 0.0000000000000000000, 0.0000000000000000000, 2.244094000000000033 ) ) ;
#372 = ADVANCED_FACE ( 'NONE', ( #37 ), #158, .T. ) ;
#373 = AXIS2_PLACEMENT_3D ( 'NONE', #128, #250, #366 ) ;
#374 = DIRECTION ( 'NONE',  ( 1.000000000000000000, 0.0000000000000000000, -0.0000000000000000000 ) ) ;
#375 = PRODUCT_DEFINITION_FORMATION_WITH_SPECIFIED_SOURCE ( 'ANY', '', #39, .NOT_KNOWN. ) ;
#376 = PLANE ( 'NONE',  #237 ) ;
#377 = SURFACE_STYLE_FILL_AREA ( #261 ) ;
#378 = FACE_OUTER_BOUND ( 'NONE', #154, .T. ) ;
#379 = EDGE_CURVE ( 'NONE', #123, #36, #132, .T. ) ;
ENDSEC;
END-ISO-10303-21;
