ISO-10303-21;
HEADER;
FILE_DESCRIPTION (( 'STEP AP214' ),
    '1' );
FILE_NAME ('59598.STEP',
    '2023-07-24T15:49:57',
    ( '' ),
    ( '' ),
    'SwSTEP 2.0',
    'SolidWorks 2023',
    '' );
FILE_SCHEMA (( 'AUTOMOTIVE_DESIGN' ));
ENDSEC;

DATA;
#1 = SURFACE_SIDE_STYLE ('',( #183 ) ) ;
#2 = CLOSED_SHELL ( 'NONE', ( #28, #241, #227, #81 ) ) ;
#3 = AXIS2_PLACEMENT_3D ( 'NONE', #150, #238, #214 ) ;
#4 = DIRECTION ( 'NONE',  ( 0.000000000000000000, 0.000000000000000000, -1.000000000000000000 ) ) ;
#5 = DIRECTION ( 'NONE',  ( -1.000000000000000000, 0.000000000000000000, 0.000000000000000000 ) ) ;
#6 = PRESENTATION_STYLE_ASSIGNMENT (( #82 ) ) ;
#7 = PRESENTATION_LAYER_ASSIGNMENT (  '', '', ( #17 ) ) ;
#8 = STYLED_ITEM ( 'NONE', ( #262 ), #241 ) ;
#9 = DIRECTION ( 'NONE',  ( -0.000000000000000000, -1.000000000000000000, -0.000000000000000000 ) ) ;
#10 = FACE_OUTER_BOUND ( 'NONE', #185, .T. ) ;
#11 = CARTESIAN_POINT ( 'NONE',  ( 0.000000000000000000, 0.000000000000000000, 0.000000000000000000 ) ) ;
#12 = DIRECTION ( 'NONE',  ( 0.000000000000000000, 0.000000000000000000, 1.000000000000000000 ) ) ;
#13 = MECHANICAL_DESIGN_GEOMETRIC_PRESENTATION_REPRESENTATION (  '', ( #206 ), #16 ) ;
#14 = EDGE_CURVE ( 'NONE', #126, #116, #286, .T. ) ;
#15 = DIRECTION ( 'NONE',  ( 7.404841111123529214E-17, 1.000000000000000000, -0.000000000000000000 ) ) ;
#16 =( GEOMETRIC_REPRESENTATION_CONTEXT ( 3 ) GLOBAL_UNCERTAINTY_ASSIGNED_CONTEXT ( ( #49 ) ) GLOBAL_UNIT_ASSIGNED_CONTEXT ( ( #216, #133, #61 ) ) REPRESENTATION_CONTEXT ( 'NONE', 'WORKASPACE' ) );
#17 = STYLED_ITEM ( 'NONE', ( #195 ), #259 ) ;
#18 = EDGE_LOOP ( 'NONE', ( #257, #119, #211, #191 ) ) ;
#19 = ORIENTED_EDGE ( 'NONE', *, *, #131, .T. ) ;
#20 = SURFACE_SIDE_STYLE ('',( #21 ) ) ;
#21 = SURFACE_STYLE_FILL_AREA ( #239 ) ;
#22 = CYLINDRICAL_SURFACE ( 'NONE', #278, 5.000000000000000000 ) ;
#23 = EDGE_CURVE ( 'NONE', #230, #55, #41, .T. ) ;
#24 =( NAMED_UNIT ( * ) SI_UNIT ( $, .STERADIAN. ) SOLID_ANGLE_UNIT ( ) );
#25 = MECHANICAL_DESIGN_GEOMETRIC_PRESENTATION_REPRESENTATION (  '', ( #277 ), #173 ) ;
#26 = VECTOR ( 'NONE', #234, 1000.000000000000000 ) ;
#27 = DIRECTION ( 'NONE',  ( 0.000000000000000000, 0.000000000000000000, -1.000000000000000000 ) ) ;
#28 = ADVANCED_FACE ( 'NONE', ( #83 ), #22, .T. ) ;
#29 = DIRECTION ( 'NONE',  ( -0.000000000000000000, -1.000000000000000000, -0.000000000000000000 ) ) ;
#30 = CARTESIAN_POINT ( 'NONE',  ( 6.123233995736766282E-16, 0.000000000000000000, 5.000000000000000000 ) ) ;
#31 = UNCERTAINTY_MEASURE_WITH_UNIT (LENGTH_MEASURE( 1.000000000000000082E-05 ), #264, 'distance_accuracy_value', 'NONE');
#32 = ORIENTED_EDGE ( 'NONE', *, *, #37, .F. ) ;
#33 = FILL_AREA_STYLE_COLOUR ( '', #66 ) ;
#34 = CARTESIAN_POINT ( 'NONE',  ( 0.000000000000000000, 0.000000000000000000, 0.000000000000000000 ) ) ;
#35 = ORIENTED_EDGE ( 'NONE', *, *, #220, .F. ) ;
#36 = ORIENTED_EDGE ( 'NONE', *, *, #109, .T. ) ;
#37 = EDGE_CURVE ( 'NONE', #233, #126, #268, .T. ) ;
#38 = DIRECTION ( 'NONE',  ( -1.000000000000000000, 0.000000000000000000, 0.000000000000000000 ) ) ;
#39 = VERTEX_POINT ( 'NONE', #199 ) ;
#40 = CARTESIAN_POINT ( 'NONE',  ( 0.000000000000000000, 0.000000000000000000, 0.000000000000000000 ) ) ;
#41 = CIRCLE ( 'NONE', #57, 5.000000000000000000 ) ;
#42 = STYLED_ITEM ( 'NONE', ( #285 ), #255 ) ;
#43 = SURFACE_SIDE_STYLE ('',( #265 ) ) ;
#44 = DIRECTION ( 'NONE',  ( -1.000000000000000000, 0.000000000000000000, 0.000000000000000000 ) ) ;
#45 = SURFACE_STYLE_FILL_AREA ( #266 ) ;
#46 = AXIS2_PLACEMENT_3D ( 'NONE', #152, #136, #4 ) ;
#47 = DIRECTION ( 'NONE',  ( 7.404841111123529214E-17, 1.000000000000000000, -0.000000000000000000 ) ) ;
#48 = SURFACE_STYLE_FILL_AREA ( #129 ) ;
#49 = UNCERTAINTY_MEASURE_WITH_UNIT (LENGTH_MEASURE( 1.000000000000000082E-05 ), #216, 'distance_accuracy_value', 'NONE');
#50 = PRESENTATION_STYLE_ASSIGNMENT (( #272 ) ) ;
#51 = ADVANCED_FACE ( 'NONE', ( #240 ), #270, .F. ) ;
#52 = FACE_OUTER_BOUND ( 'NONE', #118, .T. ) ;
#53 = CARTESIAN_POINT ( 'NONE',  ( 0.000000000000000000, 0.000000000000000000, 0.000000000000000000 ) ) ;
#54 = ORIENTED_EDGE ( 'NONE', *, *, #14, .F. ) ;
#55 = VERTEX_POINT ( 'NONE', #137 ) ;
#56 = CARTESIAN_POINT ( 'NONE',  ( 0.000000000000000000, 20.00000000000000000, -5.000000000000000000 ) ) ;
#57 = AXIS2_PLACEMENT_3D ( 'NONE', #64, #110, #88 ) ;
#58 = DIRECTION ( 'NONE',  ( -0.000000000000000000, -1.000000000000000000, -0.000000000000000000 ) ) ;
#59 = SURFACE_STYLE_USAGE ( .BOTH. , #43 ) ;
#60 = FILL_AREA_STYLE ('',( #223 ) ) ;
#61 =( NAMED_UNIT ( * ) SI_UNIT ( $, .STERADIAN. ) SOLID_ANGLE_UNIT ( ) );
#62 = PRODUCT_DEFINITION_FORMATION_WITH_SPECIFIED_SOURCE ( 'ANY', '', #189, .NOT_KNOWN. ) ;
#63 = DIRECTION ( 'NONE',  ( 7.404841111123529214E-17, 1.000000000000000000, -0.000000000000000000 ) ) ;
#64 = CARTESIAN_POINT ( 'NONE',  ( 0.000000000000000000, 20.00000000000000355, 0.000000000000000000 ) ) ;
#65 = DIRECTION ( 'NONE',  ( 7.404841111123529214E-17, 1.000000000000000000, -0.000000000000000000 ) ) ;
#66 = COLOUR_RGB ( '',1.000000000000000000, 0.000000000000000000, 0.000000000000000000 ) ;
#67 = UNCERTAINTY_MEASURE_WITH_UNIT (LENGTH_MEASURE( 1.000000000000000082E-05 ), #78, 'distance_accuracy_value', 'NONE');
#68 = CARTESIAN_POINT ( 'NONE',  ( 5.000000000000001776, 63.00000000000000000, 6.123233995736764310E-16 ) ) ;
#69 = EDGE_CURVE ( 'NONE', #284, #156, #263, .T. ) ;
#70 = APPLICATION_CONTEXT ( 'automotive_design' ) ;
#71 = SURFACE_SIDE_STYLE ('',( #170 ) ) ;
#72 = AXIS2_PLACEMENT_3D ( 'NONE', #222, #242, #85 ) ;
#73 =( GEOMETRIC_REPRESENTATION_CONTEXT ( 3 ) GLOBAL_UNCERTAINTY_ASSIGNED_CONTEXT ( ( #31 ) ) GLOBAL_UNIT_ASSIGNED_CONTEXT ( ( #264, #102, #283 ) ) REPRESENTATION_CONTEXT ( 'NONE', 'WORKASPACE' ) );
#74 = COLOUR_RGB ( '',1.000000000000000000, 0.000000000000000000, 0.000000000000000000 ) ;
#75 = CARTESIAN_POINT ( 'NONE',  ( 0.000000000000000000, 0.000000000000000000, -5.000000000000000000 ) ) ;
#76 = EDGE_LOOP ( 'NONE', ( #32, #171 ) ) ;
#77 = DIRECTION ( 'NONE',  ( -0.000000000000000000, -1.000000000000000000, -0.000000000000000000 ) ) ;
#78 =( LENGTH_UNIT ( ) NAMED_UNIT ( * ) SI_UNIT ( .MILLI., .METRE. ) );
#79 = COLOUR_RGB ( '',1.000000000000000000, 0.000000000000000000, 0.000000000000000000 ) ;
#80 = DIRECTION ( 'NONE',  ( 0.000000000000000000, 0.000000000000000000, -1.000000000000000000 ) ) ;
#81 = ADVANCED_FACE ( 'NONE', ( #155 ), #247, .T. ) ;
#82 = SURFACE_STYLE_USAGE ( .BOTH. , #196 ) ;
#83 = FACE_OUTER_BOUND ( 'NONE', #224, .T. ) ;
#84 = AXIS2_PLACEMENT_3D ( 'NONE', #281, #65, #204 ) ;
#85 = DIRECTION ( 'NONE',  ( 1.000000000000000000, -7.404841111123529214E-17, 0.000000000000000000 ) ) ;
#86 = ORIENTED_EDGE ( 'NONE', *, *, #37, .T. ) ;
#87 = CARTESIAN_POINT ( 'NONE',  ( -4.999999999999992895, 63.00000000000000000, 0.000000000000000000 ) ) ;
#88 = DIRECTION ( 'NONE',  ( -1.000000000000000000, 0.000000000000000000, 0.000000000000000000 ) ) ;
#89 =( GEOMETRIC_REPRESENTATION_CONTEXT ( 3 ) GLOBAL_UNCERTAINTY_ASSIGNED_CONTEXT ( ( #92 ) ) GLOBAL_UNIT_ASSIGNED_CONTEXT ( ( #269, #107, #182 ) ) REPRESENTATION_CONTEXT ( 'NONE', 'WORKASPACE' ) );
#90 = DIRECTION ( 'NONE',  ( -0.000000000000000000, -1.000000000000000000, -0.000000000000000000 ) ) ;
#91 = AXIS2_PLACEMENT_3D ( 'NONE', #201, #145, #205 ) ;
#92 = UNCERTAINTY_MEASURE_WITH_UNIT (LENGTH_MEASURE( 1.000000000000000082E-05 ), #269, 'distance_accuracy_value', 'NONE');
#93 = CIRCLE ( 'NONE', #275, 4.999999999999996447 ) ;
#94 = CARTESIAN_POINT ( 'NONE',  ( 6.123233995736766282E-16, 20.00000000000000000, 5.000000000000000000 ) ) ;
#95 = PRODUCT_DEFINITION ( 'UNKNOWN', '', #62, #135 ) ;
#96 =( LENGTH_UNIT ( ) NAMED_UNIT ( * ) SI_UNIT ( .MILLI., .METRE. ) );
#97 = CARTESIAN_POINT ( 'NONE',  ( -4.999999999999994671, 63.00000000000000000, 0.000000000000000000 ) ) ;
#98 = EDGE_CURVE ( 'NONE', #116, #39, #188, .T. ) ;
#99 = STYLED_ITEM ( 'NONE', ( #50 ), #227 ) ;
#100 = LINE ( 'NONE', #68, #282 ) ;
#101 = PRODUCT_RELATED_PRODUCT_CATEGORY ( 'part', '', ( #189 ) ) ;
#102 =( NAMED_UNIT ( * ) PLANE_ANGLE_UNIT ( ) SI_UNIT ( $, .RADIAN. ) );
#103 = ORIENTED_EDGE ( 'NONE', *, *, #279, .F. ) ;
#104 = SURFACE_STYLE_USAGE ( .BOTH. , #20 ) ;
#105 = ORIENTED_EDGE ( 'NONE', *, *, #69, .T. ) ;
#106 = SURFACE_STYLE_USAGE ( .BOTH. , #1 ) ;
#107 =( NAMED_UNIT ( * ) PLANE_ANGLE_UNIT ( ) SI_UNIT ( $, .RADIAN. ) );
#108 = AXIS2_PLACEMENT_3D ( 'NONE', #53, #159, #117 ) ;
#109 = EDGE_CURVE ( 'NONE', #126, #233, #203, .T. ) ;
#110 = DIRECTION ( 'NONE',  ( 7.404841111123529214E-17, 1.000000000000000000, -0.000000000000000000 ) ) ;
#111 = DIRECTION ( 'NONE',  ( -0.000000000000000000, -1.000000000000000000, -0.000000000000000000 ) ) ;
#112 = ADVANCED_FACE ( 'NONE', ( #52 ), #139, .F. ) ;
#113 = CARTESIAN_POINT ( 'NONE',  ( 0.000000000000000000, 20.00000000000000000, 0.000000000000000000 ) ) ;
#114 = AXIS2_PLACEMENT_3D ( 'NONE', #225, #226, #38 ) ;
#115 = CARTESIAN_POINT ( 'NONE',  ( 0.000000000000000000, 0.000000000000000000, 0.000000000000000000 ) ) ;
#116 = VERTEX_POINT ( 'NONE', #30 ) ;
#117 = DIRECTION ( 'NONE',  ( 0.000000000000000000, 0.000000000000000000, -1.000000000000000000 ) ) ;
#118 = EDGE_LOOP ( 'NONE', ( #192, #229 ) ) ;
#119 = ORIENTED_EDGE ( 'NONE', *, *, #213, .T. ) ;
#120 = ORIENTED_EDGE ( 'NONE', *, *, #271, .F. ) ;
#121 = LINE ( 'NONE', #75, #231 ) ;
#122 = CLOSED_SHELL ( 'NONE', ( #175, #112, #260, #51 ) ) ;
#123 = EDGE_LOOP ( 'NONE', ( #235, #130 ) ) ;
#124 = PRESENTATION_LAYER_ASSIGNMENT (  '', '', ( #99 ) ) ;
#125 = CARTESIAN_POINT ( 'NONE',  ( 3.184081677783117402E-15, 63.00000000000000000, 0.000000000000000000 ) ) ;
#126 = VERTEX_POINT ( 'NONE', #94 ) ;
#127 =( NAMED_UNIT ( * ) PLANE_ANGLE_UNIT ( ) SI_UNIT ( $, .RADIAN. ) );
#128 = ADVANCED_BREP_SHAPE_REPRESENTATION ( '59598', ( #259, #255, #232 ), #89 ) ;
#129 = FILL_AREA_STYLE ('',( #245 ) ) ;
#130 = ORIENTED_EDGE ( 'NONE', *, *, #98, .T. ) ;
#131 = EDGE_CURVE ( 'NONE', #230, #284, #138, .T. ) ;
#132 =( GEOMETRIC_REPRESENTATION_CONTEXT ( 3 ) GLOBAL_UNCERTAINTY_ASSIGNED_CONTEXT ( ( #184 ) ) GLOBAL_UNIT_ASSIGNED_CONTEXT ( ( #96, #251, #258 ) ) REPRESENTATION_CONTEXT ( 'NONE', 'WORKASPACE' ) );
#133 =( NAMED_UNIT ( * ) PLANE_ANGLE_UNIT ( ) SI_UNIT ( $, .RADIAN. ) );
#134 = DIRECTION ( 'NONE',  ( -1.000000000000000000, 0.000000000000000000, 0.000000000000000000 ) ) ;
#135 = PRODUCT_DEFINITION_CONTEXT ( 'detailed design', #181, 'design' ) ;
#136 = DIRECTION ( 'NONE',  ( -0.000000000000000000, -1.000000000000000000, -0.000000000000000000 ) ) ;
#137 = CARTESIAN_POINT ( 'NONE',  ( 5.000000000000000000, 20.00000000000000355, 6.123233995736765296E-16 ) ) ;
#138 = LINE ( 'NONE', #97, #26 ) ;
#139 = PLANE ( 'NONE',  #91 ) ;
#140 = CYLINDRICAL_SURFACE ( 'NONE', #178, 5.000000000000000000 ) ;
#141 = COLOUR_RGB ( '',0.7921568627450980005, 0.8196078431372548767, 0.9333333333333333481 ) ;
#142 = ORIENTED_EDGE ( 'NONE', *, *, #279, .T. ) ;
#143 = MECHANICAL_DESIGN_GEOMETRIC_PRESENTATION_REPRESENTATION (  '', ( #8 ), #210 ) ;
#144 = APPLICATION_PROTOCOL_DEFINITION ( 'draft international standard', 'automotive_design', 1998, #181 ) ;
#145 = DIRECTION ( 'NONE',  ( 7.404841111123529214E-17, 1.000000000000000000, -0.000000000000000000 ) ) ;
#146 =( NAMED_UNIT ( * ) PLANE_ANGLE_UNIT ( ) SI_UNIT ( $, .RADIAN. ) );
#147 = PRESENTATION_LAYER_ASSIGNMENT (  '', '', ( #277 ) ) ;
#148 = AXIS2_PLACEMENT_3D ( 'NONE', #113, #111, #250 ) ;
#149 = MECHANICAL_DESIGN_GEOMETRIC_PRESENTATION_REPRESENTATION (  '', ( #17 ), #248 ) ;
#150 = CARTESIAN_POINT ( 'NONE',  ( 0.000000000000000000, 20.00000000000000000, 0.000000000000000000 ) ) ;
#151 = SURFACE_STYLE_USAGE ( .BOTH. , #215 ) ;
#152 = CARTESIAN_POINT ( 'NONE',  ( 0.000000000000000000, 20.00000000000000000, 0.000000000000000000 ) ) ;
#153 = EDGE_LOOP ( 'NONE', ( #207, #161, #19, #103 ) ) ;
#154 =( NAMED_UNIT ( * ) PLANE_ANGLE_UNIT ( ) SI_UNIT ( $, .RADIAN. ) );
#155 = FACE_OUTER_BOUND ( 'NONE', #123, .T. ) ;
#156 = VERTEX_POINT ( 'NONE', #187 ) ;
#157 = MECHANICAL_DESIGN_GEOMETRIC_PRESENTATION_REPRESENTATION (  '', ( #42 ), #73 ) ;
#158 = FACE_OUTER_BOUND ( 'NONE', #76, .T. ) ;
#159 = DIRECTION ( 'NONE',  ( 0.000000000000000000, -1.000000000000000000, -0.000000000000000000 ) ) ;
#160 = FACE_OUTER_BOUND ( 'NONE', #18, .T. ) ;
#161 = ORIENTED_EDGE ( 'NONE', *, *, #198, .T. ) ;
#162 = ORIENTED_EDGE ( 'NONE', *, *, #14, .T. ) ;
#163 = VECTOR ( 'NONE', #197, 1000.000000000000000 ) ;
#164 = CARTESIAN_POINT ( 'NONE',  ( -5.000000000000000000, 20.00000000000000355, 0.000000000000000000 ) ) ;
#165 = PRESENTATION_LAYER_ASSIGNMENT (  '', '', ( #42 ) ) ;
#166 = COLOUR_RGB ( '',0.7921568627450980005, 0.8196078431372548767, 0.9333333333333333481 ) ;
#167 = PRESENTATION_LAYER_ASSIGNMENT (  '', '', ( #8 ) ) ;
#168 = PRODUCT_CONTEXT ( 'NONE', #70, 'mechanical' ) ;
#169 = AXIS2_PLACEMENT_3D ( 'NONE', #40, #77, #246 ) ;
#170 = SURFACE_STYLE_FILL_AREA ( #228 ) ;
#171 = ORIENTED_EDGE ( 'NONE', *, *, #109, .F. ) ;
#172 = ORIENTED_EDGE ( 'NONE', *, *, #98, .F. ) ;
#173 =( GEOMETRIC_REPRESENTATION_CONTEXT ( 3 ) GLOBAL_UNCERTAINTY_ASSIGNED_CONTEXT ( ( #200 ) ) GLOBAL_UNIT_ASSIGNED_CONTEXT ( ( #267, #154, #24 ) ) REPRESENTATION_CONTEXT ( 'NONE', 'WORKASPACE' ) );
#174 = CIRCLE ( 'NONE', #169, 5.000000000000000000 ) ;
#175 = ADVANCED_FACE ( 'NONE', ( #160 ), #190, .T. ) ;
#176 = CARTESIAN_POINT ( 'NONE',  ( 6.123233995736766282E-16, 0.000000000000000000, 5.000000000000000000 ) ) ;
#177 = CYLINDRICAL_SURFACE ( 'NONE', #218, 4.999999999999998224 ) ;
#178 = AXIS2_PLACEMENT_3D ( 'NONE', #115, #29, #276 ) ;
#179 = CARTESIAN_POINT ( 'NONE',  ( 0.000000000000000000, 0.000000000000000000, 0.000000000000000000 ) ) ;
#180 = DIRECTION ( 'NONE',  ( 7.404841111123529214E-17, 1.000000000000000000, -0.000000000000000000 ) ) ;
#181 = APPLICATION_CONTEXT ( 'automotive_design' ) ;
#182 =( NAMED_UNIT ( * ) SI_UNIT ( $, .STERADIAN. ) SOLID_ANGLE_UNIT ( ) );
#183 = SURFACE_STYLE_FILL_AREA ( #60 ) ;
#184 = UNCERTAINTY_MEASURE_WITH_UNIT (LENGTH_MEASURE( 1.000000000000000082E-05 ), #96, 'distance_accuracy_value', 'NONE');
#185 = EDGE_LOOP ( 'NONE', ( #54, #36, #212, #172 ) ) ;
#186 = PRESENTATION_LAYER_ASSIGNMENT (  '', '', ( #206 ) ) ;
#187 = CARTESIAN_POINT ( 'NONE',  ( 5.000000000000000000, 63.00000000000000000, 6.123233995736765296E-16 ) ) ;
#188 = CIRCLE ( 'NONE', #252, 5.000000000000000000 ) ;
#189 = PRODUCT ( '59598', '59598', '', ( #168 ) ) ;
#190 = CYLINDRICAL_SURFACE ( 'NONE', #84, 4.999999999999998224 ) ;
#191 = ORIENTED_EDGE ( 'NONE', *, *, #131, .F. ) ;
#192 = ORIENTED_EDGE ( 'NONE', *, *, #23, .F. ) ;
#193 = EDGE_LOOP ( 'NONE', ( #105, #142 ) ) ;
#194 = CIRCLE ( 'NONE', #114, 5.000000000000000000 ) ;
#195 = PRESENTATION_STYLE_ASSIGNMENT (( #104 ) ) ;
#196 = SURFACE_SIDE_STYLE ('',( #48 ) ) ;
#197 = DIRECTION ( 'NONE',  ( -0.000000000000000000, -1.000000000000000000, -0.000000000000000000 ) ) ;
#198 = EDGE_CURVE ( 'NONE', #55, #230, #194, .T. ) ;
#199 = CARTESIAN_POINT ( 'NONE',  ( 0.000000000000000000, 0.000000000000000000, -5.000000000000000000 ) ) ;
#200 = UNCERTAINTY_MEASURE_WITH_UNIT (LENGTH_MEASURE( 1.000000000000000082E-05 ), #267, 'distance_accuracy_value', 'NONE');
#201 = CARTESIAN_POINT ( 'NONE',  ( 1.370791797024628714E-32, 20.00000000000000000, 0.000000000000000000 ) ) ;
#202 = UNCERTAINTY_MEASURE_WITH_UNIT (LENGTH_MEASURE( 1.000000000000000082E-05 ), #287, 'distance_accuracy_value', 'NONE');
#203 = CIRCLE ( 'NONE', #148, 5.000000000000000000 ) ;
#204 = DIRECTION ( 'NONE',  ( -1.000000000000000000, 0.000000000000000000, 0.000000000000000000 ) ) ;
#205 = DIRECTION ( 'NONE',  ( -1.000000000000000000, 7.404841111123529214E-17, 0.000000000000000000 ) ) ;
#206 = STYLED_ITEM ( 'NONE', ( #6 ), #81 ) ;
#207 = ORIENTED_EDGE ( 'NONE', *, *, #213, .F. ) ;
#208 = SHAPE_DEFINITION_REPRESENTATION ( #256, #128 ) ;
#209 = FILL_AREA_STYLE_COLOUR ( '', #79 ) ;
#210 =( GEOMETRIC_REPRESENTATION_CONTEXT ( 3 ) GLOBAL_UNCERTAINTY_ASSIGNED_CONTEXT ( ( #67 ) ) GLOBAL_UNIT_ASSIGNED_CONTEXT ( ( #78, #127, #261 ) ) REPRESENTATION_CONTEXT ( 'NONE', 'WORKASPACE' ) );
#211 = ORIENTED_EDGE ( 'NONE', *, *, #69, .F. ) ;
#212 = ORIENTED_EDGE ( 'NONE', *, *, #220, .T. ) ;
#213 = EDGE_CURVE ( 'NONE', #55, #156, #100, .T. ) ;
#214 = DIRECTION ( 'NONE',  ( 0.000000000000000000, -0.000000000000000000, 1.000000000000000000 ) ) ;
#215 = SURFACE_SIDE_STYLE ('',( #45 ) ) ;
#216 =( LENGTH_UNIT ( ) NAMED_UNIT ( * ) SI_UNIT ( .MILLI., .METRE. ) );
#217 = AXIS2_PLACEMENT_3D ( 'NONE', #244, #180, #44 ) ;
#218 = AXIS2_PLACEMENT_3D ( 'NONE', #125, #47, #134 ) ;
#219 = FILL_AREA_STYLE_COLOUR ( '', #166 ) ;
#220 = EDGE_CURVE ( 'NONE', #233, #39, #121, .T. ) ;
#221 = PRESENTATION_STYLE_ASSIGNMENT (( #106 ) ) ;
#222 = CARTESIAN_POINT ( 'NONE',  ( 5.000000000000000000, 63.00000000000000000, 0.000000000000000000 ) ) ;
#223 = FILL_AREA_STYLE_COLOUR ( '', #237 ) ;
#224 = EDGE_LOOP ( 'NONE', ( #86, #162, #120, #35 ) ) ;
#225 = CARTESIAN_POINT ( 'NONE',  ( 0.000000000000000000, 20.00000000000000355, 0.000000000000000000 ) ) ;
#226 = DIRECTION ( 'NONE',  ( 7.404841111123529214E-17, 1.000000000000000000, -0.000000000000000000 ) ) ;
#227 = ADVANCED_FACE ( 'NONE', ( #10 ), #140, .T. ) ;
#228 = FILL_AREA_STYLE ('',( #209 ) ) ;
#229 = ORIENTED_EDGE ( 'NONE', *, *, #198, .F. ) ;
#230 = VERTEX_POINT ( 'NONE', #164 ) ;
#231 = VECTOR ( 'NONE', #9, 1000.000000000000000 ) ;
#232 = AXIS2_PLACEMENT_3D ( 'NONE', #34, #12, #254 ) ;
#233 = VERTEX_POINT ( 'NONE', #56 ) ;
#234 = DIRECTION ( 'NONE',  ( 7.404841111123529214E-17, 1.000000000000000000, -0.000000000000000000 ) ) ;
#235 = ORIENTED_EDGE ( 'NONE', *, *, #271, .T. ) ;
#236 =( NAMED_UNIT ( * ) SI_UNIT ( $, .STERADIAN. ) SOLID_ANGLE_UNIT ( ) );
#237 = COLOUR_RGB ( '',1.000000000000000000, 0.000000000000000000, 0.000000000000000000 ) ;
#238 = DIRECTION ( 'NONE',  ( 0.000000000000000000, 1.000000000000000000, 0.000000000000000000 ) ) ;
#239 = FILL_AREA_STYLE ('',( #288 ) ) ;
#240 = FACE_OUTER_BOUND ( 'NONE', #193, .T. ) ;
#241 = ADVANCED_FACE ( 'NONE', ( #158 ), #253, .T. ) ;
#242 = DIRECTION ( 'NONE',  ( -7.404841111123529214E-17, -1.000000000000000000, 0.000000000000000000 ) ) ;
#243 = FACE_OUTER_BOUND ( 'NONE', #153, .T. ) ;
#244 = CARTESIAN_POINT ( 'NONE',  ( 3.184081677783117402E-15, 63.00000000000000000, 0.000000000000000000 ) ) ;
#245 = FILL_AREA_STYLE_COLOUR ( '', #74 ) ;
#246 = DIRECTION ( 'NONE',  ( 0.000000000000000000, 0.000000000000000000, -1.000000000000000000 ) ) ;
#247 = PLANE ( 'NONE',  #108 ) ;
#248 =( GEOMETRIC_REPRESENTATION_CONTEXT ( 3 ) GLOBAL_UNCERTAINTY_ASSIGNED_CONTEXT ( ( #202 ) ) GLOBAL_UNIT_ASSIGNED_CONTEXT ( ( #287, #146, #236 ) ) REPRESENTATION_CONTEXT ( 'NONE', 'WORKASPACE' ) );
#249 = FILL_AREA_STYLE ('',( #33 ) ) ;
#250 = DIRECTION ( 'NONE',  ( 0.000000000000000000, 0.000000000000000000, -1.000000000000000000 ) ) ;
#251 =( NAMED_UNIT ( * ) PLANE_ANGLE_UNIT ( ) SI_UNIT ( $, .RADIAN. ) );
#252 = AXIS2_PLACEMENT_3D ( 'NONE', #11, #90, #27 ) ;
#253 = PLANE ( 'NONE',  #3 ) ;
#254 = DIRECTION ( 'NONE',  ( 1.000000000000000000, 0.000000000000000000, 0.000000000000000000 ) ) ;
#255 = MANIFOLD_SOLID_BREP ( 'Revolve - Tool Body (Straight Shanked)', #122 ) ;
#256 = PRODUCT_DEFINITION_SHAPE ( 'NONE', 'NONE',  #95 ) ;
#257 = ORIENTED_EDGE ( 'NONE', *, *, #23, .T. ) ;
#258 =( NAMED_UNIT ( * ) SI_UNIT ( $, .STERADIAN. ) SOLID_ANGLE_UNIT ( ) );
#259 = MANIFOLD_SOLID_BREP ( 'Revolve - Cutting Edge', #2 ) ;
#260 = ADVANCED_FACE ( 'NONE', ( #243 ), #177, .T. ) ;
#261 =( NAMED_UNIT ( * ) SI_UNIT ( $, .STERADIAN. ) SOLID_ANGLE_UNIT ( ) );
#262 = PRESENTATION_STYLE_ASSIGNMENT (( #59 ) ) ;
#263 = CIRCLE ( 'NONE', #217, 4.999999999999996447 ) ;
#264 =( LENGTH_UNIT ( ) NAMED_UNIT ( * ) SI_UNIT ( .MILLI., .METRE. ) );
#265 = SURFACE_STYLE_FILL_AREA ( #249 ) ;
#266 = FILL_AREA_STYLE ('',( #219 ) ) ;
#267 =( LENGTH_UNIT ( ) NAMED_UNIT ( * ) SI_UNIT ( .MILLI., .METRE. ) );
#268 = CIRCLE ( 'NONE', #46, 5.000000000000000000 ) ;
#269 =( LENGTH_UNIT ( ) NAMED_UNIT ( * ) SI_UNIT ( .MILLI., .METRE. ) );
#270 = PLANE ( 'NONE',  #72 ) ;
#271 = EDGE_CURVE ( 'NONE', #39, #116, #174, .T. ) ;
#272 = SURFACE_STYLE_USAGE ( .BOTH. , #71 ) ;
#273 = CARTESIAN_POINT ( 'NONE',  ( 3.184081677783117402E-15, 63.00000000000000000, 0.000000000000000000 ) ) ;
#274 = MECHANICAL_DESIGN_GEOMETRIC_PRESENTATION_REPRESENTATION (  '', ( #99 ), #132 ) ;
#275 = AXIS2_PLACEMENT_3D ( 'NONE', #273, #63, #5 ) ;
#276 = DIRECTION ( 'NONE',  ( 0.000000000000000000, 0.000000000000000000, -1.000000000000000000 ) ) ;
#277 = STYLED_ITEM ( 'NONE', ( #221 ), #28 ) ;
#278 = AXIS2_PLACEMENT_3D ( 'NONE', #179, #58, #80 ) ;
#279 = EDGE_CURVE ( 'NONE', #156, #284, #93, .T. ) ;
#280 = APPLICATION_PROTOCOL_DEFINITION ( 'draft international standard', 'automotive_design', 1998, #70 ) ;
#281 = CARTESIAN_POINT ( 'NONE',  ( 3.184081677783117402E-15, 63.00000000000000000, 0.000000000000000000 ) ) ;
#282 = VECTOR ( 'NONE', #15, 1000.000000000000000 ) ;
#283 =( NAMED_UNIT ( * ) SI_UNIT ( $, .STERADIAN. ) SOLID_ANGLE_UNIT ( ) );
#284 = VERTEX_POINT ( 'NONE', #87 ) ;
#285 = PRESENTATION_STYLE_ASSIGNMENT (( #151 ) ) ;
#286 = LINE ( 'NONE', #176, #163 ) ;
#287 =( LENGTH_UNIT ( ) NAMED_UNIT ( * ) SI_UNIT ( .MILLI., .METRE. ) );
#288 = FILL_AREA_STYLE_COLOUR ( '', #141 ) ;
ENDSEC;
END-ISO-10303-21;
