ISO-10303-21;
HEADER;
FILE_DESCRIPTION (( 'STEP AP214' ),
    '1' );
FILE_NAME ('59587.STEP',
    '2023-07-24T15:13:06',
    ( '' ),
    ( '' ),
    'SwSTEP 2.0',
    'SolidWorks 2023',
    '' );
FILE_SCHEMA (( 'AUTOMOTIVE_DESIGN' ));
ENDSEC;

DATA;
#1 = AXIS2_PLACEMENT_3D ( 'NONE', #173, #290, #280 ) ;
#2 = MECHANICAL_DESIGN_GEOMETRIC_PRESENTATION_REPRESENTATION (  '', ( #254 ), #154 ) ;
#3 =( NAMED_UNIT ( * ) PLANE_ANGLE_UNIT ( ) SI_UNIT ( $, .RADIAN. ) );
#4 = CLOSED_SHELL ( 'NONE', ( #77, #232, #359, #137 ) ) ;
#5 = CARTESIAN_POINT ( 'NONE',  ( 0.000000000000000000, 0.5000000000000000000, -8.000000000000000000 ) ) ;
#6 =( LENGTH_UNIT ( ) NAMED_UNIT ( * ) SI_UNIT ( .MILLI., .METRE. ) );
#7 = EDGE_LOOP ( 'NONE', ( #243, #92, #125, #197 ) ) ;
#8 = PLANE ( 'NONE',  #84 ) ;
#9 = PRESENTATION_LAYER_ASSIGNMENT (  '', '', ( #255 ) ) ;
#10 =( NAMED_UNIT ( * ) SI_UNIT ( $, .STERADIAN. ) SOLID_ANGLE_UNIT ( ) );
#11 = DIRECTION ( 'NONE',  ( -0.000000000000000000, -1.000000000000000000, -0.000000000000000000 ) ) ;
#12 = DIRECTION ( 'NONE',  ( -1.231212018341879827E-16, 1.000000000000000000, -0.000000000000000000 ) ) ;
#13 =( LENGTH_UNIT ( ) NAMED_UNIT ( * ) SI_UNIT ( .MILLI., .METRE. ) );
#14 = DIRECTION ( 'NONE',  ( 0.000000000000000000, 0.000000000000000000, -1.000000000000000000 ) ) ;
#15 = DIRECTION ( 'NONE',  ( 0.000000000000000000, 0.000000000000000000, -1.000000000000000000 ) ) ;
#16 =( GEOMETRIC_REPRESENTATION_CONTEXT ( 3 ) GLOBAL_UNCERTAINTY_ASSIGNED_CONTEXT ( ( #302 ) ) GLOBAL_UNIT_ASSIGNED_CONTEXT ( ( #347, #181, #101 ) ) REPRESENTATION_CONTEXT ( 'NONE', 'WORKASPACE' ) );
#17 = UNCERTAINTY_MEASURE_WITH_UNIT (LENGTH_MEASURE( 1.000000000000000082E-05 ), #109, 'distance_accuracy_value', 'NONE');
#18 = FILL_AREA_STYLE_COLOUR ( '', #192 ) ;
#19 = STYLED_ITEM ( 'NONE', ( #150 ), #267 ) ;
#20 = ORIENTED_EDGE ( 'NONE', *, *, #307, .T. ) ;
#21 = CIRCLE ( 'NONE', #212, 7.999999999999992895 ) ;
#22 = EDGE_CURVE ( 'NONE', #291, #319, #274, .T. ) ;
#23 = ORIENTED_EDGE ( 'NONE', *, *, #112, .T. ) ;
#24 = SURFACE_STYLE_USAGE ( .BOTH. , #91 ) ;
#25 = SURFACE_STYLE_FILL_AREA ( #29 ) ;
#26 = CARTESIAN_POINT ( 'NONE',  ( -7.999999999999986677, 23.99999999999999289, 0.000000000000000000 ) ) ;
#27 = EDGE_LOOP ( 'NONE', ( #349, #317 ) ) ;
#28 = AXIS2_PLACEMENT_3D ( 'NONE', #276, #107, #15 ) ;
#29 = FILL_AREA_STYLE ('',( #34 ) ) ;
#30 = FILL_AREA_STYLE_COLOUR ( '', #100 ) ;
#31 = ORIENTED_EDGE ( 'NONE', *, *, #224, .T. ) ;
#32 = SURFACE_STYLE_USAGE ( .BOTH. , #103 ) ;
#33 = DIRECTION ( 'NONE',  ( -1.224646799147353454E-16, 0.000000000000000000, -1.000000000000000000 ) ) ;
#34 = FILL_AREA_STYLE_COLOUR ( '', #176 ) ;
#35 = SURFACE_STYLE_FILL_AREA ( #73 ) ;
#36 = VECTOR ( 'NONE', #351, 1000.000000000000000 ) ;
#37 = MECHANICAL_DESIGN_GEOMETRIC_PRESENTATION_REPRESENTATION (  '', ( #322 ), #80 ) ;
#38 = DIRECTION ( 'NONE',  ( -1.000000000000000000, 0.000000000000000000, 0.000000000000000000 ) ) ;
#39 = DIRECTION ( 'NONE',  ( -1.000000000000000000, 0.000000000000000000, 0.000000000000000000 ) ) ;
#40 = CARTESIAN_POINT ( 'NONE',  ( -1.714505518806293849E-15, 89.00000000000000000, 0.000000000000000000 ) ) ;
#41 = PRESENTATION_STYLE_ASSIGNMENT (( #76 ) ) ;
#42 = AXIS2_PLACEMENT_3D ( 'NONE', #326, #69, #183 ) ;
#43 = ADVANCED_FACE ( 'NONE', ( #164 ), #247, .T. ) ;
#44 = COLOUR_RGB ( '',0.7921568627450980005, 0.8196078431372548767, 0.9333333333333333481 ) ;
#45 = MECHANICAL_DESIGN_GEOMETRIC_PRESENTATION_REPRESENTATION (  '', ( #299 ), #278 ) ;
#46 = APPLICATION_CONTEXT ( 'automotive_design' ) ;
#47 = COLOUR_RGB ( '',1.000000000000000000, 0.000000000000000000, 0.000000000000000000 ) ;
#48 = PRESENTATION_LAYER_ASSIGNMENT (  '', '', ( #254 ) ) ;
#49 = SURFACE_STYLE_FILL_AREA ( #281 ) ;
#50 = CARTESIAN_POINT ( 'NONE',  ( 0.000000000000000000, 0.000000000000000000, 0.000000000000000000 ) ) ;
#51 = FACE_OUTER_BOUND ( 'NONE', #213, .T. ) ;
#52 = PRODUCT_RELATED_PRODUCT_CATEGORY ( 'part', '', ( #207 ) ) ;
#53 = FACE_OUTER_BOUND ( 'NONE', #86, .T. ) ;
#54 = ORIENTED_EDGE ( 'NONE', *, *, #224, .F. ) ;
#55 = DIRECTION ( 'NONE',  ( 0.000000000000000000, 0.000000000000000000, -1.000000000000000000 ) ) ;
#56 =( NAMED_UNIT ( * ) PLANE_ANGLE_UNIT ( ) SI_UNIT ( $, .RADIAN. ) );
#57 = FACE_OUTER_BOUND ( 'NONE', #124, .T. ) ;
#58 = CIRCLE ( 'NONE', #166, 8.000000000000000000 ) ;
#59 = ORIENTED_EDGE ( 'NONE', *, *, #307, .F. ) ;
#60 = EDGE_CURVE ( 'NONE', #155, #128, #58, .T. ) ;
#61 = PRESENTATION_STYLE_ASSIGNMENT (( #32 ) ) ;
#62 = FILL_AREA_STYLE_COLOUR ( '', #44 ) ;
#63 = ORIENTED_EDGE ( 'NONE', *, *, #218, .T. ) ;
#64 =( GEOMETRIC_REPRESENTATION_CONTEXT ( 3 ) GLOBAL_UNCERTAINTY_ASSIGNED_CONTEXT ( ( #251 ) ) GLOBAL_UNIT_ASSIGNED_CONTEXT ( ( #151, #131, #237 ) ) REPRESENTATION_CONTEXT ( 'NONE', 'WORKASPACE' ) );
#65 =( GEOMETRIC_REPRESENTATION_CONTEXT ( 3 ) GLOBAL_UNCERTAINTY_ASSIGNED_CONTEXT ( ( #188 ) ) GLOBAL_UNIT_ASSIGNED_CONTEXT ( ( #200, #3, #238 ) ) REPRESENTATION_CONTEXT ( 'NONE', 'WORKASPACE' ) );
#66 = ORIENTED_EDGE ( 'NONE', *, *, #191, .F. ) ;
#67 = CARTESIAN_POINT ( 'NONE',  ( 9.797174393178825657E-16, 24.00000000000000000, 8.000000000000000000 ) ) ;
#68 = DIRECTION ( 'NONE',  ( -1.231212018341879827E-16, 1.000000000000000000, -0.000000000000000000 ) ) ;
#69 = DIRECTION ( 'NONE',  ( -1.000000000000000000, 0.000000000000000000, 0.000000000000000000 ) ) ;
#70 = PRODUCT_DEFINITION_CONTEXT ( 'detailed design', #46, 'design' ) ;
#71 = DIRECTION ( 'NONE',  ( -0.000000000000000000, -1.000000000000000000, -0.000000000000000000 ) ) ;
#72 = EDGE_CURVE ( 'NONE', #263, #146, #355, .T. ) ;
#73 = FILL_AREA_STYLE ('',( #219 ) ) ;
#74 = VECTOR ( 'NONE', #215, 1000.000000000000000 ) ;
#75 = DIRECTION ( 'NONE',  ( 1.000000000000000000, 0.000000000000000000, 0.000000000000000000 ) ) ;
#76 = SURFACE_STYLE_USAGE ( .BOTH. , #133 ) ;
#77 = ADVANCED_FACE ( 'NONE', ( #162 ), #329, .T. ) ;
#78 = UNCERTAINTY_MEASURE_WITH_UNIT (LENGTH_MEASURE( 1.000000000000000082E-05 ), #6, 'distance_accuracy_value', 'NONE');
#79 = MECHANICAL_DESIGN_GEOMETRIC_PRESENTATION_REPRESENTATION (  '', ( #19 ), #65 ) ;
#80 =( GEOMETRIC_REPRESENTATION_CONTEXT ( 3 ) GLOBAL_UNCERTAINTY_ASSIGNED_CONTEXT ( ( #333 ) ) GLOBAL_UNIT_ASSIGNED_CONTEXT ( ( #368, #56, #10 ) ) REPRESENTATION_CONTEXT ( 'NONE', 'WORKASPACE' ) );
#81 = PRESENTATION_LAYER_ASSIGNMENT (  '', '', ( #299 ) ) ;
#82 = EDGE_CURVE ( 'NONE', #128, #155, #153, .T. ) ;
#83 = CARTESIAN_POINT ( 'NONE',  ( 0.000000000000000000, 0.5000000000000000000, 0.000000000000000000 ) ) ;
#84 = AXIS2_PLACEMENT_3D ( 'NONE', #324, #320, #244 ) ;
#85 =( NAMED_UNIT ( * ) PLANE_ANGLE_UNIT ( ) SI_UNIT ( $, .RADIAN. ) );
#86 = EDGE_LOOP ( 'NONE', ( #231, #201 ) ) ;
#87 = DIRECTION ( 'NONE',  ( -1.231212018341879827E-16, 1.000000000000000000, -0.000000000000000000 ) ) ;
#88 = AXIS2_PLACEMENT_3D ( 'NONE', #356, #294, #39 ) ;
#89 = ORIENTED_EDGE ( 'NONE', *, *, #72, .T. ) ;
#90 = FILL_AREA_STYLE_COLOUR ( '', #47 ) ;
#91 = SURFACE_SIDE_STYLE ('',( #170 ) ) ;
#92 = ORIENTED_EDGE ( 'NONE', *, *, #332, .T. ) ;
#93 = CARTESIAN_POINT ( 'NONE',  ( 8.000000000000000000, 89.00000000000000000, 9.797174393178825657E-16 ) ) ;
#94 = DIRECTION ( 'NONE',  ( -0.000000000000000000, -1.000000000000000000, -0.000000000000000000 ) ) ;
#95 = VERTEX_POINT ( 'NONE', #135 ) ;
#96 = FILL_AREA_STYLE ('',( #210 ) ) ;
#97 = SURFACE_STYLE_FILL_AREA ( #242 ) ;
#98 = ORIENTED_EDGE ( 'NONE', *, *, #60, .T. ) ;
#99 =( GEOMETRIC_REPRESENTATION_CONTEXT ( 3 ) GLOBAL_UNCERTAINTY_ASSIGNED_CONTEXT ( ( #277 ) ) GLOBAL_UNIT_ASSIGNED_CONTEXT ( ( #168, #143, #233 ) ) REPRESENTATION_CONTEXT ( 'NONE', 'WORKASPACE' ) );
#100 = COLOUR_RGB ( '',1.000000000000000000, 0.000000000000000000, 0.000000000000000000 ) ;
#101 =( NAMED_UNIT ( * ) SI_UNIT ( $, .STERADIAN. ) SOLID_ANGLE_UNIT ( ) );
#102 = DIRECTION ( 'NONE',  ( -0.000000000000000000, -1.000000000000000000, -0.000000000000000000 ) ) ;
#103 = SURFACE_SIDE_STYLE ('',( #25 ) ) ;
#104 = EDGE_CURVE ( 'NONE', #155, #291, #214, .T. ) ;
#105 = FACE_OUTER_BOUND ( 'NONE', #7, .T. ) ;
#106 = DIRECTION ( 'NONE',  ( 1.000000000000000000, 0.000000000000000000, -1.224646799147353207E-16 ) ) ;
#107 = DIRECTION ( 'NONE',  ( -0.000000000000000000, -1.000000000000000000, -0.000000000000000000 ) ) ;
#108 = MECHANICAL_DESIGN_GEOMETRIC_PRESENTATION_REPRESENTATION (  '', ( #252 ), #16 ) ;
#109 =( LENGTH_UNIT ( ) NAMED_UNIT ( * ) SI_UNIT ( .MILLI., .METRE. ) );
#110 = UNCERTAINTY_MEASURE_WITH_UNIT (LENGTH_MEASURE( 1.000000000000000082E-05 ), #202, 'distance_accuracy_value', 'NONE');
#111 = CARTESIAN_POINT ( 'NONE',  ( 0.000000000000000000, 0.000000000000000000, -8.000000000000000000 ) ) ;
#112 = EDGE_CURVE ( 'NONE', #128, #121, #129, .T. ) ;
#113 = MECHANICAL_DESIGN_GEOMETRIC_PRESENTATION_REPRESENTATION (  '', ( #255 ), #64 ) ;
#114 = AXIS2_PLACEMENT_3D ( 'NONE', #348, #71, #300 ) ;
#115 = PRODUCT_DEFINITION ( 'UNKNOWN', '', #285, #70 ) ;
#116 = CARTESIAN_POINT ( 'NONE',  ( 0.000000000000000000, 0.5000000000000000000, 0.000000000000000000 ) ) ;
#117 = AXIS2_PLACEMENT_3D ( 'NONE', #343, #147, #262 ) ;
#118 = EDGE_CURVE ( 'NONE', #121, #95, #130, .T. ) ;
#119 = CARTESIAN_POINT ( 'NONE',  ( 9.797174393178825657E-16, 0.5000000000000000000, 8.000000000000000000 ) ) ;
#120 = ORIENTED_EDGE ( 'NONE', *, *, #22, .F. ) ;
#121 = VERTEX_POINT ( 'NONE', #5 ) ;
#122 = DIRECTION ( 'NONE',  ( 0.000000000000000000, 0.000000000000000000, -1.000000000000000000 ) ) ;
#123 = AXIS2_PLACEMENT_3D ( 'NONE', #309, #94, #152 ) ;
#124 = EDGE_LOOP ( 'NONE', ( #120, #20, #370, #177 ) ) ;
#125 = ORIENTED_EDGE ( 'NONE', *, *, #141, .T. ) ;
#126 = SURFACE_SIDE_STYLE ('',( #241 ) ) ;
#127 = DIRECTION ( 'NONE',  ( 0.000000000000000000, -0.000000000000000000, 1.000000000000000000 ) ) ;
#128 = VERTEX_POINT ( 'NONE', #346 ) ;
#129 = LINE ( 'NONE', #111, #36 ) ;
#130 = CIRCLE ( 'NONE', #42, 0.5000000000000004441 ) ;
#131 =( NAMED_UNIT ( * ) PLANE_ANGLE_UNIT ( ) SI_UNIT ( $, .RADIAN. ) );
#132 = SHAPE_DEFINITION_REPRESENTATION ( #179, #190 ) ;
#133 = SURFACE_SIDE_STYLE ('',( #35 ) ) ;
#134 = CARTESIAN_POINT ( 'NONE',  ( -1.714505518806293652E-15, 89.00000000000000000, 0.000000000000000000 ) ) ;
#135 = CARTESIAN_POINT ( 'NONE',  ( 0.000000000000000000, 0.000000000000000000, -7.500000000000000000 ) ) ;
#136 = COLOUR_RGB ( '',0.7921568627450980005, 0.8196078431372548767, 0.9333333333333333481 ) ;
#137 = ADVANCED_FACE ( 'NONE', ( #293 ), #8, .F. ) ;
#138 =( GEOMETRIC_REPRESENTATION_CONTEXT ( 3 ) GLOBAL_UNCERTAINTY_ASSIGNED_CONTEXT ( ( #110 ) ) GLOBAL_UNIT_ASSIGNED_CONTEXT ( ( #202, #85, #140 ) ) REPRESENTATION_CONTEXT ( 'NONE', 'WORKASPACE' ) );
#139 = SURFACE_STYLE_USAGE ( .BOTH. , #305 ) ;
#140 =( NAMED_UNIT ( * ) SI_UNIT ( $, .STERADIAN. ) SOLID_ANGLE_UNIT ( ) );
#141 = EDGE_CURVE ( 'NONE', #236, #345, #327, .T. ) ;
#142 = APPLICATION_CONTEXT ( 'automotive_design' ) ;
#143 =( NAMED_UNIT ( * ) PLANE_ANGLE_UNIT ( ) SI_UNIT ( $, .RADIAN. ) );
#144 = PRESENTATION_LAYER_ASSIGNMENT (  '', '', ( #321 ) ) ;
#145 = AXIS2_PLACEMENT_3D ( 'NONE', #40, #161, #250 ) ;
#146 = VERTEX_POINT ( 'NONE', #93 ) ;
#147 = DIRECTION ( 'NONE',  ( -0.000000000000000000, -1.000000000000000000, -0.000000000000000000 ) ) ;
#148 = ORIENTED_EDGE ( 'NONE', *, *, #316, .T. ) ;
#149 = MANIFOLD_SOLID_BREP ( 'Revolve - Cutting Edge', #172 ) ;
#150 = PRESENTATION_STYLE_ASSIGNMENT (( #24 ) ) ;
#151 =( LENGTH_UNIT ( ) NAMED_UNIT ( * ) SI_UNIT ( .MILLI., .METRE. ) );
#152 = DIRECTION ( 'NONE',  ( 0.000000000000000000, 0.000000000000000000, -1.000000000000000000 ) ) ;
#153 = CIRCLE ( 'NONE', #28, 8.000000000000000000 ) ;
#154 =( GEOMETRIC_REPRESENTATION_CONTEXT ( 3 ) GLOBAL_UNCERTAINTY_ASSIGNED_CONTEXT ( ( #78 ) ) GLOBAL_UNIT_ASSIGNED_CONTEXT ( ( #6, #292, #203 ) ) REPRESENTATION_CONTEXT ( 'NONE', 'WORKASPACE' ) );
#155 = VERTEX_POINT ( 'NONE', #67 ) ;
#156 = FILL_AREA_STYLE ('',( #62 ) ) ;
#157 = EDGE_LOOP ( 'NONE', ( #310, #208, #66, #287 ) ) ;
#158 = ADVANCED_FACE ( 'NONE', ( #295 ), #265, .T. ) ;
#159 = STYLED_ITEM ( 'NONE', ( #306 ), #209 ) ;
#160 = AXIS2_PLACEMENT_3D ( 'NONE', #134, #12, #182 ) ;
#161 = DIRECTION ( 'NONE',  ( -1.231212018341879827E-16, 1.000000000000000000, -0.000000000000000000 ) ) ;
#162 = FACE_OUTER_BOUND ( 'NONE', #338, .T. ) ;
#163 = EDGE_CURVE ( 'NONE', #95, #319, #169, .T. ) ;
#164 = FACE_OUTER_BOUND ( 'NONE', #157, .T. ) ;
#165 = VECTOR ( 'NONE', #358, 1000.000000000000000 ) ;
#166 = AXIS2_PLACEMENT_3D ( 'NONE', #222, #11, #301 ) ;
#167 = DIRECTION ( 'NONE',  ( 0.000000000000000000, 0.000000000000000000, -1.000000000000000000 ) ) ;
#168 =( LENGTH_UNIT ( ) NAMED_UNIT ( * ) SI_UNIT ( .MILLI., .METRE. ) );
#169 = CIRCLE ( 'NONE', #117, 7.500000000000000000 ) ;
#170 = SURFACE_STYLE_FILL_AREA ( #268 ) ;
#171 = ORIENTED_EDGE ( 'NONE', *, *, #104, .F. ) ;
#172 = CLOSED_SHELL ( 'NONE', ( #43, #296, #158, #178, #209, #267 ) ) ;
#173 = CARTESIAN_POINT ( 'NONE',  ( 0.000000000000000000, 0.000000000000000000, 0.000000000000000000 ) ) ;
#174 = CARTESIAN_POINT ( 'NONE',  ( 8.000000000000000000, 23.99999999999999289, 9.797174393178825657E-16 ) ) ;
#175 = EDGE_LOOP ( 'NONE', ( #63, #148 ) ) ;
#176 = COLOUR_RGB ( '',1.000000000000000000, 0.000000000000000000, 0.000000000000000000 ) ;
#177 = ORIENTED_EDGE ( 'NONE', *, *, #239, .F. ) ;
#178 = ADVANCED_FACE ( 'NONE', ( #57 ), #364, .T. ) ;
#179 = PRODUCT_DEFINITION_SHAPE ( 'NONE', 'NONE',  #115 ) ;
#180 = ORIENTED_EDGE ( 'NONE', *, *, #22, .T. ) ;
#181 =( NAMED_UNIT ( * ) PLANE_ANGLE_UNIT ( ) SI_UNIT ( $, .RADIAN. ) );
#182 = DIRECTION ( 'NONE',  ( -1.000000000000000000, 0.000000000000000000, 0.000000000000000000 ) ) ;
#183 = DIRECTION ( 'NONE',  ( 0.000000000000000000, 0.000000000000000000, 1.000000000000000000 ) ) ;
#184 = CARTESIAN_POINT ( 'NONE',  ( 6.288372600415925717E-15, 23.99999999999999289, 0.000000000000000000 ) ) ;
#185 = AXIS2_PLACEMENT_3D ( 'NONE', #363, #198, #308 ) ;
#186 = CARTESIAN_POINT ( 'NONE',  ( -8.000000000000003553, 89.00000000000000000, 0.000000000000000000 ) ) ;
#187 = CARTESIAN_POINT ( 'NONE',  ( 0.000000000000000000, 0.000000000000000000, 0.000000000000000000 ) ) ;
#188 = UNCERTAINTY_MEASURE_WITH_UNIT (LENGTH_MEASURE( 1.000000000000000082E-05 ), #200, 'distance_accuracy_value', 'NONE');
#189 = CIRCLE ( 'NONE', #123, 7.500000000000000000 ) ;
#190 = ADVANCED_BREP_SHAPE_REPRESENTATION ( '59587', ( #149, #269, #226 ), #193 ) ;
#191 = EDGE_CURVE ( 'NONE', #121, #291, #211, .T. ) ;
#192 = COLOUR_RGB ( '',1.000000000000000000, 0.000000000000000000, 0.000000000000000000 ) ;
#193 =( GEOMETRIC_REPRESENTATION_CONTEXT ( 3 ) GLOBAL_UNCERTAINTY_ASSIGNED_CONTEXT ( ( #17 ) ) GLOBAL_UNIT_ASSIGNED_CONTEXT ( ( #109, #217, #248 ) ) REPRESENTATION_CONTEXT ( 'NONE', 'WORKASPACE' ) );
#194 = SURFACE_STYLE_FILL_AREA ( #314 ) ;
#195 = CARTESIAN_POINT ( 'NONE',  ( -1.714505518806293652E-15, 89.00000000000000000, 0.000000000000000000 ) ) ;
#196 = PLANE ( 'NONE',  #220 ) ;
#197 = ORIENTED_EDGE ( 'NONE', *, *, #316, .F. ) ;
#198 = DIRECTION ( 'NONE',  ( -1.231212018341879827E-16, 1.000000000000000000, -0.000000000000000000 ) ) ;
#199 = AXIS2_PLACEMENT_3D ( 'NONE', #275, #297, #14 ) ;
#200 =( LENGTH_UNIT ( ) NAMED_UNIT ( * ) SI_UNIT ( .MILLI., .METRE. ) );
#201 = ORIENTED_EDGE ( 'NONE', *, *, #60, .F. ) ;
#202 =( LENGTH_UNIT ( ) NAMED_UNIT ( * ) SI_UNIT ( .MILLI., .METRE. ) );
#203 =( NAMED_UNIT ( * ) SI_UNIT ( $, .STERADIAN. ) SOLID_ANGLE_UNIT ( ) );
#204 = ORIENTED_EDGE ( 'NONE', *, *, #163, .F. ) ;
#205 = SURFACE_STYLE_USAGE ( .BOTH. , #126 ) ;
#206 = AXIS2_PLACEMENT_3D ( 'NONE', #187, #102, #331 ) ;
#207 = PRODUCT ( '59587', '59587', '', ( #272 ) ) ;
#208 = ORIENTED_EDGE ( 'NONE', *, *, #104, .T. ) ;
#209 = ADVANCED_FACE ( 'NONE', ( #311 ), #337, .T. ) ;
#210 = FILL_AREA_STYLE_COLOUR ( '', #136 ) ;
#211 = CIRCLE ( 'NONE', #279, 8.000000000000000000 ) ;
#212 = AXIS2_PLACEMENT_3D ( 'NONE', #184, #68, #38 ) ;
#213 = EDGE_LOOP ( 'NONE', ( #54, #264 ) ) ;
#214 = LINE ( 'NONE', #253, #165 ) ;
#215 = DIRECTION ( 'NONE',  ( -1.231212018341879827E-16, 1.000000000000000000, -0.000000000000000000 ) ) ;
#216 = DIRECTION ( 'NONE',  ( -1.231212018341879827E-16, 1.000000000000000000, -0.000000000000000000 ) ) ;
#217 =( NAMED_UNIT ( * ) PLANE_ANGLE_UNIT ( ) SI_UNIT ( $, .RADIAN. ) );
#218 = EDGE_CURVE ( 'NONE', #345, #146, #225, .T. ) ;
#219 = FILL_AREA_STYLE_COLOUR ( '', #361 ) ;
#220 = AXIS2_PLACEMENT_3D ( 'NONE', #318, #344, #127 ) ;
#221 = PRESENTATION_LAYER_ASSIGNMENT (  '', '', ( #252 ) ) ;
#222 = CARTESIAN_POINT ( 'NONE',  ( 0.000000000000000000, 24.00000000000000000, 0.000000000000000000 ) ) ;
#223 = UNCERTAINTY_MEASURE_WITH_UNIT (LENGTH_MEASURE( 1.000000000000000082E-05 ), #13, 'distance_accuracy_value', 'NONE');
#224 = EDGE_CURVE ( 'NONE', #236, #263, #342, .T. ) ;
#225 = CIRCLE ( 'NONE', #234, 8.000000000000001776 ) ;
#226 = AXIS2_PLACEMENT_3D ( 'NONE', #245, #330, #75 ) ;
#227 = FILL_AREA_STYLE_COLOUR ( '', #258 ) ;
#228 = AXIS2_PLACEMENT_3D ( 'NONE', #83, #256, #55 ) ;
#229 = PRESENTATION_LAYER_ASSIGNMENT (  '', '', ( #322 ) ) ;
#230 = PRESENTATION_STYLE_ASSIGNMENT (( #323 ) ) ;
#231 = ORIENTED_EDGE ( 'NONE', *, *, #82, .F. ) ;
#232 = ADVANCED_FACE ( 'NONE', ( #51 ), #284, .F. ) ;
#233 =( NAMED_UNIT ( * ) SI_UNIT ( $, .STERADIAN. ) SOLID_ANGLE_UNIT ( ) );
#234 = AXIS2_PLACEMENT_3D ( 'NONE', #195, #87, #257 ) ;
#235 = FACE_OUTER_BOUND ( 'NONE', #289, .T. ) ;
#236 = VERTEX_POINT ( 'NONE', #26 ) ;
#237 =( NAMED_UNIT ( * ) SI_UNIT ( $, .STERADIAN. ) SOLID_ANGLE_UNIT ( ) );
#238 =( NAMED_UNIT ( * ) SI_UNIT ( $, .STERADIAN. ) SOLID_ANGLE_UNIT ( ) );
#239 = EDGE_CURVE ( 'NONE', #319, #95, #189, .T. ) ;
#240 = ORIENTED_EDGE ( 'NONE', *, *, #218, .F. ) ;
#241 = SURFACE_STYLE_FILL_AREA ( #96 ) ;
#242 = FILL_AREA_STYLE ('',( #30 ) ) ;
#243 = ORIENTED_EDGE ( 'NONE', *, *, #72, .F. ) ;
#244 = DIRECTION ( 'NONE',  ( 1.000000000000000000, 1.231212018341879827E-16, 0.000000000000000000 ) ) ;
#245 = CARTESIAN_POINT ( 'NONE',  ( 0.000000000000000000, 0.000000000000000000, 0.000000000000000000 ) ) ;
#246 = PRESENTATION_LAYER_ASSIGNMENT (  '', '', ( #19 ) ) ;
#247 = CYLINDRICAL_SURFACE ( 'NONE', #206, 8.000000000000000000 ) ;
#248 =( NAMED_UNIT ( * ) SI_UNIT ( $, .STERADIAN. ) SOLID_ANGLE_UNIT ( ) );
#249 = CARTESIAN_POINT ( 'NONE',  ( 7.999999999999994671, 89.00000000000000000, 9.797174393178821713E-16 ) ) ;
#250 = DIRECTION ( 'NONE',  ( -1.000000000000000000, 0.000000000000000000, 0.000000000000000000 ) ) ;
#251 = UNCERTAINTY_MEASURE_WITH_UNIT (LENGTH_MEASURE( 1.000000000000000082E-05 ), #151, 'distance_accuracy_value', 'NONE');
#252 = STYLED_ITEM ( 'NONE', ( #350 ), #149 ) ;
#253 = CARTESIAN_POINT ( 'NONE',  ( 9.797174393178825657E-16, 0.000000000000000000, 8.000000000000000000 ) ) ;
#254 = STYLED_ITEM ( 'NONE', ( #270 ), #269 ) ;
#255 = STYLED_ITEM ( 'NONE', ( #61 ), #158 ) ;
#256 = DIRECTION ( 'NONE',  ( -0.000000000000000000, -1.000000000000000000, -0.000000000000000000 ) ) ;
#257 = DIRECTION ( 'NONE',  ( -1.000000000000000000, 0.000000000000000000, 0.000000000000000000 ) ) ;
#258 = COLOUR_RGB ( '',1.000000000000000000, 0.000000000000000000, 0.000000000000000000 ) ;
#259 = DIRECTION ( 'NONE',  ( -0.000000000000000000, -1.000000000000000000, -0.000000000000000000 ) ) ;
#260 = SURFACE_SIDE_STYLE ('',( #315 ) ) ;
#261 = ORIENTED_EDGE ( 'NONE', *, *, #191, .T. ) ;
#262 = DIRECTION ( 'NONE',  ( 0.000000000000000000, 0.000000000000000000, -1.000000000000000000 ) ) ;
#263 = VERTEX_POINT ( 'NONE', #174 ) ;
#264 = ORIENTED_EDGE ( 'NONE', *, *, #332, .F. ) ;
#265 = PLANE ( 'NONE',  #1 ) ;
#266 = AXIS2_PLACEMENT_3D ( 'NONE', #340, #282, #288 ) ;
#267 = ADVANCED_FACE ( 'NONE', ( #53 ), #196, .T. ) ;
#268 = FILL_AREA_STYLE ('',( #18 ) ) ;
#269 = MANIFOLD_SOLID_BREP ( 'Revolve - Tool Body (Straight Shanked)', #4 ) ;
#270 = PRESENTATION_STYLE_ASSIGNMENT (( #286 ) ) ;
#271 = CYLINDRICAL_SURFACE ( 'NONE', #145, 7.999999999999996447 ) ;
#272 = PRODUCT_CONTEXT ( 'NONE', #142, 'mechanical' ) ;
#273 =( NAMED_UNIT ( * ) SI_UNIT ( $, .STERADIAN. ) SOLID_ANGLE_UNIT ( ) );
#274 = CIRCLE ( 'NONE', #313, 0.5000000000000004441 ) ;
#275 = CARTESIAN_POINT ( 'NONE',  ( 0.000000000000000000, 0.5000000000000000000, 0.000000000000000000 ) ) ;
#276 = CARTESIAN_POINT ( 'NONE',  ( 0.000000000000000000, 24.00000000000000000, 0.000000000000000000 ) ) ;
#277 = UNCERTAINTY_MEASURE_WITH_UNIT (LENGTH_MEASURE( 1.000000000000000082E-05 ), #168, 'distance_accuracy_value', 'NONE');
#278 =( GEOMETRIC_REPRESENTATION_CONTEXT ( 3 ) GLOBAL_UNCERTAINTY_ASSIGNED_CONTEXT ( ( #223 ) ) GLOBAL_UNIT_ASSIGNED_CONTEXT ( ( #13, #298, #273 ) ) REPRESENTATION_CONTEXT ( 'NONE', 'WORKASPACE' ) );
#279 = AXIS2_PLACEMENT_3D ( 'NONE', #116, #259, #167 ) ;
#280 = DIRECTION ( 'NONE',  ( 0.000000000000000000, 0.000000000000000000, -1.000000000000000000 ) ) ;
#281 = FILL_AREA_STYLE ('',( #90 ) ) ;
#282 = DIRECTION ( 'NONE',  ( -1.231212018341879827E-16, 1.000000000000000000, 0.000000000000000000 ) ) ;
#283 = MECHANICAL_DESIGN_GEOMETRIC_PRESENTATION_REPRESENTATION (  '', ( #321 ), #99 ) ;
#284 = PLANE ( 'NONE',  #266 ) ;
#285 = PRODUCT_DEFINITION_FORMATION_WITH_SPECIFIED_SOURCE ( 'ANY', '', #207, .NOT_KNOWN. ) ;
#286 = SURFACE_STYLE_USAGE ( .BOTH. , #260 ) ;
#287 = ORIENTED_EDGE ( 'NONE', *, *, #112, .F. ) ;
#288 = DIRECTION ( 'NONE',  ( -1.000000000000000000, -1.231212018341879827E-16, 0.000000000000000000 ) ) ;
#289 = EDGE_LOOP ( 'NONE', ( #261, #180, #204, #341 ) ) ;
#290 = DIRECTION ( 'NONE',  ( 0.000000000000000000, -1.000000000000000000, -0.000000000000000000 ) ) ;
#291 = VERTEX_POINT ( 'NONE', #119 ) ;
#292 =( NAMED_UNIT ( * ) PLANE_ANGLE_UNIT ( ) SI_UNIT ( $, .RADIAN. ) );
#293 = FACE_OUTER_BOUND ( 'NONE', #175, .T. ) ;
#294 = DIRECTION ( 'NONE',  ( -1.231212018341879827E-16, 1.000000000000000000, -0.000000000000000000 ) ) ;
#295 = FACE_OUTER_BOUND ( 'NONE', #27, .T. ) ;
#296 = ADVANCED_FACE ( 'NONE', ( #235 ), #304, .T. ) ;
#297 = DIRECTION ( 'NONE',  ( -0.000000000000000000, -1.000000000000000000, -0.000000000000000000 ) ) ;
#298 =( NAMED_UNIT ( * ) PLANE_ANGLE_UNIT ( ) SI_UNIT ( $, .RADIAN. ) );
#299 = STYLED_ITEM ( 'NONE', ( #41 ), #43 ) ;
#300 = DIRECTION ( 'NONE',  ( 0.000000000000000000, 0.000000000000000000, -1.000000000000000000 ) ) ;
#301 = DIRECTION ( 'NONE',  ( 0.000000000000000000, 0.000000000000000000, -1.000000000000000000 ) ) ;
#302 = UNCERTAINTY_MEASURE_WITH_UNIT (LENGTH_MEASURE( 1.000000000000000082E-05 ), #347, 'distance_accuracy_value', 'NONE');
#303 = MECHANICAL_DESIGN_GEOMETRIC_PRESENTATION_REPRESENTATION (  '', ( #159 ), #138 ) ;
#304 = TOROIDAL_SURFACE ( 'NONE', #199, 7.500000000000000000, 0.5000000000000002220 ) ;
#305 = SURFACE_SIDE_STYLE ('',( #49 ) ) ;
#306 = PRESENTATION_STYLE_ASSIGNMENT (( #334 ) ) ;
#307 = EDGE_CURVE ( 'NONE', #291, #121, #365, .T. ) ;
#308 = DIRECTION ( 'NONE',  ( -1.000000000000000000, 0.000000000000000000, 0.000000000000000000 ) ) ;
#309 = CARTESIAN_POINT ( 'NONE',  ( 0.000000000000000000, 0.000000000000000000, 0.000000000000000000 ) ) ;
#310 = ORIENTED_EDGE ( 'NONE', *, *, #82, .T. ) ;
#311 = FACE_OUTER_BOUND ( 'NONE', #369, .T. ) ;
#312 = CARTESIAN_POINT ( 'NONE',  ( 9.184850993605147944E-16, 0.5000000000000000000, 7.500000000000000000 ) ) ;
#313 = AXIS2_PLACEMENT_3D ( 'NONE', #312, #106, #33 ) ;
#314 = FILL_AREA_STYLE ('',( #227 ) ) ;
#315 = SURFACE_STYLE_FILL_AREA ( #156 ) ;
#316 = EDGE_CURVE ( 'NONE', #146, #345, #335, .T. ) ;
#317 = ORIENTED_EDGE ( 'NONE', *, *, #239, .T. ) ;
#318 = CARTESIAN_POINT ( 'NONE',  ( 0.000000000000000000, 24.00000000000000000, 0.000000000000000000 ) ) ;
#319 = VERTEX_POINT ( 'NONE', #354 ) ;
#320 = DIRECTION ( 'NONE',  ( 1.231212018341879827E-16, -1.000000000000000000, 0.000000000000000000 ) ) ;
#321 = STYLED_ITEM ( 'NONE', ( #362 ), #178 ) ;
#322 = STYLED_ITEM ( 'NONE', ( #230 ), #296 ) ;
#323 = SURFACE_STYLE_USAGE ( .BOTH. , #366 ) ;
#324 = CARTESIAN_POINT ( 'NONE',  ( 8.000000000000000000, 89.00000000000000000, 0.000000000000000000 ) ) ;
#325 = APPLICATION_PROTOCOL_DEFINITION ( 'draft international standard', 'automotive_design', 1998, #142 ) ;
#326 = CARTESIAN_POINT ( 'NONE',  ( 0.000000000000000000, 0.5000000000000000000, -7.500000000000000000 ) ) ;
#327 = LINE ( 'NONE', #352, #74 ) ;
#328 = APPLICATION_PROTOCOL_DEFINITION ( 'draft international standard', 'automotive_design', 1998, #46 ) ;
#329 = CYLINDRICAL_SURFACE ( 'NONE', #88, 7.999999999999996447 ) ;
#330 = DIRECTION ( 'NONE',  ( 0.000000000000000000, 0.000000000000000000, 1.000000000000000000 ) ) ;
#331 = DIRECTION ( 'NONE',  ( 0.000000000000000000, 0.000000000000000000, -1.000000000000000000 ) ) ;
#332 = EDGE_CURVE ( 'NONE', #263, #236, #21, .T. ) ;
#333 = UNCERTAINTY_MEASURE_WITH_UNIT (LENGTH_MEASURE( 1.000000000000000082E-05 ), #368, 'distance_accuracy_value', 'NONE');
#334 = SURFACE_STYLE_USAGE ( .BOTH. , #336 ) ;
#335 = CIRCLE ( 'NONE', #160, 8.000000000000001776 ) ;
#336 = SURFACE_SIDE_STYLE ('',( #194 ) ) ;
#337 = CYLINDRICAL_SURFACE ( 'NONE', #360, 8.000000000000000000 ) ;
#338 = EDGE_LOOP ( 'NONE', ( #31, #89, #240, #367 ) ) ;
#339 = DIRECTION ( 'NONE',  ( -0.000000000000000000, -1.000000000000000000, -0.000000000000000000 ) ) ;
#340 = CARTESIAN_POINT ( 'NONE',  ( 6.288372600415925717E-15, 24.00000000000000000, 0.000000000000000000 ) ) ;
#341 = ORIENTED_EDGE ( 'NONE', *, *, #118, .F. ) ;
#342 = CIRCLE ( 'NONE', #185, 7.999999999999992895 ) ;
#343 = CARTESIAN_POINT ( 'NONE',  ( 0.000000000000000000, 0.000000000000000000, 0.000000000000000000 ) ) ;
#344 = DIRECTION ( 'NONE',  ( 0.000000000000000000, 1.000000000000000000, 0.000000000000000000 ) ) ;
#345 = VERTEX_POINT ( 'NONE', #186 ) ;
#346 = CARTESIAN_POINT ( 'NONE',  ( 0.000000000000000000, 24.00000000000000000, -8.000000000000000000 ) ) ;
#347 =( LENGTH_UNIT ( ) NAMED_UNIT ( * ) SI_UNIT ( .MILLI., .METRE. ) );
#348 = CARTESIAN_POINT ( 'NONE',  ( 0.000000000000000000, 0.5000000000000000000, 0.000000000000000000 ) ) ;
#349 = ORIENTED_EDGE ( 'NONE', *, *, #163, .T. ) ;
#350 = PRESENTATION_STYLE_ASSIGNMENT (( #205 ) ) ;
#351 = DIRECTION ( 'NONE',  ( -0.000000000000000000, -1.000000000000000000, -0.000000000000000000 ) ) ;
#352 = CARTESIAN_POINT ( 'NONE',  ( -7.999999999999998224, 89.00000000000000000, 0.000000000000000000 ) ) ;
#353 = VECTOR ( 'NONE', #216, 1000.000000000000000 ) ;
#354 = CARTESIAN_POINT ( 'NONE',  ( 9.491012693391985815E-16, 0.000000000000000000, 7.500000000000000000 ) ) ;
#355 = LINE ( 'NONE', #249, #353 ) ;
#356 = CARTESIAN_POINT ( 'NONE',  ( -1.714505518806293849E-15, 89.00000000000000000, 0.000000000000000000 ) ) ;
#357 = PRESENTATION_LAYER_ASSIGNMENT (  '', '', ( #159 ) ) ;
#358 = DIRECTION ( 'NONE',  ( -0.000000000000000000, -1.000000000000000000, -0.000000000000000000 ) ) ;
#359 = ADVANCED_FACE ( 'NONE', ( #105 ), #271, .T. ) ;
#360 = AXIS2_PLACEMENT_3D ( 'NONE', #50, #339, #122 ) ;
#361 = COLOUR_RGB ( '',1.000000000000000000, 0.000000000000000000, 0.000000000000000000 ) ;
#362 = PRESENTATION_STYLE_ASSIGNMENT (( #139 ) ) ;
#363 = CARTESIAN_POINT ( 'NONE',  ( 6.288372600415925717E-15, 23.99999999999999289, 0.000000000000000000 ) ) ;
#364 = TOROIDAL_SURFACE ( 'NONE', #228, 7.500000000000000000, 0.5000000000000002220 ) ;
#365 = CIRCLE ( 'NONE', #114, 8.000000000000000000 ) ;
#366 = SURFACE_SIDE_STYLE ('',( #97 ) ) ;
#367 = ORIENTED_EDGE ( 'NONE', *, *, #141, .F. ) ;
#368 =( LENGTH_UNIT ( ) NAMED_UNIT ( * ) SI_UNIT ( .MILLI., .METRE. ) );
#369 = EDGE_LOOP ( 'NONE', ( #171, #98, #23, #59 ) ) ;
#370 = ORIENTED_EDGE ( 'NONE', *, *, #118, .T. ) ;
ENDSEC;
END-ISO-10303-21;
