ISO-10303-21;
HEADER;
FILE_DESCRIPTION (( 'STEP AP214' ),
    '1' );
FILE_NAME ('Micro_RTC-250-145.STEP',
    '2021-09-03T18:09:16',
    ( '' ),
    ( '' ),
    'SwSTEP 2.0',
    'SolidWorks 2020',
    '' );
FILE_SCHEMA (( 'AUTOMOTIVE_DESIGN' ));
ENDSEC;

DATA;
#1 = EDGE_CURVE ( 'NONE', #194, #73, #82, .T. ) ;
#2 = DIRECTION ( 'NONE',  ( -0.2588190451025216832, 3.169619151431776035E-17, 0.9659258262890679791 ) ) ;
#3 = EDGE_LOOP ( 'NONE', ( #167, #117, #244, #232 ) ) ;
#4 = ORIENTED_EDGE ( 'NONE', *, *, #41, .F. ) ;
#5 = PRODUCT_DEFINITION_SHAPE ( 'NONE', 'NONE',  #133 ) ;
#6 = DIRECTION ( 'NONE',  ( -0.0000000000000000000, -0.0000000000000000000, -1.000000000000000000 ) ) ;
#7 = CARTESIAN_POINT ( 'NONE',  ( 0.0000000000000000000, 0.0000000000000000000, 0.0000000000000000000 ) ) ;
#8 = PRODUCT_CONTEXT ( 'NONE', #48, 'mechanical' ) ;
#9 = FACE_OUTER_BOUND ( 'NONE', #176, .T. ) ;
#10 = EDGE_CURVE ( 'NONE', #191, #73, #20, .T. ) ;
#11 = DIRECTION ( 'NONE',  ( -0.0000000000000000000, -0.0000000000000000000, -1.000000000000000000 ) ) ;
#12 =( CONVERSION_BASED_UNIT ( 'INCH', #66 ) LENGTH_UNIT ( ) NAMED_UNIT ( #210 ) );
#13 = CIRCLE ( 'NONE', #182, 0.1100000000000001948 ) ;
#14 =( GEOMETRIC_REPRESENTATION_CONTEXT ( 3 ) GLOBAL_UNCERTAINTY_ASSIGNED_CONTEXT ( ( #125 ) ) GLOBAL_UNIT_ASSIGNED_CONTEXT ( ( #200, #188, #205 ) ) REPRESENTATION_CONTEXT ( 'NONE', 'WORKASPACE' ) );
#15 = CARTESIAN_POINT ( 'NONE',  ( -0.1250000000000000000, 0.0000000000000000000, 2.485000000000000320 ) ) ;
#16 = ORIENTED_EDGE ( 'NONE', *, *, #159, .T. ) ;
#17 = VERTEX_POINT ( 'NONE', #172 ) ;
#18 = VECTOR ( 'NONE', #83, 39.37007874015748143 ) ;
#19 = ORIENTED_EDGE ( 'NONE', *, *, #88, .F. ) ;
#20 = LINE ( 'NONE', #132, #185 ) ;
#21 = CONICAL_SURFACE ( 'NONE', #42, 0.1100000000000001948, 0.7853981633974517207 ) ;
#22 = VERTEX_POINT ( 'NONE', #216 ) ;
#23 =( LENGTH_UNIT ( ) NAMED_UNIT ( * ) SI_UNIT ( $, .METRE. ) );
#24 = ORIENTED_EDGE ( 'NONE', *, *, #129, .T. ) ;
#25 = CLOSED_SHELL ( 'NONE', ( #165, #215, #80, #147, #236, #57, #223, #226 ) ) ;
#26 = DIRECTION ( 'NONE',  ( -1.000000000000000000, 0.0000000000000000000, 0.0000000000000000000 ) ) ;
#27 = DIRECTION ( 'NONE',  ( -0.0000000000000000000, -0.0000000000000000000, -1.000000000000000000 ) ) ;
#28 = DIRECTION ( 'NONE',  ( 1.000000000000000000, 0.0000000000000000000, 0.0000000000000000000 ) ) ;
#29 = CARTESIAN_POINT ( 'NONE',  ( 0.0000000000000000000, 0.0000000000000000000, 0.3844012331795928494 ) ) ;
#30 = EDGE_CURVE ( 'NONE', #78, #191, #157, .T. ) ;
#31 = CARTESIAN_POINT ( 'NONE',  ( 0.0000000000000000000, 0.0000000000000000000, 2.500000000000000000 ) ) ;
#32 = MANIFOLD_SOLID_BREP ( 'Cut-Revolve1', #25 ) ;
#33 = AXIS2_PLACEMENT_3D ( 'NONE', #91, #111, #144 ) ;
#34 = ORIENTED_EDGE ( 'NONE', *, *, #122, .T. ) ;
#35 = DIRECTION ( 'NONE',  ( 0.0000000000000000000, 0.0000000000000000000, 1.000000000000000000 ) ) ;
#36 = ORIENTED_EDGE ( 'NONE', *, *, #122, .F. ) ;
#37 = AXIS2_PLACEMENT_3D ( 'NONE', #137, #217, #28 ) ;
#38 = VECTOR ( 'NONE', #6, 39.37007874015748143 ) ;
#39 = DIRECTION ( 'NONE',  ( -0.0000000000000000000, -0.0000000000000000000, -1.000000000000000000 ) ) ;
#40 = FILL_AREA_STYLE ('',( #238 ) ) ;
#41 = EDGE_CURVE ( 'NONE', #78, #17, #13, .T. ) ;
#42 = AXIS2_PLACEMENT_3D ( 'NONE', #162, #143, #180 ) ;
#43 = DIRECTION ( 'NONE',  ( 1.000000000000000000, 0.0000000000000000000, 0.0000000000000000000 ) ) ;
#44 = CARTESIAN_POINT ( 'NONE',  ( 0.0000000000000000000, 0.0000000000000000000, 2.485000000000000320 ) ) ;
#45 = CARTESIAN_POINT ( 'NONE',  ( 0.0000000000000000000, 0.0000000000000000000, 0.3844012331795928494 ) ) ;
#46 =( NAMED_UNIT ( * ) SI_UNIT ( $, .STERADIAN. ) SOLID_ANGLE_UNIT ( ) );
#47 = CARTESIAN_POINT ( 'NONE',  ( 0.1250000000000000000, 1.530808498934191509E-17, 0.3844012331795928494 ) ) ;
#48 = APPLICATION_CONTEXT ( 'automotive_design' ) ;
#49 =( NAMED_UNIT ( * ) PLANE_ANGLE_UNIT ( ) SI_UNIT ( $, .RADIAN. ) );
#50 = SURFACE_SIDE_STYLE ('',( #229 ) ) ;
#51 = EDGE_LOOP ( 'NONE', ( #112, #34, #116, #209 ) ) ;
#52 = COLOUR_RGB ( '',0.7921568627450980005, 0.8196078431372548767, 0.9333333333333333481 ) ;
#53 = COLOUR_RGB ( '',0.7921568627450980005, 0.8196078431372548767, 0.9333333333333333481 ) ;
#54 = CARTESIAN_POINT ( 'NONE',  ( -0.02199999999999999872, 2.694222958124176868E-18, 0.0000000000000000000 ) ) ;
#55 = ORIENTED_EDGE ( 'NONE', *, *, #107, .T. ) ;
#56 = EDGE_LOOP ( 'NONE', ( #16, #93 ) ) ;
#57 = ADVANCED_FACE ( 'NONE', ( #9 ), #21, .T. ) ;
#58 = ORIENTED_EDGE ( 'NONE', *, *, #103, .F. ) ;
#59 = EDGE_CURVE ( 'NONE', #17, #78, #154, .T. ) ;
#60 = DIRECTION ( 'NONE',  ( 0.0000000000000000000, 0.0000000000000000000, 1.000000000000000000 ) ) ;
#61 =( GEOMETRIC_REPRESENTATION_CONTEXT ( 3 ) GLOBAL_UNCERTAINTY_ASSIGNED_CONTEXT ( ( #228 ) ) GLOBAL_UNIT_ASSIGNED_CONTEXT ( ( #97, #79, #46 ) ) REPRESENTATION_CONTEXT ( 'NONE', 'WORKASPACE' ) );
#62 = DIRECTION ( 'NONE',  ( 0.2588190451025216832, 0.0000000000000000000, 0.9659258262890679791 ) ) ;
#63 = LINE ( 'NONE', #196, #212 ) ;
#64 = DIRECTION ( 'NONE',  ( -1.000000000000000000, 0.0000000000000000000, 0.0000000000000000000 ) ) ;
#65 = AXIS2_PLACEMENT_3D ( 'NONE', #164, #124, #102 ) ;
#66 = LENGTH_MEASURE_WITH_UNIT ( LENGTH_MEASURE( 0.02539999999999999897 ), #108 );
#67 = DIRECTION ( 'NONE',  ( -0.0000000000000000000, -0.0000000000000000000, -1.000000000000000000 ) ) ;
#68 = EDGE_LOOP ( 'NONE', ( #235, #55, #58, #187 ) ) ;
#69 = FACE_OUTER_BOUND ( 'NONE', #211, .T. ) ;
#70 = PRESENTATION_LAYER_ASSIGNMENT (  '', '', ( #181 ) ) ;
#71 = LENGTH_MEASURE_WITH_UNIT ( LENGTH_MEASURE( 0.02539999999999999897 ), #186 );
#72 = APPLICATION_PROTOCOL_DEFINITION ( 'draft international standard', 'automotive_design', 1998, #48 ) ;
#73 = VERTEX_POINT ( 'NONE', #241 ) ;
#74 = AXIS2_PLACEMENT_3D ( 'NONE', #29, #184, #221 ) ;
#75 = AXIS2_PLACEMENT_3D ( 'NONE', #145, #35, #149 ) ;
#76 = LENGTH_MEASURE_WITH_UNIT ( LENGTH_MEASURE( 0.02539999999999999897 ), #23 );
#77 = EDGE_CURVE ( 'NONE', #22, #134, #86, .T. ) ;
#78 = VERTEX_POINT ( 'NONE', #85 ) ;
#79 =( NAMED_UNIT ( * ) PLANE_ANGLE_UNIT ( ) SI_UNIT ( $, .RADIAN. ) );
#80 = ADVANCED_FACE ( 'NONE', ( #220 ), #178, .T. ) ;
#81 = AXIS2_PLACEMENT_3D ( 'NONE', #242, #11, #240 ) ;
#82 = LINE ( 'NONE', #54, #89 ) ;
#83 = DIRECTION ( 'NONE',  ( 0.7071067811865499042, 8.659560562354961208E-17, -0.7071067811865451302 ) ) ;
#84 = CONICAL_SURFACE ( 'NONE', #231, 0.1100000000000001948, 0.7853981633974517207 ) ;
#85 = CARTESIAN_POINT ( 'NONE',  ( -0.1100000000000001948, 0.0000000000000000000, 2.500000000000000000 ) ) ;
#86 = LINE ( 'NONE', #222, #38 ) ;
#87 = CYLINDRICAL_SURFACE ( 'NONE', #224, 0.1250000000000000000 ) ;
#88 = EDGE_CURVE ( 'NONE', #98, #134, #63, .T. ) ;
#89 = VECTOR ( 'NONE', #2, 39.37007874015748143 ) ;
#90 = SURFACE_STYLE_USAGE ( .BOTH. , #50 ) ;
#91 = CARTESIAN_POINT ( 'NONE',  ( 0.0000000000000000000, 0.0000000000000000000, 0.0000000000000000000 ) ) ;
#92 = FACE_OUTER_BOUND ( 'NONE', #56, .T. ) ;
#93 = ORIENTED_EDGE ( 'NONE', *, *, #177, .T. ) ;
#94 = ORIENTED_EDGE ( 'NONE', *, *, #177, .F. ) ;
#95 = AXIS2_PLACEMENT_3D ( 'NONE', #225, #106, #183 ) ;
#96 = SURFACE_SIDE_STYLE ('',( #192 ) ) ;
#97 =( CONVERSION_BASED_UNIT ( 'INCH', #76 ) LENGTH_UNIT ( ) NAMED_UNIT ( #213 ) );
#98 = VERTEX_POINT ( 'NONE', #138 ) ;
#99 = CONICAL_SURFACE ( 'NONE', #171, 0.02199999999999999872, 0.2617993877991502960 ) ;
#100 = FACE_OUTER_BOUND ( 'NONE', #248, .T. ) ;
#101 = CARTESIAN_POINT ( 'NONE',  ( 0.0000000000000000000, 0.0000000000000000000, 0.0000000000000000000 ) ) ;
#102 = DIRECTION ( 'NONE',  ( 1.000000000000000000, 0.0000000000000000000, 0.0000000000000000000 ) ) ;
#103 = EDGE_CURVE ( 'NONE', #191, #22, #243, .T. ) ;
#104 =( GEOMETRIC_REPRESENTATION_CONTEXT ( 3 ) GLOBAL_UNCERTAINTY_ASSIGNED_CONTEXT ( ( #198 ) ) GLOBAL_UNIT_ASSIGNED_CONTEXT ( ( #12, #49, #161 ) ) REPRESENTATION_CONTEXT ( 'NONE', 'WORKASPACE' ) );
#105 = AXIS2_PLACEMENT_3D ( 'NONE', #44, #123, #43 ) ;
#106 = DIRECTION ( 'NONE',  ( 0.0000000000000000000, 0.0000000000000000000, 1.000000000000000000 ) ) ;
#107 = EDGE_CURVE ( 'NONE', #17, #22, #218, .T. ) ;
#108 =( LENGTH_UNIT ( ) NAMED_UNIT ( * ) SI_UNIT ( $, .METRE. ) );
#109 = CARTESIAN_POINT ( 'NONE',  ( 0.0000000000000000000, 0.0000000000000000000, 0.0000000000000000000 ) ) ;
#110 = ORIENTED_EDGE ( 'NONE', *, *, #115, .T. ) ;
#111 = DIRECTION ( 'NONE',  ( 0.0000000000000000000, 0.0000000000000000000, 1.000000000000000000 ) ) ;
#112 = ORIENTED_EDGE ( 'NONE', *, *, #77, .F. ) ;
#113 = FILL_AREA_STYLE ('',( #206 ) ) ;
#114 = PRODUCT_DEFINITION_CONTEXT ( 'detailed design', #131, 'design' ) ;
#115 = EDGE_CURVE ( 'NONE', #134, #73, #189, .T. ) ;
#116 = ORIENTED_EDGE ( 'NONE', *, *, #10, .T. ) ;
#117 = ORIENTED_EDGE ( 'NONE', *, *, #77, .T. ) ;
#118 = PRESENTATION_STYLE_ASSIGNMENT (( #175 ) ) ;
#119 = ORIENTED_EDGE ( 'NONE', *, *, #1, .T. ) ;
#120 = STYLED_ITEM ( 'NONE', ( #118 ), #32 ) ;
#121 = DIRECTION ( 'NONE',  ( -0.0000000000000000000, -0.0000000000000000000, -1.000000000000000000 ) ) ;
#122 = EDGE_CURVE ( 'NONE', #22, #191, #193, .T. ) ;
#123 = DIRECTION ( 'NONE',  ( 0.0000000000000000000, 0.0000000000000000000, -1.000000000000000000 ) ) ;
#124 = DIRECTION ( 'NONE',  ( 0.0000000000000000000, 0.0000000000000000000, -1.000000000000000000 ) ) ;
#125 = UNCERTAINTY_MEASURE_WITH_UNIT (LENGTH_MEASURE( 1.000000000000000082E-05 ), #200, 'distance_accuracy_value', 'NONE');
#126 = MECHANICAL_DESIGN_GEOMETRIC_PRESENTATION_REPRESENTATION (  '', ( #181 ), #104 ) ;
#127 = DIRECTION ( 'NONE',  ( -1.000000000000000000, 0.0000000000000000000, 0.0000000000000000000 ) ) ;
#128 = MECHANICAL_DESIGN_GEOMETRIC_PRESENTATION_REPRESENTATION (  '', ( #120 ), #61 ) ;
#129 = EDGE_CURVE ( 'NONE', #73, #134, #136, .T. ) ;
#130 = PRESENTATION_LAYER_ASSIGNMENT (  '', '', ( #120 ) ) ;
#131 = APPLICATION_CONTEXT ( 'automotive_design' ) ;
#132 = CARTESIAN_POINT ( 'NONE',  ( -0.1250000000000000000, 0.0000000000000000000, 2.500000000000000000 ) ) ;
#133 = PRODUCT_DEFINITION ( 'UNKNOWN', '', #234, #114 ) ;
#134 = VERTEX_POINT ( 'NONE', #47 ) ;
#135 = ORIENTED_EDGE ( 'NONE', *, *, #59, .T. ) ;
#136 = CIRCLE ( 'NONE', #219, 0.1250000000000000000 ) ;
#137 = CARTESIAN_POINT ( 'NONE',  ( 0.0000000000000000000, 0.0000000000000000000, 0.0000000000000000000 ) ) ;
#138 = CARTESIAN_POINT ( 'NONE',  ( 0.02199999999999999872, 0.0000000000000000000, 0.0000000000000000000 ) ) ;
#139 = CIRCLE ( 'NONE', #173, 0.02199999999999999872 ) ;
#140 = DIRECTION ( 'NONE',  ( 0.0000000000000000000, 0.0000000000000000000, 1.000000000000000000 ) ) ;
#141 = PRODUCT_RELATED_PRODUCT_CATEGORY ( 'part', '', ( #214 ) ) ;
#142 = CARTESIAN_POINT ( 'NONE',  ( 0.1100000000000001948, 1.347111479062090784E-17, 2.500000000000000000 ) ) ;
#143 = DIRECTION ( 'NONE',  ( 0.0000000000000000000, 0.0000000000000000000, -1.000000000000000000 ) ) ;
#144 = DIRECTION ( 'NONE',  ( 1.000000000000000000, 0.0000000000000000000, -0.0000000000000000000 ) ) ;
#145 = CARTESIAN_POINT ( 'NONE',  ( 0.0000000000000000000, 0.0000000000000000000, 2.500000000000000000 ) ) ;
#146 = EDGE_LOOP ( 'NONE', ( #246, #230, #155, #110 ) ) ;
#147 = ADVANCED_FACE ( 'NONE', ( #195 ), #87, .T. ) ;
#148 = AXIS2_PLACEMENT_3D ( 'NONE', #109, #204, #151 ) ;
#149 = DIRECTION ( 'NONE',  ( 1.000000000000000000, 0.0000000000000000000, -0.0000000000000000000 ) ) ;
#150 = VECTOR ( 'NONE', #208, 39.37007874015748143 ) ;
#151 = DIRECTION ( 'NONE',  ( 1.000000000000000000, 0.0000000000000000000, 0.0000000000000000000 ) ) ;
#152 = SHAPE_DEFINITION_REPRESENTATION ( #5, #201 ) ;
#153 = ORIENTED_EDGE ( 'NONE', *, *, #107, .F. ) ;
#154 = CIRCLE ( 'NONE', #95, 0.1100000000000001948 ) ;
#155 = ORIENTED_EDGE ( 'NONE', *, *, #88, .T. ) ;
#156 = ORIENTED_EDGE ( 'NONE', *, *, #41, .T. ) ;
#157 = LINE ( 'NONE', #158, #150 ) ;
#158 = CARTESIAN_POINT ( 'NONE',  ( -0.1100000000000001948, 0.0000000000000000000, 2.500000000000000000 ) ) ;
#159 = EDGE_CURVE ( 'NONE', #98, #194, #139, .T. ) ;
#160 = CARTESIAN_POINT ( 'NONE',  ( 0.0000000000000000000, 0.0000000000000000000, 0.0000000000000000000 ) ) ;
#161 =( NAMED_UNIT ( * ) SI_UNIT ( $, .STERADIAN. ) SOLID_ANGLE_UNIT ( ) );
#162 = CARTESIAN_POINT ( 'NONE',  ( 0.0000000000000000000, 0.0000000000000000000, 2.500000000000000000 ) ) ;
#163 = APPLICATION_PROTOCOL_DEFINITION ( 'draft international standard', 'automotive_design', 1998, #131 ) ;
#164 = CARTESIAN_POINT ( 'NONE',  ( 0.0000000000000000000, 0.0000000000000000000, 2.485000000000000320 ) ) ;
#165 = ADVANCED_FACE ( 'NONE', ( #100 ), #99, .T. ) ;
#166 = DIRECTION ( 'NONE',  ( -0.0000000000000000000, -0.0000000000000000000, -1.000000000000000000 ) ) ;
#167 = ORIENTED_EDGE ( 'NONE', *, *, #103, .T. ) ;
#168 = PLANE ( 'NONE',  #33 ) ;
#169 = CARTESIAN_POINT ( 'NONE',  ( 0.0000000000000000000, 0.0000000000000000000, 2.500000000000000000 ) ) ;
#170 = DIRECTION ( 'NONE',  ( 0.0000000000000000000, 0.0000000000000000000, -1.000000000000000000 ) ) ;
#171 = AXIS2_PLACEMENT_3D ( 'NONE', #160, #60, #179 ) ;
#172 = CARTESIAN_POINT ( 'NONE',  ( 0.1100000000000001948, 1.438959988998141146E-17, 2.500000000000000000 ) ) ;
#173 = AXIS2_PLACEMENT_3D ( 'NONE', #101, #166, #26 ) ;
#174 = CONICAL_SURFACE ( 'NONE', #148, 0.02199999999999999872, 0.2617993877991502960 ) ;
#175 = SURFACE_STYLE_USAGE ( .BOTH. , #96 ) ;
#176 = EDGE_LOOP ( 'NONE', ( #153, #4, #237, #36 ) ) ;
#177 = EDGE_CURVE ( 'NONE', #194, #98, #203, .T. ) ;
#178 = CYLINDRICAL_SURFACE ( 'NONE', #81, 0.1250000000000000000 ) ;
#179 = DIRECTION ( 'NONE',  ( 1.000000000000000000, 0.0000000000000000000, 0.0000000000000000000 ) ) ;
#180 = DIRECTION ( 'NONE',  ( -1.000000000000000000, 0.0000000000000000000, 0.0000000000000000000 ) ) ;
#181 = STYLED_ITEM ( 'NONE', ( #233 ), #201 ) ;
#182 = AXIS2_PLACEMENT_3D ( 'NONE', #239, #140, #197 ) ;
#183 = DIRECTION ( 'NONE',  ( 1.000000000000000000, 0.0000000000000000000, 0.0000000000000000000 ) ) ;
#184 = DIRECTION ( 'NONE',  ( -0.0000000000000000000, -0.0000000000000000000, -1.000000000000000000 ) ) ;
#185 = VECTOR ( 'NONE', #39, 39.37007874015748143 ) ;
#186 =( LENGTH_UNIT ( ) NAMED_UNIT ( * ) SI_UNIT ( $, .METRE. ) );
#187 = ORIENTED_EDGE ( 'NONE', *, *, #30, .F. ) ;
#188 =( NAMED_UNIT ( * ) PLANE_ANGLE_UNIT ( ) SI_UNIT ( $, .RADIAN. ) );
#189 = CIRCLE ( 'NONE', #74, 0.1250000000000000000 ) ;
#190 = DIMENSIONAL_EXPONENTS ( 1.000000000000000000, 0.0000000000000000000, 0.0000000000000000000, 0.0000000000000000000, 0.0000000000000000000, 0.0000000000000000000, 0.0000000000000000000 ) ;
#191 = VERTEX_POINT ( 'NONE', #15 ) ;
#192 = SURFACE_STYLE_FILL_AREA ( #40 ) ;
#193 = CIRCLE ( 'NONE', #65, 0.1250000000000000000 ) ;
#194 = VERTEX_POINT ( 'NONE', #245 ) ;
#195 = FACE_OUTER_BOUND ( 'NONE', #51, .T. ) ;
#196 = CARTESIAN_POINT ( 'NONE',  ( 0.02199999999999999872, 0.0000000000000000000, 0.0000000000000000000 ) ) ;
#197 = DIRECTION ( 'NONE',  ( 1.000000000000000000, 0.0000000000000000000, 0.0000000000000000000 ) ) ;
#198 = UNCERTAINTY_MEASURE_WITH_UNIT (LENGTH_MEASURE( 1.000000000000000082E-05 ), #12, 'distance_accuracy_value', 'NONE');
#199 = DIRECTION ( 'NONE',  ( -1.000000000000000000, 0.0000000000000000000, 0.0000000000000000000 ) ) ;
#200 =( CONVERSION_BASED_UNIT ( 'INCH', #71 ) LENGTH_UNIT ( ) NAMED_UNIT ( #190 ) );
#201 = ADVANCED_BREP_SHAPE_REPRESENTATION ( 'Micro_RTC-250-145', ( #32, #37 ), #14 ) ;
#202 = DIRECTION ( 'NONE',  ( -1.000000000000000000, 0.0000000000000000000, 0.0000000000000000000 ) ) ;
#203 = CIRCLE ( 'NONE', #207, 0.02199999999999999872 ) ;
#204 = DIRECTION ( 'NONE',  ( 0.0000000000000000000, 0.0000000000000000000, 1.000000000000000000 ) ) ;
#205 =( NAMED_UNIT ( * ) SI_UNIT ( $, .STERADIAN. ) SOLID_ANGLE_UNIT ( ) );
#206 = FILL_AREA_STYLE_COLOUR ( '', #53 ) ;
#207 = AXIS2_PLACEMENT_3D ( 'NONE', #7, #67, #127 ) ;
#208 = DIRECTION ( 'NONE',  ( -0.7071067811865499042, 0.0000000000000000000, -0.7071067811865451302 ) ) ;
#209 = ORIENTED_EDGE ( 'NONE', *, *, #115, .F. ) ;
#210 = DIMENSIONAL_EXPONENTS ( 1.000000000000000000, 0.0000000000000000000, 0.0000000000000000000, 0.0000000000000000000, 0.0000000000000000000, 0.0000000000000000000, 0.0000000000000000000 ) ;
#211 = EDGE_LOOP ( 'NONE', ( #156, #135 ) ) ;
#212 = VECTOR ( 'NONE', #62, 39.37007874015748143 ) ;
#213 = DIMENSIONAL_EXPONENTS ( 1.000000000000000000, 0.0000000000000000000, 0.0000000000000000000, 0.0000000000000000000, 0.0000000000000000000, 0.0000000000000000000, 0.0000000000000000000 ) ;
#214 = PRODUCT ( 'Micro_RTC-250-145', 'Micro_RTC-250-145', '', ( #8 ) ) ;
#215 = ADVANCED_FACE ( 'NONE', ( #227 ), #84, .T. ) ;
#216 = CARTESIAN_POINT ( 'NONE',  ( 0.1250000000000000000, 1.530808498934191509E-17, 2.485000000000000320 ) ) ;
#217 = DIRECTION ( 'NONE',  ( 0.0000000000000000000, 0.0000000000000000000, 1.000000000000000000 ) ) ;
#218 = LINE ( 'NONE', #142, #18 ) ;
#219 = AXIS2_PLACEMENT_3D ( 'NONE', #45, #121, #199 ) ;
#220 = FACE_OUTER_BOUND ( 'NONE', #3, .T. ) ;
#221 = DIRECTION ( 'NONE',  ( -1.000000000000000000, 0.0000000000000000000, 0.0000000000000000000 ) ) ;
#222 = CARTESIAN_POINT ( 'NONE',  ( 0.1250000000000000000, 1.530808498934191509E-17, 2.500000000000000000 ) ) ;
#223 = ADVANCED_FACE ( 'NONE', ( #247 ), #174, .T. ) ;
#224 = AXIS2_PLACEMENT_3D ( 'NONE', #31, #27, #64 ) ;
#225 = CARTESIAN_POINT ( 'NONE',  ( 0.0000000000000000000, 0.0000000000000000000, 2.500000000000000000 ) ) ;
#226 = ADVANCED_FACE ( 'NONE', ( #92 ), #168, .F. ) ;
#227 = FACE_OUTER_BOUND ( 'NONE', #68, .T. ) ;
#228 = UNCERTAINTY_MEASURE_WITH_UNIT (LENGTH_MEASURE( 1.000000000000000082E-05 ), #97, 'distance_accuracy_value', 'NONE');
#229 = SURFACE_STYLE_FILL_AREA ( #113 ) ;
#230 = ORIENTED_EDGE ( 'NONE', *, *, #159, .F. ) ;
#231 = AXIS2_PLACEMENT_3D ( 'NONE', #169, #170, #202 ) ;
#232 = ORIENTED_EDGE ( 'NONE', *, *, #10, .F. ) ;
#233 = PRESENTATION_STYLE_ASSIGNMENT (( #90 ) ) ;
#234 = PRODUCT_DEFINITION_FORMATION_WITH_SPECIFIED_SOURCE ( 'ANY', '', #214, .NOT_KNOWN. ) ;
#235 = ORIENTED_EDGE ( 'NONE', *, *, #59, .F. ) ;
#236 = ADVANCED_FACE ( 'NONE', ( #69 ), #249, .T. ) ;
#237 = ORIENTED_EDGE ( 'NONE', *, *, #30, .T. ) ;
#238 = FILL_AREA_STYLE_COLOUR ( '', #52 ) ;
#239 = CARTESIAN_POINT ( 'NONE',  ( 0.0000000000000000000, 0.0000000000000000000, 2.500000000000000000 ) ) ;
#240 = DIRECTION ( 'NONE',  ( -1.000000000000000000, 0.0000000000000000000, 0.0000000000000000000 ) ) ;
#241 = CARTESIAN_POINT ( 'NONE',  ( -0.1250000000000000000, 0.0000000000000000000, 0.3844012331795928494 ) ) ;
#242 = CARTESIAN_POINT ( 'NONE',  ( 0.0000000000000000000, 0.0000000000000000000, 2.500000000000000000 ) ) ;
#243 = CIRCLE ( 'NONE', #105, 0.1250000000000000000 ) ;
#244 = ORIENTED_EDGE ( 'NONE', *, *, #129, .F. ) ;
#245 = CARTESIAN_POINT ( 'NONE',  ( -0.02199999999999999872, 9.001153973733046171E-18, 0.0000000000000000000 ) ) ;
#246 = ORIENTED_EDGE ( 'NONE', *, *, #1, .F. ) ;
#247 = FACE_OUTER_BOUND ( 'NONE', #146, .T. ) ;
#248 = EDGE_LOOP ( 'NONE', ( #94, #119, #24, #19 ) ) ;
#249 = PLANE ( 'NONE',  #75 ) ;
ENDSEC;
END-ISO-10303-21;
